  0
SECTION
  2
HEADER
  9
$ACADVER
  1
AC1014
  9
$ACADMAINTVER
 70
     9
  9
$DWGCODEPAGE
  3
ANSI_1252
  9
$INSBASE
 10
0.0
 20
0.0
 30
0.0
  9
$EXTMIN
 10
-15.424506
 20
-9.741446
 30
0.0
  9
$EXTMAX
 10
15.431526
 20
9.738067
 30
0.0
  9
$LIMMIN
 10
0.0
 20
0.0
  9
$LIMMAX
 10
12.0
 20
9.0
  9
$ORTHOMODE
 70
     0
  9
$REGENMODE
 70
     1
  9
$FILLMODE
 70
     1
  9
$QTEXTMODE
 70
     0
  9
$MIRRTEXT
 70
     1
  9
$DRAGMODE
 70
     2
  9
$LTSCALE
 40
1.0
  9
$OSMODE
 70
    37
  9
$ATTMODE
 70
     1
  9
$TEXTSIZE
 40
1.0
  9
$TRACEWID
 40
0.05
  9
$TEXTSTYLE
  7
STANDARD
  9
$CLAYER
  8
0
  9
$CELTYPE
  6
CONTINUOUS
  9
$CECOLOR
 62
   256
  9
$CELTSCALE
 40
1.0
  9
$DELOBJ
 70
     1
  9
$DISPSILH
 70
     0
  9
$DIMSCALE
 40
10.0
  9
$DIMASZ
 40
0.18
  9
$DIMEXO
 40
0.0625
  9
$DIMDLI
 40
0.38
  9
$DIMRND
 40
0.0
  9
$DIMDLE
 40
0.0
  9
$DIMEXE
 40
0.18
  9
$DIMTP
 40
0.0
  9
$DIMTM
 40
0.0
  9
$DIMTXT
 40
0.18
  9
$DIMCEN
 40
0.09
  9
$DIMTSZ
 40
0.0
  9
$DIMTOL
 70
     0
  9
$DIMLIM
 70
     0
  9
$DIMTIH
 70
     1
  9
$DIMTOH
 70
     1
  9
$DIMSE1
 70
     0
  9
$DIMSE2
 70
     0
  9
$DIMTAD
 70
     0
  9
$DIMZIN
 70
     0
  9
$DIMBLK
  1

  9
$DIMASO
 70
     1
  9
$DIMSHO
 70
     1
  9
$DIMPOST
  1

  9
$DIMAPOST
  1

  9
$DIMALT
 70
     0
  9
$DIMALTD
 70
     2
  9
$DIMALTF
 40
25.4
  9
$DIMLFAC
 40
1.0
  9
$DIMTOFL
 70
     0
  9
$DIMTVP
 40
0.0
  9
$DIMTIX
 70
     0
  9
$DIMSOXD
 70
     0
  9
$DIMSAH
 70
     0
  9
$DIMBLK1
  1

  9
$DIMBLK2
  1

  9
$DIMSTYLE
  2
STANDARD
  9
$DIMCLRD
 70
     0
  9
$DIMCLRE
 70
     0
  9
$DIMCLRT
 70
     0
  9
$DIMTFAC
 40
1.0
  9
$DIMGAP
 40
0.09
  9
$DIMJUST
 70
     0
  9
$DIMSD1
 70
     0
  9
$DIMSD2
 70
     0
  9
$DIMTOLJ
 70
     1
  9
$DIMTZIN
 70
     0
  9
$DIMALTZ
 70
     0
  9
$DIMALTTZ
 70
     0
  9
$DIMFIT
 70
     3
  9
$DIMUPT
 70
     0
  9
$DIMUNIT
 70
     2
  9
$DIMDEC
 70
     4
  9
$DIMTDEC
 70
     4
  9
$DIMALTU
 70
     2
  9
$DIMALTTD
 70
     2
  9
$DIMTXSTY
  7
STANDARD
  9
$DIMAUNIT
 70
     0
  9
$LUNITS
 70
     2
  9
$LUPREC
 70
     4
  9
$SKETCHINC
 40
0.1
  9
$FILLETRAD
 40
0.5
  9
$AUNITS
 70
     0
  9
$AUPREC
 70
     0
  9
$MENU
  1
acad
  9
$ELEVATION
 40
0.0
  9
$PELEVATION
 40
0.0
  9
$THICKNESS
 40
0.0
  9
$LIMCHECK
 70
     0
  9
$CHAMFERA
 40
0.5
  9
$CHAMFERB
 40
0.5
  9
$CHAMFERC
 40
1.0
  9
$CHAMFERD
 40
0.0
  9
$SKPOLY
 70
     0
  9
$TDCREATE
 40
2454127.509740486
  9
$TDUPDATE
 40
2454127.509740498
  9
$TDINDWG
 40
0.0000000116
  9
$TDUSRTIMER
 40
0.0000000116
  9
$USRTIMER
 70
     1
  9
$ANGBASE
 50
0.0
  9
$ANGDIR
 70
     0
  9
$PDMODE
 70
     0
  9
$PDSIZE
 40
0.0
  9
$PLINEWID
 40
0.0
  9
$COORDS
 70
     1
  9
$SPLFRAME
 70
     0
  9
$SPLINETYPE
 70
     6
  9
$SPLINESEGS
 70
     8
  9
$ATTDIA
 70
     0
  9
$ATTREQ
 70
     1
  9
$HANDLING
 70
     1
  9
$HANDSEED
  5
6D4
  9
$SURFTAB1
 70
     6
  9
$SURFTAB2
 70
     6
  9
$SURFTYPE
 70
     6
  9
$SURFU
 70
     6
  9
$SURFV
 70
     6
  9
$UCSNAME
  2

  9
$UCSORG
 10
0.0
 20
0.0
 30
0.0
  9
$UCSXDIR
 10
1.0
 20
0.0
 30
0.0
  9
$UCSYDIR
 10
0.0
 20
1.0
 30
0.0
  9
$PUCSNAME
  2

  9
$PUCSORG
 10
0.0
 20
0.0
 30
0.0
  9
$PUCSXDIR
 10
1.0
 20
0.0
 30
0.0
  9
$PUCSYDIR
 10
0.0
 20
1.0
 30
0.0
  9
$USERI1
 70
     0
  9
$USERI2
 70
     0
  9
$USERI3
 70
     0
  9
$USERI4
 70
     0
  9
$USERI5
 70
     0
  9
$USERR1
 40
0.0
  9
$USERR2
 40
0.0
  9
$USERR3
 40
0.0
  9
$USERR4
 40
0.0
  9
$USERR5
 40
0.0
  9
$WORLDVIEW
 70
     1
  9
$SHADEDGE
 70
     3
  9
$SHADEDIF
 70
    70
  9
$TILEMODE
 70
     1
  9
$MAXACTVP
 70
    64
  9
$PINSBASE
 10
0.0
 20
0.0
 30
0.0
  9
$PLIMCHECK
 70
     0
  9
$PEXTMIN
 10
1.000000E+20
 20
1.000000E+20
 30
1.000000E+20
  9
$PEXTMAX
 10
-1.000000E+20
 20
-1.000000E+20
 30
-1.000000E+20
  9
$PLIMMIN
 10
0.0
 20
0.0
  9
$PLIMMAX
 10
12.0
 20
9.0
  9
$UNITMODE
 70
     0
  9
$VISRETAIN
 70
     1
  9
$PLINEGEN
 70
     0
  9
$PSLTSCALE
 70
     1
  9
$TREEDEPTH
 70
  3020
  9
$PICKSTYLE
 70
     1
  9
$CMLSTYLE
  2
STANDARD
  9
$CMLJUST
 70
     0
  9
$CMLSCALE
 40
1.0
  9
$PROXYGRAPHICS
 70
     1
  9
$MEASUREMENT
 70
     0
  0
ENDSEC
  0
SECTION
  2
CLASSES
  0
CLASS
  1
ACDBDICTIONARYWDFLT
  2
AcDbDictionaryWithDefault
  3
ObjectDBX Classes
 90
        0
280
     0
281
     0
  0
CLASS
  1
XRECORD
  2
AcDbXrecord
  3
AutoCAD 2000
 90
        0
280
     0
281
     0
  0
CLASS
  1
LWPOLYLINE
  2
AcDbPolyline
  3
AutoCAD 2000
 90
        0
280
     0
281
     1
  0
CLASS
  1
HATCH
  2
AcDbHatch
  3
AutoCAD 2000
 90
        0
280
     0
281
     1
  0
CLASS
  1
ACDBPLACEHOLDER
  2
AcDbPlaceHolder
  3
ObjectDBX Classes
 90
        0
280
     0
281
     0
  0
CLASS
  1
LAYOUT
  2
AcDbLayout
  3
ObjectDBX Classes
 90
        0
280
     0
281
     0
  0
ENDSEC
  0
SECTION
  2
TABLES
  0
TABLE
  2
VPORT
  5
67B
330
0
100
AcDbSymbolTable
 70
     2
  0
VPORT
  5
6B0
330
67B
100
AcDbSymbolTableRecord
100
AcDbViewportTableRecord
  2
*ACTIVE
 70
     0
 10
0.0
 20
0.0
 11
1.0
 21
1.0
 12
5.090875
 22
-10.186694
 13
0.0
 23
0.0
 14
1.0
 24
1.0
 15
1.0
 25
1.0
 16
0.0
 26
0.0
 36
1.0
 17
0.0
 27
0.0
 37
0.0
 40
20.795495
 41
4.01899
 42
50.0
 43
0.0
 44
0.0
 50
0.0
 51
0.0
 71
     0
 72
   100
 73
     1
 74
     3
 75
     0
 76
     0
 77
     0
 78
     0
  0
ENDTAB
  0
TABLE
  2
LTYPE
  5
678
330
0
100
AcDbSymbolTable
 70
     1
  0
LTYPE
  5
686
330
678
100
AcDbSymbolTableRecord
100
AcDbLinetypeTableRecord
  2
BYBLOCK
 70
     0
  3

 72
    65
 73
     0
 40
0.0
  0
LTYPE
  5
687
330
678
100
AcDbSymbolTableRecord
100
AcDbLinetypeTableRecord
  2
BYLAYER
 70
     0
  3

 72
    65
 73
     0
 40
0.0
  0
LTYPE
  5
688
330
678
100
AcDbSymbolTableRecord
100
AcDbLinetypeTableRecord
  2
CONTINUOUS
 70
     0
  3
Solid line
 72
    65
 73
     0
 40
0.0
  0
ENDTAB
  0
TABLE
  2
LAYER
  5
675
330
0
100
AcDbSymbolTable
 70
     4
  0
LAYER
  5
683
330
675
100
AcDbSymbolTableRecord
100
AcDbLayerTableRecord
  2
0
 70
     0
 62
     7
  6
CONTINUOUS
  0
LAYER
  5
6AD
330
675
100
AcDbSymbolTableRecord
100
AcDbLayerTableRecord
  2
ALLENBOUNDARY
 70
     0
 62
     7
  6
CONTINUOUS
  0
LAYER
  5
6AE
330
675
100
AcDbSymbolTableRecord
100
AcDbLayerTableRecord
  2
ALLENTILE
 70
     0
 62
     7
  6
CONTINUOUS
  0
LAYER
  5
6AF
330
675
100
AcDbSymbolTableRecord
100
AcDbLayerTableRecord
  2
DEFPOINTS
 70
     0
 62
     7
  6
CONTINUOUS
  0
ENDTAB
  0
TABLE
  2
STYLE
  5
676
330
0
100
AcDbSymbolTable
 70
     1
  0
STYLE
  5
684
330
676
100
AcDbSymbolTableRecord
100
AcDbTextStyleTableRecord
  2
STANDARD
 70
     0
 40
0.0
 41
1.0
 50
0.0
 71
     0
 42
1.0
  3
TXT.SHX
  4

  0
ENDTAB
  0
TABLE
  2
VIEW
  5
679
330
0
100
AcDbSymbolTable
 70
     0
  0
ENDTAB
  0
TABLE
  2
UCS
  5
67A
330
0
100
AcDbSymbolTable
 70
     0
  0
ENDTAB
  0
TABLE
  2
APPID
  5
67C
330
0
100
AcDbSymbolTable
 70
     1
  0
APPID
  5
685
330
67C
100
AcDbSymbolTableRecord
100
AcDbRegAppTableRecord
  2
ACAD
 70
     0
  0
ENDTAB
  0
TABLE
  2
DIMSTYLE
  5
67D
330
0
100
AcDbSymbolTable
 70
     1
  0
DIMSTYLE
105
699
330
67D
100
AcDbSymbolTableRecord
100
AcDbDimStyleTableRecord
  2
STANDARD
 70
     0
  3

  4

  5

  6

  7

 40
1.0
 41
0.18
 42
0.0625
 43
0.38
 44
0.18
 45
0.0
 46
0.0
 47
0.0
 48
0.0
140
0.18
141
0.09
142
0.0
143
25.4
144
1.0
145
0.0
146
1.0
147
0.09
 71
     0
 72
     0
 73
     1
 74
     1
 75
     0
 76
     0
 77
     0
 78
     0
170
     0
171
     2
172
     0
173
     0
174
     0
175
     0
176
     0
177
     0
178
     0
270
     2
271
     4
272
     4
273
     2
274
     2
340
684
275
     0
280
     0
281
     0
282
     0
283
     1
284
     0
285
     0
286
     0
287
     3
288
     0
  0
ENDTAB
  0
TABLE
  2
BLOCK_RECORD
  5
674
330
0
100
AcDbSymbolTable
 70
     6
  0
BLOCK_RECORD
  5
691
330
674
100
AcDbSymbolTableRecord
100
AcDbBlockTableRecord
  2
*MODEL_SPACE
  0
BLOCK_RECORD
  5
68D
330
674
100
AcDbSymbolTableRecord
100
AcDbBlockTableRecord
  2
*PAPER_SPACE
  0
BLOCK_RECORD
  5
69E
330
674
100
AcDbSymbolTableRecord
100
AcDbBlockTableRecord
  2
*D1
  0
BLOCK_RECORD
  5
6A1
330
674
100
AcDbSymbolTableRecord
100
AcDbBlockTableRecord
  2
*D2
  0
BLOCK_RECORD
  5
6A4
330
674
100
AcDbSymbolTableRecord
100
AcDbBlockTableRecord
  2
ARROW
  0
BLOCK_RECORD
  5
6A7
330
674
100
AcDbSymbolTableRecord
100
AcDbBlockTableRecord
  2
TILE_1
  0
BLOCK_RECORD
  5
6AA
330
674
100
AcDbSymbolTableRecord
100
AcDbBlockTableRecord
  2
TILE_BOUNDARY
  0
ENDTAB
  0
ENDSEC
  0
SECTION
  2
BLOCKS
  0
BLOCK
  5
692
330
691
100
AcDbEntity
  8
0
100
AcDbBlockBegin
  2
*MODEL_SPACE
 70
     0
 71
     0
 10
0.0
 20
0.0
 30
0.0
  3
*MODEL_SPACE
  1

  0
ENDBLK
  5
693
330
691
100
AcDbEntity
  8
0
100
AcDbBlockEnd
  0
BLOCK
  5
68E
330
68D
100
AcDbEntity
 67
     1
  8
0
100
AcDbBlockBegin
  2
*PAPER_SPACE
 70
     0
 71
     0
 10
0.0
 20
0.0
 30
0.0
  3
*PAPER_SPACE
  1

  0
ENDBLK
  5
68F
330
68D
100
AcDbEntity
 67
     1
  8
0
100
AcDbBlockEnd
  0
BLOCK
  5
69F
330
69E
100
AcDbEntity
  8
0
100
AcDbBlockBegin
  2
*D1
 70
     1
 71
     0
 10
0.0
 20
0.0
 30
0.0
  3
*D1
  1

  0
POINT
  5
A3
330
69E
100
AcDbEntity
  8
DEFPOINTS
  6
CONTINUOUS
 62
     7
100
AcDbPoint
 10
-15.358045
 20
-0.738816
 30
0.0
  0
POINT
  5
A4
330
69E
100
AcDbEntity
  8
DEFPOINTS
  6
CONTINUOUS
 62
     7
100
AcDbPoint
 10
15.461242
 20
-0.839946
 30
0.0
  0
POINT
  5
A5
330
69E
100
AcDbEntity
  8
DEFPOINTS
  6
CONTINUOUS
 62
     7
100
AcDbPoint
 10
15.461242
 20
-0.662969
 30
0.0
  0
LINE
  5
A6
330
69E
100
AcDbEntity
  8
0
  6
CONTINUOUS
 62
     0
100
AcDbLine
 10
-15.358045
 20
-0.662969
 30
0.0
 11
-0.554101
 21
-0.662969
 31
0.0
  0
LINE
  5
A7
330
69E
100
AcDbEntity
  8
0
  6
CONTINUOUS
 62
     0
100
AcDbLine
 10
15.461242
 20
-0.662969
 30
0.0
 11
0.657299
 21
-0.662969
 31
0.0
  0
INSERT
  5
A8
330
69E
100
AcDbEntity
  8
0
  6
CONTINUOUS
 62
     0
100
AcDbBlockReference
  2
ARROW
 10
15.461242
 20
-0.662969
 30
0.0
 41
0.18
 42
0.18
 43
0.18
  0
INSERT
  5
A9
330
69E
100
AcDbEntity
  8
0
  6
CONTINUOUS
 62
     0
100
AcDbBlockReference
  2
ARROW
 10
-15.358045
 20
-0.662969
 30
0.0
 41
0.18
 42
0.18
 43
0.18
 50
180.0
  0
TEXT
  5
AA
330
69E
100
AcDbEntity
  8
0
  6
CONTINUOUS
 62
     0
100
AcDbText
 10
-0.434401
 20
-0.752969
 30
0.0
 40
0.18
  1
30.8193
 72
     1
 11
0.051599
 21
-0.662969
 31
0.0
100
AcDbText
 73
     2
  0
LINE
  5
AB
330
69E
100
AcDbEntity
  8
0
  6
CONTINUOUS
 62
     0
100
AcDbLine
 10
15.461242
 20
-0.777446
 30
0.0
 11
15.461242
 21
-0.482969
 31
0.0
  0
LINE
  5
AC
330
69E
100
AcDbEntity
  8
0
  6
CONTINUOUS
 62
     0
100
AcDbLine
 10
-15.358045
 20
-0.676316
 30
0.0
 11
-15.358045
 21
-0.482969
 31
0.0
  0
ENDBLK
  5
6A0
330
69E
100
AcDbEntity
  8
0
100
AcDbBlockEnd
  0
BLOCK
  5
6A2
330
6A1
100
AcDbEntity
  8
0
100
AcDbBlockBegin
  2
*D2
 70
     1
 71
     0
 10
0.0
 20
0.0
 30
0.0
  3
*D2
  1

  0
POINT
  5
10A
330
6A1
100
AcDbEntity
  8
DEFPOINTS
  6
CONTINUOUS
 62
     7
100
AcDbPoint
 10
-4.739423
 20
9.728112
 30
0.0
  0
POINT
  5
10B
330
6A1
100
AcDbEntity
  8
DEFPOINTS
  6
CONTINUOUS
 62
     7
100
AcDbPoint
 10
-4.789987
 20
-9.764645
 30
0.0
  0
POINT
  5
10C
330
6A1
100
AcDbEntity
  8
DEFPOINTS
  6
CONTINUOUS
 62
     7
100
AcDbPoint
 10
-4.537163
 20
-9.764645
 30
0.0
  0
LINE
  5
10D
330
6A1
100
AcDbEntity
  8
0
  6
CONTINUOUS
 62
     0
100
AcDbLine
 10
-4.537163
 20
-9.764645
 30
0.0
 11
-4.537163
 21
-0.198267
 31
0.0
  0
LINE
  5
10E
330
6A1
100
AcDbEntity
  8
0
  6
CONTINUOUS
 62
     0
100
AcDbLine
 10
-4.537163
 20
9.728112
 30
0.0
 11
-4.537163
 21
0.161733
 31
0.0
  0
INSERT
  5
10F
330
6A1
100
AcDbEntity
  8
0
  6
CONTINUOUS
 62
     0
100
AcDbBlockReference
  2
ARROW
 10
-4.537163
 20
9.728112
 30
0.0
 41
0.18
 42
0.18
 43
0.18
 50
90.0
  0
INSERT
  5
110
330
6A1
100
AcDbEntity
  8
0
  6
CONTINUOUS
 62
     0
100
AcDbBlockReference
  2
ARROW
 10
-4.537163
 20
-9.764645
 30
0.0
 41
0.18
 42
0.18
 43
0.18
 50
270.0
  0
TEXT
  5
111
330
6A1
100
AcDbEntity
  8
0
  6
CONTINUOUS
 62
     0
100
AcDbText
 10
-5.023163
 20
-0.108267
 30
0.0
 40
0.18
  1
19.4928
 72
     1
 11
-4.537163
 21
-0.018267
 31
0.0
100
AcDbText
 73
     2
  0
LINE
  5
112
330
6A1
100
AcDbEntity
  8
0
  6
CONTINUOUS
 62
     0
100
AcDbLine
 10
-4.727487
 20
-9.764645
 30
0.0
 11
-4.357163
 21
-9.764645
 31
0.0
  0
LINE
  5
113
330
6A1
100
AcDbEntity
  8
0
  6
CONTINUOUS
 62
     0
100
AcDbLine
 10
-4.676923
 20
9.728112
 30
0.0
 11
-4.357163
 21
9.728112
 31
0.0
  0
ENDBLK
  5
6A3
330
6A1
100
AcDbEntity
  8
0
100
AcDbBlockEnd
  0
BLOCK
  5
6A5
330
6A4
100
AcDbEntity
  8
0
100
AcDbBlockBegin
  2
ARROW
 70
     0
 71
     0
 10
0.0
 20
0.0
 30
0.0
  3
ARROW
  1

  0
SOLID
  5
52
330
6A4
100
AcDbEntity
  8
0
  6
BYBLOCK
 62
     0
100
AcDbTrace
 10
-1.0
 20
0.176
 30
0.0
 11
-1.0
 21
-0.176
 31
0.0
 12
0.0
 22
0.0
 32
0.0
 13
0.0
 23
0.0
 33
0.0
  0
ENDBLK
  5
6A6
330
6A4
100
AcDbEntity
  8
0
100
AcDbBlockEnd
  0
BLOCK
  5
6A8
330
6A7
100
AcDbEntity
  8
0
100
AcDbBlockBegin
  2
TILE_1
 70
     0
 71
     0
 10
0.0
 20
0.0
 30
0.0
  3
TILE_1
  1

  0
LINE
  5
492
330
6A7
100
AcDbEntity
  8
ALLENTILE
 62
     1
100
AcDbLine
 10
27.358439
 20
-0.000697
 30
23.47
 11
27.546794
 21
0.0
 31
23.47
  0
LINE
  5
493
330
6A7
100
AcDbEntity
  8
ALLENTILE
 62
     1
100
AcDbLine
 10
27.546794
 20
0.0
 30
23.47
 11
27.734992
 21
-0.007359
 31
23.47
  0
LINE
  5
494
330
6A7
100
AcDbEntity
  8
ALLENTILE
 62
     1
100
AcDbLine
 10
27.734992
 20
-0.007359
 30
23.47
 11
27.922655
 21
-0.022759
 31
23.47
  0
LINE
  5
495
330
6A7
100
AcDbEntity
  8
ALLENTILE
 62
     1
100
AcDbLine
 10
27.922655
 20
-0.022759
 30
23.47
 11
28.109404
 21
-0.046169
 31
23.47
  0
LINE
  5
496
330
6A7
100
AcDbEntity
  8
ALLENTILE
 62
     1
100
AcDbLine
 10
28.109404
 20
-0.046169
 30
23.47
 11
28.294864
 21
-0.077541
 31
23.47
  0
LINE
  5
497
330
6A7
100
AcDbEntity
  8
ALLENTILE
 62
     1
100
AcDbLine
 10
28.294864
 20
-0.077541
 30
23.47
 11
28.478661
 21
-0.116813
 31
23.47
  0
LINE
  5
498
330
6A7
100
AcDbEntity
  8
ALLENTILE
 62
     1
100
AcDbLine
 10
28.478661
 20
-0.116813
 30
23.47
 11
28.660426
 21
-0.163906
 31
23.47
  0
LINE
  5
499
330
6A7
100
AcDbEntity
  8
ALLENTILE
 62
     1
100
AcDbLine
 10
28.660426
 20
-0.163906
 30
23.47
 11
28.839792
 21
-0.218724
 31
23.47
  0
LINE
  5
49A
330
6A7
100
AcDbEntity
  8
ALLENTILE
 62
     1
100
AcDbLine
 10
28.839792
 20
-0.218724
 30
23.47
 11
29.016398
 21
-0.281158
 31
23.47
  0
LINE
  5
49B
330
6A7
100
AcDbEntity
  8
ALLENTILE
 62
     1
100
AcDbLine
 10
29.016398
 20
-0.281158
 30
23.47
 11
29.18989
 21
-0.351081
 31
23.47
  0
LINE
  5
49C
330
6A7
100
AcDbEntity
  8
ALLENTILE
 62
     1
100
AcDbLine
 10
29.18989
 20
-0.351081
 30
23.47
 11
29.359917
 21
-0.428353
 31
23.47
  0
LINE
  5
49D
330
6A7
100
AcDbEntity
  8
ALLENTILE
 62
     1
100
AcDbLine
 10
29.359917
 20
-0.428353
 30
23.47
 11
29.526138
 21
-0.512819
 31
23.47
  0
LINE
  5
49E
330
6A7
100
AcDbEntity
  8
ALLENTILE
 62
     1
100
AcDbLine
 10
29.526138
 20
-0.512819
 30
23.47
 11
29.688218
 21
-0.604308
 31
23.47
  0
LINE
  5
49F
330
6A7
100
AcDbEntity
  8
ALLENTILE
 62
     1
100
AcDbLine
 10
29.688218
 20
-0.604308
 30
23.47
 11
29.84583
 21
-0.702636
 31
23.47
  0
LINE
  5
4A0
330
6A7
100
AcDbEntity
  8
ALLENTILE
 62
     1
100
AcDbLine
 10
29.84583
 20
-0.702636
 30
23.47
 11
29.998657
 21
-0.807605
 31
23.47
  0
LINE
  5
4A1
330
6A7
100
AcDbEntity
  8
ALLENTILE
 62
     1
100
AcDbLine
 10
29.998657
 20
-0.807605
 30
23.47
 11
30.146393
 21
-0.919005
 31
23.47
  0
LINE
  5
4A2
330
6A7
100
AcDbEntity
  8
ALLENTILE
 62
     1
100
AcDbLine
 10
30.146393
 20
-0.919005
 30
23.47
 11
30.288738
 21
-1.03661
 31
23.47
  0
LINE
  5
4A3
330
6A7
100
AcDbEntity
  8
ALLENTILE
 62
     1
100
AcDbLine
 10
30.288738
 20
-1.03661
 30
23.47
 11
30.425407
 21
-1.160184
 31
23.47
  0
LINE
  5
4A4
330
6A7
100
AcDbEntity
  8
ALLENTILE
 62
     1
100
AcDbLine
 10
30.425407
 20
-1.160184
 30
23.47
 11
30.556125
 21
-1.289479
 31
23.47
  0
LINE
  5
4A5
330
6A7
100
AcDbEntity
  8
ALLENTILE
 62
     1
100
AcDbLine
 10
30.556125
 20
-1.289479
 30
23.47
 11
30.680629
 21
-1.424233
 31
23.47
  0
LINE
  5
4A6
330
6A7
100
AcDbEntity
  8
ALLENTILE
 62
     1
100
AcDbLine
 10
30.680629
 20
-1.424233
 30
23.47
 11
30.798667
 21
-1.564176
 31
23.47
  0
LINE
  5
4A7
330
6A7
100
AcDbEntity
  8
ALLENTILE
 62
     1
100
AcDbLine
 10
30.798667
 20
-1.564176
 30
23.47
 11
30.910003
 21
-1.709026
 31
23.47
  0
LINE
  5
4A8
330
6A7
100
AcDbEntity
  8
ALLENTILE
 62
     1
100
AcDbLine
 10
30.910003
 20
-1.709026
 30
23.47
 11
31.014412
 21
-1.858492
 31
23.47
  0
LINE
  5
4A9
330
6A7
100
AcDbEntity
  8
ALLENTILE
 62
     1
100
AcDbLine
 10
31.014412
 20
-1.858492
 30
23.47
 11
31.111684
 21
-2.012272
 31
23.47
  0
LINE
  5
4AA
330
6A7
100
AcDbEntity
  8
ALLENTILE
 62
     1
100
AcDbLine
 10
31.111684
 20
-2.012272
 30
23.47
 11
31.201623
 21
-2.170058
 31
23.47
  0
LINE
  5
4AB
330
6A7
100
AcDbEntity
  8
ALLENTILE
 62
     1
100
AcDbLine
 10
31.201623
 20
-2.170058
 30
23.47
 11
31.284049
 21
-2.33153
 31
23.47
  0
LINE
  5
4AC
330
6A7
100
AcDbEntity
  8
ALLENTILE
 62
     1
100
AcDbLine
 10
31.284049
 20
-2.33153
 30
23.47
 11
31.358795
 21
-2.496365
 31
23.47
  0
LINE
  5
4AD
330
6A7
100
AcDbEntity
  8
ALLENTILE
 62
     1
100
AcDbLine
 10
31.358795
 20
-2.496365
 30
23.47
 11
31.42571
 21
-2.664231
 31
23.47
  0
LINE
  5
4AE
330
6A7
100
AcDbEntity
  8
ALLENTILE
 62
     1
100
AcDbLine
 10
31.42571
 20
-2.664231
 30
23.47
 11
31.484661
 21
-2.834789
 31
23.47
  0
LINE
  5
4AF
330
6A7
100
AcDbEntity
  8
ALLENTILE
 62
     1
100
AcDbLine
 10
31.484661
 20
-2.834789
 30
23.47
 11
31.535528
 21
-3.007697
 31
23.47
  0
LINE
  5
4B0
330
6A7
100
AcDbEntity
  8
ALLENTILE
 62
     1
100
AcDbLine
 10
31.535528
 20
-3.007697
 30
23.47
 11
31.578209
 21
-3.182606
 31
23.47
  0
LINE
  5
4B1
330
6A7
100
AcDbEntity
  8
ALLENTILE
 62
     1
100
AcDbLine
 10
31.578209
 20
-3.182606
 30
23.47
 11
31.612618
 21
-3.359164
 31
23.47
  0
LINE
  5
4B2
330
6A7
100
AcDbEntity
  8
ALLENTILE
 62
     1
100
AcDbLine
 10
31.612618
 20
-3.359164
 30
23.47
 11
31.638686
 21
-3.537016
 31
23.47
  0
LINE
  5
4B3
330
6A7
100
AcDbEntity
  8
ALLENTILE
 62
     1
100
AcDbLine
 10
31.638686
 20
-3.537016
 30
23.47
 11
31.65636
 21
-3.715803
 31
23.47
  0
LINE
  5
4B4
330
6A7
100
AcDbEntity
  8
ALLENTILE
 62
     1
100
AcDbLine
 10
31.65636
 20
-3.715803
 30
23.47
 11
31.665606
 21
-3.895167
 31
23.47
  0
LINE
  5
4B5
330
6A7
100
AcDbEntity
  8
ALLENTILE
 62
     1
100
AcDbLine
 10
31.665609
 20
-3.895167
 30
23.47
 11
31.665598
 21
-11.03968
 31
23.47
  0
LINE
  5
4B6
330
6A7
100
AcDbEntity
  8
ALLENTILE
 62
     1
100
AcDbLine
 10
31.665595
 20
-11.03968
 30
23.47
 11
31.656575
 21
-11.216043
 31
23.47
  0
LINE
  5
4B7
330
6A7
100
AcDbEntity
  8
ALLENTILE
 62
     1
100
AcDbLine
 10
31.656575
 20
-11.216043
 30
23.47
 11
31.639406
 21
-11.391854
 31
23.47
  0
LINE
  5
4B8
330
6A7
100
AcDbEntity
  8
ALLENTILE
 62
     1
100
AcDbLine
 10
31.639406
 20
-11.391854
 30
23.47
 11
31.61412
 21
-11.566773
 31
23.47
  0
LINE
  5
4B9
330
6A7
100
AcDbEntity
  8
ALLENTILE
 62
     1
100
AcDbLine
 10
31.61412
 20
-11.566773
 30
23.47
 11
31.580767
 21
-11.740458
 31
23.47
  0
LINE
  5
4BA
330
6A7
100
AcDbEntity
  8
ALLENTILE
 62
     1
100
AcDbLine
 10
31.580767
 20
-11.740458
 30
23.47
 11
31.539413
 21
-11.912571
 31
23.47
  0
LINE
  5
4BB
330
6A7
100
AcDbEntity
  8
ALLENTILE
 62
     1
100
AcDbLine
 10
31.539413
 20
-11.912571
 30
23.47
 11
31.490136
 21
-12.082779
 31
23.47
  0
LINE
  5
4BC
330
6A7
100
AcDbEntity
  8
ALLENTILE
 62
     1
100
AcDbLine
 10
31.490136
 20
-12.082779
 30
23.47
 11
31.433034
 21
-12.250748
 31
23.47
  0
LINE
  5
4BD
330
6A7
100
AcDbEntity
  8
ALLENTILE
 62
     1
100
AcDbLine
 10
31.433034
 20
-12.250748
 30
23.47
 11
31.368217
 21
-12.416153
 31
23.47
  0
LINE
  5
4BE
330
6A7
100
AcDbEntity
  8
ALLENTILE
 62
     1
100
AcDbLine
 10
31.368217
 20
-12.416153
 30
23.47
 11
31.295812
 21
-12.578672
 31
23.47
  0
LINE
  5
4BF
330
6A7
100
AcDbEntity
  8
ALLENTILE
 62
     1
100
AcDbLine
 10
31.295812
 20
-12.578672
 30
23.47
 11
31.215959
 21
-12.737988
 31
23.47
  0
LINE
  5
4C0
330
6A7
100
AcDbEntity
  8
ALLENTILE
 62
     1
100
AcDbLine
 10
31.215959
 20
-12.737988
 30
23.47
 11
31.128814
 21
-12.893791
 31
23.47
  0
LINE
  5
4C1
330
6A7
100
AcDbEntity
  8
ALLENTILE
 62
     1
100
AcDbLine
 10
31.128814
 20
-12.893791
 30
23.47
 11
31.034547
 21
-13.045778
 31
23.47
  0
LINE
  5
4C2
330
6A7
100
AcDbEntity
  8
ALLENTILE
 62
     1
100
AcDbLine
 10
31.034547
 20
-13.045778
 30
23.47
 11
30.93334
 21
-13.193654
 31
23.47
  0
LINE
  5
4C3
330
6A7
100
AcDbEntity
  8
ALLENTILE
 62
     1
100
AcDbLine
 10
30.93334
 20
-13.193654
 30
23.47
 11
30.825391
 21
-13.33713
 31
23.47
  0
LINE
  5
4C4
330
6A7
100
AcDbEntity
  8
ALLENTILE
 62
     1
100
AcDbLine
 10
30.825391
 20
-13.33713
 30
23.47
 11
30.71091
 21
-13.475927
 31
23.47
  0
LINE
  5
4C5
330
6A7
100
AcDbEntity
  8
ALLENTILE
 62
     1
100
AcDbLine
 10
30.71091
 20
-13.475927
 30
23.47
 11
30.59012
 21
-13.609775
 31
23.47
  0
LINE
  5
4C6
330
6A7
100
AcDbEntity
  8
ALLENTILE
 62
     1
100
AcDbLine
 10
30.59012
 20
-13.609775
 30
23.47
 11
30.463256
 21
-13.738414
 31
23.47
  0
LINE
  5
4C7
330
6A7
100
AcDbEntity
  8
ALLENTILE
 62
     1
100
AcDbLine
 10
30.463256
 20
-13.738414
 30
23.47
 11
30.330564
 21
-13.861594
 31
23.47
  0
LINE
  5
4C8
330
6A7
100
AcDbEntity
  8
ALLENTILE
 62
     1
100
AcDbLine
 10
30.330564
 20
-13.861594
 30
23.47
 11
30.192303
 21
-13.979074
 31
23.47
  0
LINE
  5
4C9
330
6A7
100
AcDbEntity
  8
ALLENTILE
 62
     1
100
AcDbLine
 10
30.192303
 20
-13.979074
 30
23.47
 11
30.048742
 21
-14.090626
 31
23.47
  0
LINE
  5
4CA
330
6A7
100
AcDbEntity
  8
ALLENTILE
 62
     1
100
AcDbLine
 10
30.048742
 20
-14.090626
 30
23.47
 11
29.900161
 21
-14.196032
 31
23.47
  0
LINE
  5
4CB
330
6A7
100
AcDbEntity
  8
ALLENTILE
 62
     1
100
AcDbLine
 10
29.900161
 20
-14.196032
 30
23.47
 11
29.746848
 21
-14.295089
 31
23.47
  0
LINE
  5
4CC
330
6A7
100
AcDbEntity
  8
ALLENTILE
 62
     1
100
AcDbLine
 10
29.746848
 20
-14.295089
 30
23.47
 11
29.589102
 21
-14.387602
 31
23.47
  0
LINE
  5
4CD
330
6A7
100
AcDbEntity
  8
ALLENTILE
 62
     1
100
AcDbLine
 10
29.589102
 20
-14.387602
 30
23.47
 11
29.42723
 21
-14.473393
 31
23.47
  0
LINE
  5
4CE
330
6A7
100
AcDbEntity
  8
ALLENTILE
 62
     1
100
AcDbLine
 10
29.42723
 20
-14.473393
 30
23.47
 11
29.261547
 21
-14.552293
 31
23.47
  0
LINE
  5
4CF
330
6A7
100
AcDbEntity
  8
ALLENTILE
 62
     1
100
AcDbLine
 10
29.261547
 20
-14.552293
 30
23.47
 11
29.092375
 21
-14.62415
 31
23.47
  0
LINE
  5
4D0
330
6A7
100
AcDbEntity
  8
ALLENTILE
 62
     1
100
AcDbLine
 10
29.092375
 20
-14.62415
 30
23.47
 11
28.920043
 21
-14.688823
 31
23.47
  0
LINE
  5
4D1
330
6A7
100
AcDbEntity
  8
ALLENTILE
 62
     1
100
AcDbLine
 10
28.920043
 20
-14.688823
 30
23.47
 11
28.744888
 21
-14.746188
 31
23.47
  0
LINE
  5
4D2
330
6A7
100
AcDbEntity
  8
ALLENTILE
 62
     1
100
AcDbLine
 10
28.744888
 20
-14.746188
 30
23.47
 11
28.567249
 21
-14.796131
 31
23.47
  0
LINE
  5
4D3
330
6A7
100
AcDbEntity
  8
ALLENTILE
 62
     1
100
AcDbLine
 10
28.567249
 20
-14.796131
 30
23.47
 11
28.387473
 21
-14.838556
 31
23.47
  0
LINE
  5
4D4
330
6A7
100
AcDbEntity
  8
ALLENTILE
 62
     1
100
AcDbLine
 10
28.387473
 20
-14.838556
 30
23.47
 11
28.20591
 21
-14.87338
 31
23.47
  0
LINE
  5
4D5
330
6A7
100
AcDbEntity
  8
ALLENTILE
 62
     1
100
AcDbLine
 10
28.20591
 20
-14.87338
 30
23.47
 11
28.022912
 21
-14.900536
 31
23.47
  0
LINE
  5
4D6
330
6A7
100
AcDbEntity
  8
ALLENTILE
 62
     1
100
AcDbLine
 10
28.022912
 20
-14.900536
 30
23.47
 11
27.838835
 21
-14.919971
 31
23.47
  0
LINE
  5
4D7
330
6A7
100
AcDbEntity
  8
ALLENTILE
 62
     1
100
AcDbLine
 10
27.838835
 20
-14.919971
 30
23.47
 11
27.654039
 21
-14.931646
 31
23.47
  0
LINE
  5
4D8
330
6A7
100
AcDbEntity
  8
ALLENTILE
 62
     1
100
AcDbLine
 10
27.654039
 20
-14.931646
 30
23.47
 11
27.468883
 21
-14.93554
 31
23.47
  0
LINE
  5
4D9
330
6A7
100
AcDbEntity
  8
ALLENTILE
 62
     1
100
AcDbLine
 10
27.468886
 20
-14.935539
 30
23.47
 11
21.813365
 21
-14.935539
 31
23.47
  0
LINE
  5
4DA
330
6A7
100
AcDbEntity
  8
ALLENTILE
 62
     1
100
AcDbLine
 10
21.063874
 20
-15.323299
 30
23.47
 11
21.115944
 21
-15.254656
 31
23.47
  0
LINE
  5
4DB
330
6A7
100
AcDbEntity
  8
ALLENTILE
 62
     1
100
AcDbLine
 10
21.115944
 20
-15.254656
 30
23.47
 11
21.174905
 21
-15.19128
 31
23.47
  0
LINE
  5
4DC
330
6A7
100
AcDbEntity
  8
ALLENTILE
 62
     1
100
AcDbLine
 10
21.174905
 20
-15.19128
 30
23.47
 11
21.240173
 21
-15.133798
 31
23.47
  0
LINE
  5
4DD
330
6A7
100
AcDbEntity
  8
ALLENTILE
 62
     1
100
AcDbLine
 10
21.240173
 20
-15.133798
 30
23.47
 11
21.311105
 21
-15.082778
 31
23.47
  0
LINE
  5
4DE
330
6A7
100
AcDbEntity
  8
ALLENTILE
 62
     1
100
AcDbLine
 10
21.311105
 20
-15.082778
 30
23.47
 11
21.386998
 21
-15.038723
 31
23.47
  0
LINE
  5
4DF
330
6A7
100
AcDbEntity
  8
ALLENTILE
 62
     1
100
AcDbLine
 10
21.386998
 20
-15.038723
 30
23.47
 11
21.467104
 21
-15.00207
 31
23.47
  0
LINE
  5
4E0
330
6A7
100
AcDbEntity
  8
ALLENTILE
 62
     1
100
AcDbLine
 10
21.467104
 20
-15.00207
 30
23.47
 11
21.550631
 21
-14.973179
 31
23.47
  0
LINE
  5
4E1
330
6A7
100
AcDbEntity
  8
ALLENTILE
 62
     1
100
AcDbLine
 10
21.550631
 20
-14.973179
 30
23.47
 11
21.636754
 21
-14.952337
 31
23.47
  0
LINE
  5
4E2
330
6A7
100
AcDbEntity
  8
ALLENTILE
 62
     1
100
AcDbLine
 10
21.636754
 20
-14.952337
 30
23.47
 11
21.724621
 21
-14.93975
 31
23.47
  0
LINE
  5
4E3
330
6A7
100
AcDbEntity
  8
ALLENTILE
 62
     1
100
AcDbLine
 10
21.724621
 20
-14.93975
 30
23.47
 11
21.813365
 21
-14.935541
 31
23.47
  0
LINE
  5
4E4
330
6A7
100
AcDbEntity
  8
ALLENTILE
 62
     1
100
AcDbLine
 10
21.063871
 20
-15.323297
 30
23.47
 11
20.918498
 21
-15.52944
 31
23.47
  0
LINE
  5
4E5
330
6A7
100
AcDbEntity
  8
ALLENTILE
 62
     1
100
AcDbLine
 10
20.918498
 20
-15.52944
 30
23.47
 11
20.766503
 21
-15.731195
 31
23.47
  0
LINE
  5
4E6
330
6A7
100
AcDbEntity
  8
ALLENTILE
 62
     1
100
AcDbLine
 10
20.766503
 20
-15.731195
 30
23.47
 11
20.608034
 21
-15.928369
 31
23.47
  0
LINE
  5
4E7
330
6A7
100
AcDbEntity
  8
ALLENTILE
 62
     1
100
AcDbLine
 10
20.608034
 20
-15.928369
 30
23.47
 11
20.44324
 21
-16.120774
 31
23.47
  0
LINE
  5
4E8
330
6A7
100
AcDbEntity
  8
ALLENTILE
 62
     1
100
AcDbLine
 10
20.44324
 20
-16.120774
 30
23.47
 11
20.272281
 21
-16.308225
 31
23.47
  0
LINE
  5
4E9
330
6A7
100
AcDbEntity
  8
ALLENTILE
 62
     1
100
AcDbLine
 10
20.272281
 20
-16.308225
 30
23.47
 11
20.09532
 21
-16.490543
 31
23.47
  0
LINE
  5
4EA
330
6A7
100
AcDbEntity
  8
ALLENTILE
 62
     1
100
AcDbLine
 10
20.09532
 20
-16.490543
 30
23.47
 11
19.912527
 21
-16.667552
 31
23.47
  0
LINE
  5
4EB
330
6A7
100
AcDbEntity
  8
ALLENTILE
 62
     1
100
AcDbLine
 10
19.912527
 20
-16.667552
 30
23.47
 11
19.724075
 21
-16.839085
 31
23.47
  0
LINE
  5
4EC
330
6A7
100
AcDbEntity
  8
ALLENTILE
 62
     1
100
AcDbLine
 10
19.724075
 20
-16.839085
 30
23.47
 11
19.530147
 21
-17.004975
 31
23.47
  0
LINE
  5
4ED
330
6A7
100
AcDbEntity
  8
ALLENTILE
 62
     1
100
AcDbLine
 10
19.530147
 20
-17.004975
 30
23.47
 11
19.330928
 21
-17.165065
 31
23.47
  0
LINE
  5
4EE
330
6A7
100
AcDbEntity
  8
ALLENTILE
 62
     1
100
AcDbLine
 10
19.330928
 20
-17.165065
 30
23.47
 11
19.126608
 21
-17.3192
 31
23.47
  0
LINE
  5
4EF
330
6A7
100
AcDbEntity
  8
ALLENTILE
 62
     1
100
AcDbLine
 10
19.126608
 20
-17.3192
 30
23.47
 11
18.917383
 21
-17.467234
 31
23.47
  0
LINE
  5
4F0
330
6A7
100
AcDbEntity
  8
ALLENTILE
 62
     1
100
AcDbLine
 10
18.917383
 20
-17.467234
 30
23.47
 11
18.703454
 21
-17.609025
 31
23.47
  0
LINE
  5
4F1
330
6A7
100
AcDbEntity
  8
ALLENTILE
 62
     1
100
AcDbLine
 10
18.703454
 20
-17.609025
 30
23.47
 11
18.485026
 21
-17.744436
 31
23.47
  0
LINE
  5
4F2
330
6A7
100
AcDbEntity
  8
ALLENTILE
 62
     1
100
AcDbLine
 10
18.485026
 20
-17.744436
 30
23.47
 11
18.262307
 21
-17.873339
 31
23.47
  0
LINE
  5
4F3
330
6A7
100
AcDbEntity
  8
ALLENTILE
 62
     1
100
AcDbLine
 10
18.262307
 20
-17.873339
 30
23.47
 11
18.035511
 21
-17.995609
 31
23.47
  0
LINE
  5
4F4
330
6A7
100
AcDbEntity
  8
ALLENTILE
 62
     1
100
AcDbLine
 10
18.035511
 20
-17.995609
 30
23.47
 11
17.804856
 21
-18.11113
 31
23.47
  0
LINE
  5
4F5
330
6A7
100
AcDbEntity
  8
ALLENTILE
 62
     1
100
AcDbLine
 10
17.804856
 20
-18.11113
 30
23.47
 11
17.570561
 21
-18.219791
 31
23.47
  0
LINE
  5
4F6
330
6A7
100
AcDbEntity
  8
ALLENTILE
 62
     1
100
AcDbLine
 10
17.570561
 20
-18.219791
 30
23.47
 11
17.332852
 21
-18.321487
 31
23.47
  0
LINE
  5
4F7
330
6A7
100
AcDbEntity
  8
ALLENTILE
 62
     1
100
AcDbLine
 10
17.332852
 20
-18.321487
 30
23.47
 11
17.091956
 21
-18.416122
 31
23.47
  0
LINE
  5
4F8
330
6A7
100
AcDbEntity
  8
ALLENTILE
 62
     1
100
AcDbLine
 10
17.091956
 20
-18.416122
 30
23.47
 11
16.848105
 21
-18.503605
 31
23.47
  0
LINE
  5
4F9
330
6A7
100
AcDbEntity
  8
ALLENTILE
 62
     1
100
AcDbLine
 10
16.848105
 20
-18.503605
 30
23.47
 11
16.60153
 21
-18.583852
 31
23.47
  0
LINE
  5
4FA
330
6A7
100
AcDbEntity
  8
ALLENTILE
 62
     1
100
AcDbLine
 10
16.60153
 20
-18.583852
 30
23.47
 11
16.352469
 21
-18.656786
 31
23.47
  0
LINE
  5
4FB
330
6A7
100
AcDbEntity
  8
ALLENTILE
 62
     1
100
AcDbLine
 10
16.352469
 20
-18.656786
 30
23.47
 11
16.10116
 21
-18.722337
 31
23.47
  0
LINE
  5
4FC
330
6A7
100
AcDbEntity
  8
ALLENTILE
 62
     1
100
AcDbLine
 10
16.10116
 20
-18.722337
 30
23.47
 11
15.847845
 21
-18.780443
 31
23.47
  0
LINE
  5
4FD
330
6A7
100
AcDbEntity
  8
ALLENTILE
 62
     1
100
AcDbLine
 10
15.847845
 20
-18.780443
 30
23.47
 11
15.592764
 21
-18.831048
 31
23.47
  0
LINE
  5
4FE
330
6A7
100
AcDbEntity
  8
ALLENTILE
 62
     1
100
AcDbLine
 10
15.592764
 20
-18.831048
 30
23.47
 11
15.336163
 21
-18.874103
 31
23.47
  0
LINE
  5
4FF
330
6A7
100
AcDbEntity
  8
ALLENTILE
 62
     1
100
AcDbLine
 10
15.336163
 20
-18.874103
 30
23.47
 11
15.078288
 21
-18.909567
 31
23.47
  0
LINE
  5
500
330
6A7
100
AcDbEntity
  8
ALLENTILE
 62
     1
100
AcDbLine
 10
15.078288
 20
-18.909567
 30
23.47
 11
14.819385
 21
-18.937407
 31
23.47
  0
LINE
  5
501
330
6A7
100
AcDbEntity
  8
ALLENTILE
 62
     1
100
AcDbLine
 10
14.819385
 20
-18.937407
 30
23.47
 11
14.559703
 21
-18.957595
 31
23.47
  0
LINE
  5
502
330
6A7
100
AcDbEntity
  8
ALLENTILE
 62
     1
100
AcDbLine
 10
14.5597
 20
-18.957596
 30
23.47
 11
13.91805
 21
-18.99391
 31
23.47
  0
LINE
  5
503
330
6A7
100
AcDbEntity
  8
ALLENTILE
 62
     1
100
AcDbLine
 10
13.91805
 20
-18.99391
 30
23.47
 11
13.275955
 21
-19.022161
 31
23.47
  0
LINE
  5
504
330
6A7
100
AcDbEntity
  8
ALLENTILE
 62
     1
100
AcDbLine
 10
13.275955
 20
-19.022161
 30
23.47
 11
12.633524
 21
-19.042344
 31
23.47
  0
LINE
  5
505
330
6A7
100
AcDbEntity
  8
ALLENTILE
 62
     1
100
AcDbLine
 10
12.633524
 20
-19.042344
 30
23.47
 11
11.990871
 21
-19.054454
 31
23.47
  0
LINE
  5
506
330
6A7
100
AcDbEntity
  8
ALLENTILE
 62
     1
100
AcDbLine
 10
11.990871
 20
-19.054454
 30
23.47
 11
11.348106
 21
-19.058491
 31
23.47
  0
LINE
  5
507
330
6A7
100
AcDbEntity
  8
ALLENTILE
 62
     1
100
AcDbLine
 10
11.348106
 20
-19.058491
 30
23.47
 11
10.705341
 21
-19.054452
 31
23.47
  0
LINE
  5
508
330
6A7
100
AcDbEntity
  8
ALLENTILE
 62
     1
100
AcDbLine
 10
10.705341
 20
-19.054452
 30
23.47
 11
10.062687
 21
-19.04234
 31
23.47
  0
LINE
  5
509
330
6A7
100
AcDbEntity
  8
ALLENTILE
 62
     1
100
AcDbLine
 10
10.062687
 20
-19.04234
 30
23.47
 11
9.420257
 21
-19.022155
 31
23.47
  0
LINE
  5
50A
330
6A7
100
AcDbEntity
  8
ALLENTILE
 62
     1
100
AcDbLine
 10
9.420257
 20
-19.022155
 30
23.47
 11
8.778161
 21
-18.993902
 31
23.47
  0
LINE
  5
50B
330
6A7
100
AcDbEntity
  8
ALLENTILE
 62
     1
100
AcDbLine
 10
8.778161
 20
-18.993902
 30
23.47
 11
8.136512
 21
-18.957585
 31
23.47
  0
LINE
  5
50C
330
6A7
100
AcDbEntity
  8
ALLENTILE
 62
     1
100
AcDbLine
 10
8.136513
 20
-18.957586
 30
23.47
 11
7.875993
 21
-18.937322
 31
23.47
  0
LINE
  5
50D
330
6A7
100
AcDbEntity
  8
ALLENTILE
 62
     1
100
AcDbLine
 10
7.875993
 20
-18.937322
 30
23.47
 11
7.616258
 21
-18.909357
 31
23.47
  0
LINE
  5
50E
330
6A7
100
AcDbEntity
  8
ALLENTILE
 62
     1
100
AcDbLine
 10
7.616258
 20
-18.909357
 30
23.47
 11
7.357558
 21
-18.873718
 31
23.47
  0
LINE
  5
50F
330
6A7
100
AcDbEntity
  8
ALLENTILE
 62
     1
100
AcDbLine
 10
7.357558
 20
-18.873718
 30
23.47
 11
7.100144
 21
-18.830439
 31
23.47
  0
LINE
  5
510
330
6A7
100
AcDbEntity
  8
ALLENTILE
 62
     1
100
AcDbLine
 10
7.100144
 20
-18.830439
 30
23.47
 11
6.844263
 21
-18.779563
 31
23.47
  0
LINE
  5
511
330
6A7
100
AcDbEntity
  8
ALLENTILE
 62
     1
100
AcDbLine
 10
6.844263
 20
-18.779563
 30
23.47
 11
6.590162
 21
-18.721137
 31
23.47
  0
LINE
  5
512
330
6A7
100
AcDbEntity
  8
ALLENTILE
 62
     1
100
AcDbLine
 10
6.590162
 20
-18.721137
 30
23.47
 11
6.338085
 21
-18.655219
 31
23.47
  0
LINE
  5
513
330
6A7
100
AcDbEntity
  8
ALLENTILE
 62
     1
100
AcDbLine
 10
6.338085
 20
-18.655219
 30
23.47
 11
6.088277
 21
-18.581872
 31
23.47
  0
LINE
  5
514
330
6A7
100
AcDbEntity
  8
ALLENTILE
 62
     1
100
AcDbLine
 10
6.088277
 20
-18.581872
 30
23.47
 11
5.840977
 21
-18.501167
 31
23.47
  0
LINE
  5
515
330
6A7
100
AcDbEntity
  8
ALLENTILE
 62
     1
100
AcDbLine
 10
5.840977
 20
-18.501167
 30
23.47
 11
5.596424
 21
-18.413181
 31
23.47
  0
LINE
  5
516
330
6A7
100
AcDbEntity
  8
ALLENTILE
 62
     1
100
AcDbLine
 10
5.596424
 20
-18.413181
 30
23.47
 11
5.354854
 21
-18.318
 31
23.47
  0
LINE
  5
517
330
6A7
100
AcDbEntity
  8
ALLENTILE
 62
     1
100
AcDbLine
 10
5.354854
 20
-18.318
 30
23.47
 11
5.1165
 21
-18.215714
 31
23.47
  0
LINE
  5
518
330
6A7
100
AcDbEntity
  8
ALLENTILE
 62
     1
100
AcDbLine
 10
5.1165
 20
-18.215714
 30
23.47
 11
4.881591
 21
-18.106423
 31
23.47
  0
LINE
  5
519
330
6A7
100
AcDbEntity
  8
ALLENTILE
 62
     1
100
AcDbLine
 10
4.881591
 20
-18.106423
 30
23.47
 11
4.650354
 21
-17.990232
 31
23.47
  0
LINE
  5
51A
330
6A7
100
AcDbEntity
  8
ALLENTILE
 62
     1
100
AcDbLine
 10
4.650354
 20
-17.990232
 30
23.47
 11
4.423011
 21
-17.867254
 31
23.47
  0
LINE
  5
51B
330
6A7
100
AcDbEntity
  8
ALLENTILE
 62
     1
100
AcDbLine
 10
4.423011
 20
-17.867254
 30
23.47
 11
4.199783
 21
-17.737605
 31
23.47
  0
LINE
  5
51C
330
6A7
100
AcDbEntity
  8
ALLENTILE
 62
     1
100
AcDbLine
 10
4.199783
 20
-17.737605
 30
23.47
 11
3.980883
 21
-17.601413
 31
23.47
  0
LINE
  5
51D
330
6A7
100
AcDbEntity
  8
ALLENTILE
 62
     1
100
AcDbLine
 10
3.980883
 20
-17.601413
 30
23.47
 11
3.766524
 21
-17.458807
 31
23.47
  0
LINE
  5
51E
330
6A7
100
AcDbEntity
  8
ALLENTILE
 62
     1
100
AcDbLine
 10
3.766524
 20
-17.458807
 30
23.47
 11
3.556911
 21
-17.309925
 31
23.47
  0
LINE
  5
51F
330
6A7
100
AcDbEntity
  8
ALLENTILE
 62
     1
100
AcDbLine
 10
3.556911
 20
-17.309925
 30
23.47
 11
3.352247
 21
-17.154911
 31
23.47
  0
LINE
  5
520
330
6A7
100
AcDbEntity
  8
ALLENTILE
 62
     1
100
AcDbLine
 10
3.352247
 20
-17.154911
 30
23.47
 11
3.15273
 21
-16.993914
 31
23.47
  0
LINE
  5
521
330
6A7
100
AcDbEntity
  8
ALLENTILE
 62
     1
100
AcDbLine
 10
3.15273
 20
-16.993914
 30
23.47
 11
2.95855
 21
-16.82709
 31
23.47
  0
LINE
  5
522
330
6A7
100
AcDbEntity
  8
ALLENTILE
 62
     1
100
AcDbLine
 10
2.95855
 20
-16.82709
 30
23.47
 11
2.769896
 21
-16.654599
 31
23.47
  0
LINE
  5
523
330
6A7
100
AcDbEntity
  8
ALLENTILE
 62
     1
100
AcDbLine
 10
2.769896
 20
-16.654599
 30
23.47
 11
2.58695
 21
-16.476608
 31
23.47
  0
LINE
  5
524
330
6A7
100
AcDbEntity
  8
ALLENTILE
 62
     1
100
AcDbLine
 10
2.58695
 20
-16.476608
 30
23.47
 11
2.409887
 21
-16.293287
 31
23.47
  0
LINE
  5
525
330
6A7
100
AcDbEntity
  8
ALLENTILE
 62
     1
100
AcDbLine
 10
2.409887
 20
-16.293287
 30
23.47
 11
2.238879
 21
-16.104814
 31
23.47
  0
LINE
  5
526
330
6A7
100
AcDbEntity
  8
ALLENTILE
 62
     1
100
AcDbLine
 10
2.238879
 20
-16.104814
 30
23.47
 11
2.074089
 21
-15.911371
 31
23.47
  0
LINE
  5
527
330
6A7
100
AcDbEntity
  8
ALLENTILE
 62
     1
100
AcDbLine
 10
2.074089
 20
-15.911371
 30
23.47
 11
1.915678
 21
-15.713144
 31
23.47
  0
LINE
  5
528
330
6A7
100
AcDbEntity
  8
ALLENTILE
 62
     1
100
AcDbLine
 10
1.915678
 20
-15.713144
 30
23.47
 11
1.763798
 21
-15.510323
 31
23.47
  0
LINE
  5
529
330
6A7
100
AcDbEntity
  8
ALLENTILE
 62
     1
100
AcDbLine
 10
1.763798
 20
-15.510323
 30
23.47
 11
1.618595
 21
-15.303105
 31
23.47
  0
LINE
  5
52A
330
6A7
100
AcDbEntity
  8
ALLENTILE
 62
     1
100
AcDbLine
 10
1.618595
 20
-15.303105
 30
23.47
 11
1.48021
 21
-15.09169
 31
23.47
  0
LINE
  5
52B
330
6A7
100
AcDbEntity
  8
ALLENTILE
 62
     1
100
AcDbLine
 10
1.48021
 20
-15.09169
 30
23.47
 11
1.348775
 21
-14.87628
 31
23.47
  0
LINE
  5
52C
330
6A7
100
AcDbEntity
  8
ALLENTILE
 62
     1
100
AcDbLine
 10
1.348775
 20
-14.87628
 30
23.47
 11
1.224417
 21
-14.657084
 31
23.47
  0
LINE
  5
52D
330
6A7
100
AcDbEntity
  8
ALLENTILE
 62
     1
100
AcDbLine
 10
1.224417
 20
-14.657084
 30
23.47
 11
1.107256
 21
-14.434314
 31
23.47
  0
LINE
  5
52E
330
6A7
100
AcDbEntity
  8
ALLENTILE
 62
     1
100
AcDbLine
 10
1.107256
 20
-14.434314
 30
23.47
 11
0.997406
 21
-14.208182
 31
23.47
  0
LINE
  5
52F
330
6A7
100
AcDbEntity
  8
ALLENTILE
 62
     1
100
AcDbLine
 10
0.997406
 20
-14.208182
 30
23.47
 11
0.894971
 21
-13.978909
 31
23.47
  0
LINE
  5
530
330
6A7
100
AcDbEntity
  8
ALLENTILE
 62
     1
100
AcDbLine
 10
0.894971
 20
-13.978909
 30
23.47
 11
0.800051
 21
-13.746714
 31
23.47
  0
LINE
  5
531
330
6A7
100
AcDbEntity
  8
ALLENTILE
 62
     1
100
AcDbLine
 10
0.800051
 20
-13.746714
 30
23.47
 11
0.712738
 21
-13.511822
 31
23.47
  0
LINE
  5
532
330
6A7
100
AcDbEntity
  8
ALLENTILE
 62
     1
100
AcDbLine
 10
0.712738
 20
-13.511822
 30
23.47
 11
0.633115
 21
-13.274459
 31
23.47
  0
LINE
  5
533
330
6A7
100
AcDbEntity
  8
ALLENTILE
 62
     1
100
AcDbLine
 10
0.633115
 20
-13.274459
 30
23.47
 11
0.561258
 21
-13.034854
 31
23.47
  0
LINE
  5
534
330
6A7
100
AcDbEntity
  8
ALLENTILE
 62
     1
100
AcDbLine
 10
0.561258
 20
-13.034854
 30
23.47
 11
0.497239
 21
-12.793237
 31
23.47
  0
LINE
  5
535
330
6A7
100
AcDbEntity
  8
ALLENTILE
 62
     1
100
AcDbLine
 10
0.497239
 20
-12.793237
 30
23.47
 11
0.441117
 21
-12.549842
 31
23.47
  0
LINE
  5
536
330
6A7
100
AcDbEntity
  8
ALLENTILE
 62
     1
100
AcDbLine
 10
0.441117
 20
-12.549842
 30
23.47
 11
0.392948
 21
-12.304903
 31
23.47
  0
LINE
  5
537
330
6A7
100
AcDbEntity
  8
ALLENTILE
 62
     1
100
AcDbLine
 10
0.392948
 20
-12.304903
 30
23.47
 11
0.352778
 21
-12.058657
 31
23.47
  0
LINE
  5
538
330
6A7
100
AcDbEntity
  8
ALLENTILE
 62
     1
100
AcDbLine
 10
0.352776
 20
-12.058653
 30
23.47
 11
0.279752
 21
-11.530917
 31
23.47
  0
LINE
  5
539
330
6A7
100
AcDbEntity
  8
ALLENTILE
 62
     1
100
AcDbLine
 10
0.279752
 20
-11.530917
 30
23.47
 11
0.215156
 21
-11.002182
 31
23.47
  0
LINE
  5
53A
330
6A7
100
AcDbEntity
  8
ALLENTILE
 62
     1
100
AcDbLine
 10
0.215156
 20
-11.002182
 30
23.47
 11
0.159004
 21
-10.472572
 31
23.47
  0
LINE
  5
53B
330
6A7
100
AcDbEntity
  8
ALLENTILE
 62
     1
100
AcDbLine
 10
0.159004
 20
-10.472572
 30
23.47
 11
0.111309
 21
-9.942209
 31
23.47
  0
LINE
  5
53C
330
6A7
100
AcDbEntity
  8
ALLENTILE
 62
     1
100
AcDbLine
 10
0.111309
 20
-9.942209
 30
23.47
 11
0.072081
 21
-9.411215
 31
23.47
  0
LINE
  5
53D
330
6A7
100
AcDbEntity
  8
ALLENTILE
 62
     1
100
AcDbLine
 10
0.072081
 20
-9.411215
 30
23.47
 11
0.04133
 21
-8.879714
 31
23.47
  0
LINE
  5
53E
330
6A7
100
AcDbEntity
  8
ALLENTILE
 62
     1
100
AcDbLine
 10
0.04133
 20
-8.879714
 30
23.47
 11
0.019063
 21
-8.347828
 31
23.47
  0
LINE
  5
53F
330
6A7
100
AcDbEntity
  8
ALLENTILE
 62
     1
100
AcDbLine
 10
0.019063
 20
-8.347828
 30
23.47
 11
0.005286
 21
-7.815681
 31
23.47
  0
LINE
  5
540
330
6A7
100
AcDbEntity
  8
ALLENTILE
 62
     1
100
AcDbLine
 10
0.005286
 20
-7.815681
 30
23.47
 11
0.0
 21
-7.283396
 31
23.47
  0
LINE
  5
541
330
6A7
100
AcDbEntity
  8
ALLENTILE
 62
     1
100
AcDbLine
 10
0.0
 20
-7.283396
 30
23.47
 11
0.003208
 21
-6.751095
 31
23.47
  0
LINE
  5
542
330
6A7
100
AcDbEntity
  8
ALLENTILE
 62
     1
100
AcDbLine
 10
0.003208
 20
-6.751095
 30
23.47
 11
0.014908
 21
-6.218903
 31
23.47
  0
LINE
  5
543
330
6A7
100
AcDbEntity
  8
ALLENTILE
 62
     1
100
AcDbLine
 10
0.014908
 20
-6.218903
 30
23.47
 11
0.035099
 21
-5.686942
 31
23.47
  0
LINE
  5
544
330
6A7
100
AcDbEntity
  8
ALLENTILE
 62
     1
100
AcDbLine
 10
0.035099
 20
-5.686942
 30
23.47
 11
0.063775
 21
-5.155336
 31
23.47
  0
LINE
  5
545
330
6A7
100
AcDbEntity
  8
ALLENTILE
 62
     1
100
AcDbLine
 10
0.063775
 20
-5.155336
 30
23.47
 11
0.10093
 21
-4.624206
 31
23.47
  0
LINE
  5
546
330
6A7
100
AcDbEntity
  8
ALLENTILE
 62
     1
100
AcDbLine
 10
0.10093
 20
-4.624206
 30
23.47
 11
0.146555
 21
-4.093678
 31
23.47
  0
LINE
  5
547
330
6A7
100
AcDbEntity
  8
ALLENTILE
 62
     1
100
AcDbLine
 10
0.146558
 20
-4.093679
 30
23.47
 11
0.167689
 21
-3.913205
 31
23.47
  0
LINE
  5
548
330
6A7
100
AcDbEntity
  8
ALLENTILE
 62
     1
100
AcDbLine
 10
0.167689
 20
-3.913205
 30
23.47
 11
0.197033
 21
-3.733778
 31
23.47
  0
LINE
  5
549
330
6A7
100
AcDbEntity
  8
ALLENTILE
 62
     1
100
AcDbLine
 10
0.197033
 20
-3.733778
 30
23.47
 11
0.234534
 21
-3.555737
 31
23.47
  0
LINE
  5
54A
330
6A7
100
AcDbEntity
  8
ALLENTILE
 62
     1
100
AcDbLine
 10
0.234534
 20
-3.555737
 30
23.47
 11
0.28012
 21
-3.379419
 31
23.47
  0
LINE
  5
54B
330
6A7
100
AcDbEntity
  8
ALLENTILE
 62
     1
100
AcDbLine
 10
0.28012
 20
-3.379419
 30
23.47
 11
0.333706
 21
-3.205159
 31
23.47
  0
LINE
  5
54C
330
6A7
100
AcDbEntity
  8
ALLENTILE
 62
     1
100
AcDbLine
 10
0.333706
 20
-3.205159
 30
23.47
 11
0.395191
 21
-3.033285
 31
23.47
  0
LINE
  5
54D
330
6A7
100
AcDbEntity
  8
ALLENTILE
 62
     1
100
AcDbLine
 10
0.395191
 20
-3.033285
 30
23.47
 11
0.464457
 21
-2.864123
 31
23.47
  0
LINE
  5
54E
330
6A7
100
AcDbEntity
  8
ALLENTILE
 62
     1
100
AcDbLine
 10
0.464457
 20
-2.864123
 30
23.47
 11
0.541374
 21
-2.697993
 31
23.47
  0
LINE
  5
54F
330
6A7
100
AcDbEntity
  8
ALLENTILE
 62
     1
100
AcDbLine
 10
0.541374
 20
-2.697993
 30
23.47
 11
0.625796
 21
-2.53521
 31
23.47
  0
LINE
  5
550
330
6A7
100
AcDbEntity
  8
ALLENTILE
 62
     1
100
AcDbLine
 10
0.625796
 20
-2.53521
 30
23.47
 11
0.717564
 21
-2.376081
 31
23.47
  0
LINE
  5
551
330
6A7
100
AcDbEntity
  8
ALLENTILE
 62
     1
100
AcDbLine
 10
0.717564
 20
-2.376081
 30
23.47
 11
0.816504
 21
-2.220907
 31
23.47
  0
LINE
  5
552
330
6A7
100
AcDbEntity
  8
ALLENTILE
 62
     1
100
AcDbLine
 10
0.816504
 20
-2.220907
 30
23.47
 11
0.922428
 21
-2.069983
 31
23.47
  0
LINE
  5
553
330
6A7
100
AcDbEntity
  8
ALLENTILE
 62
     1
100
AcDbLine
 10
0.922428
 20
-2.069983
 30
23.47
 11
1.035136
 21
-1.923593
 31
23.47
  0
LINE
  5
554
330
6A7
100
AcDbEntity
  8
ALLENTILE
 62
     1
100
AcDbLine
 10
1.035136
 20
-1.923593
 30
23.47
 11
1.154416
 21
-1.782016
 31
23.47
  0
LINE
  5
555
330
6A7
100
AcDbEntity
  8
ALLENTILE
 62
     1
100
AcDbLine
 10
1.154416
 20
-1.782016
 30
23.47
 11
1.28004
 21
-1.645517
 31
23.47
  0
LINE
  5
556
330
6A7
100
AcDbEntity
  8
ALLENTILE
 62
     1
100
AcDbLine
 10
1.28004
 20
-1.645517
 30
23.47
 11
1.411772
 21
-1.514357
 31
23.47
  0
LINE
  5
557
330
6A7
100
AcDbEntity
  8
ALLENTILE
 62
     1
100
AcDbLine
 10
1.411772
 20
-1.514357
 30
23.47
 11
1.549362
 21
-1.388783
 31
23.47
  0
LINE
  5
558
330
6A7
100
AcDbEntity
  8
ALLENTILE
 62
     1
100
AcDbLine
 10
1.549362
 20
-1.388783
 30
23.47
 11
1.692551
 21
-1.269033
 31
23.47
  0
LINE
  5
559
330
6A7
100
AcDbEntity
  8
ALLENTILE
 62
     1
100
AcDbLine
 10
1.692551
 20
-1.269033
 30
23.47
 11
1.841066
 21
-1.155333
 31
23.47
  0
LINE
  5
55A
330
6A7
100
AcDbEntity
  8
ALLENTILE
 62
     1
100
AcDbLine
 10
1.841066
 20
-1.155333
 30
23.47
 11
1.994627
 21
-1.047898
 31
23.47
  0
LINE
  5
55B
330
6A7
100
AcDbEntity
  8
ALLENTILE
 62
     1
100
AcDbLine
 10
1.994627
 20
-1.047898
 30
23.47
 11
2.152943
 21
-0.946933
 31
23.47
  0
LINE
  5
55C
330
6A7
100
AcDbEntity
  8
ALLENTILE
 62
     1
100
AcDbLine
 10
2.152943
 20
-0.946933
 30
23.47
 11
2.315715
 21
-0.852627
 31
23.47
  0
LINE
  5
55D
330
6A7
100
AcDbEntity
  8
ALLENTILE
 62
     1
100
AcDbLine
 10
2.315715
 20
-0.852627
 30
23.47
 11
2.482635
 21
-0.765159
 31
23.47
  0
LINE
  5
55E
330
6A7
100
AcDbEntity
  8
ALLENTILE
 62
     1
100
AcDbLine
 10
2.482635
 20
-0.765159
 30
23.47
 11
2.653387
 21
-0.684695
 31
23.47
  0
LINE
  5
55F
330
6A7
100
AcDbEntity
  8
ALLENTILE
 62
     1
100
AcDbLine
 10
2.653387
 20
-0.684695
 30
23.47
 11
2.827648
 21
-0.611387
 31
23.47
  0
LINE
  5
560
330
6A7
100
AcDbEntity
  8
ALLENTILE
 62
     1
100
AcDbLine
 10
2.827648
 20
-0.611387
 30
23.47
 11
3.005087
 21
-0.545374
 31
23.47
  0
LINE
  5
561
330
6A7
100
AcDbEntity
  8
ALLENTILE
 62
     1
100
AcDbLine
 10
3.005087
 20
-0.545374
 30
23.47
 11
3.18537
 21
-0.486781
 31
23.47
  0
LINE
  5
562
330
6A7
100
AcDbEntity
  8
ALLENTILE
 62
     1
100
AcDbLine
 10
3.18537
 20
-0.486781
 30
23.47
 11
3.368156
 21
-0.435718
 31
23.47
  0
LINE
  5
563
330
6A7
100
AcDbEntity
  8
ALLENTILE
 62
     1
100
AcDbLine
 10
3.368156
 20
-0.435718
 30
23.47
 11
3.553097
 21
-0.392283
 31
23.47
  0
LINE
  5
564
330
6A7
100
AcDbEntity
  8
ALLENTILE
 62
     1
100
AcDbLine
 10
3.553097
 20
-0.392283
 30
23.47
 11
3.739845
 21
-0.356556
 31
23.47
  0
LINE
  5
565
330
6A7
100
AcDbEntity
  8
ALLENTILE
 62
     1
100
AcDbLine
 10
3.739845
 20
-0.356556
 30
23.47
 11
3.928046
 21
-0.328607
 31
23.47
  0
LINE
  5
566
330
6A7
100
AcDbEntity
  8
ALLENTILE
 62
     1
100
AcDbLine
 10
3.928046
 20
-0.328607
 30
23.47
 11
4.117343
 21
-0.308488
 31
23.47
  0
LINE
  5
567
330
6A7
100
AcDbEntity
  8
ALLENTILE
 62
     1
100
AcDbLine
 10
4.117335
 20
-0.308489
 30
23.47
 11
4.918969
 21
-0.243901
 31
23.47
  0
LINE
  5
568
330
6A7
100
AcDbEntity
  8
ALLENTILE
 62
     1
100
AcDbLine
 10
4.918969
 20
-0.243901
 30
23.47
 11
5.721234
 21
-0.186897
 31
23.47
  0
LINE
  5
569
330
6A7
100
AcDbEntity
  8
ALLENTILE
 62
     1
100
AcDbLine
 10
5.721234
 20
-0.186897
 30
23.47
 11
6.524054
 21
-0.137481
 31
23.47
  0
LINE
  5
56A
330
6A7
100
AcDbEntity
  8
ALLENTILE
 62
     1
100
AcDbLine
 10
6.524054
 20
-0.137481
 30
23.47
 11
7.327348
 21
-0.09566
 31
23.47
  0
LINE
  5
56B
330
6A7
100
AcDbEntity
  8
ALLENTILE
 62
     1
100
AcDbLine
 10
7.327348
 20
-0.09566
 30
23.47
 11
8.131037
 21
-0.061436
 31
23.47
  0
LINE
  5
56C
330
6A7
100
AcDbEntity
  8
ALLENTILE
 62
     1
100
AcDbLine
 10
8.131037
 20
-0.061436
 30
23.47
 11
8.935043
 21
-0.034814
 31
23.47
  0
LINE
  5
56D
330
6A7
100
AcDbEntity
  8
ALLENTILE
 62
     1
100
AcDbLine
 10
8.935043
 20
-0.034814
 30
23.47
 11
9.739287
 21
-0.015796
 31
23.47
  0
LINE
  5
56E
330
6A7
100
AcDbEntity
  8
ALLENTILE
 62
     1
100
AcDbLine
 10
9.739287
 20
-0.015796
 30
23.47
 11
10.543688
 21
-0.004384
 31
23.47
  0
LINE
  5
56F
330
6A7
100
AcDbEntity
  8
ALLENTILE
 62
     1
100
AcDbLine
 10
10.543688
 20
-0.004384
 30
23.47
 11
11.348169
 21
-0.000579
 31
23.47
  0
LINE
  5
570
330
6A7
100
AcDbEntity
  8
ALLENTILE
 62
     1
100
AcDbLine
 10
11.34818
 20
-0.000579
 30
23.47
 11
27.358463
 21
-0.000696
 31
23.47
  0
LINE
  5
571
330
6A7
100
AcDbEntity
  8
ALLENTILE
 62
     1
100
AcDbLine
 10
27.358459
 20
-0.000696
 30
23.47
 11
27.546813
 21
0.0
 31
23.47
  0
LINE
  5
572
330
6A7
100
AcDbEntity
  8
ALLENTILE
 62
     1
100
AcDbLine
 10
27.546813
 20
0.0
 30
23.47
 11
27.735011
 21
-0.00736
 31
23.47
  0
LINE
  5
573
330
6A7
100
AcDbEntity
  8
ALLENTILE
 62
     1
100
AcDbLine
 10
27.735011
 20
-0.00736
 30
23.47
 11
27.922673
 21
-0.022761
 31
23.47
  0
LINE
  5
574
330
6A7
100
AcDbEntity
  8
ALLENTILE
 62
     1
100
AcDbLine
 10
27.922673
 20
-0.022761
 30
23.47
 11
28.109421
 21
-0.046171
 31
23.47
  0
LINE
  5
575
330
6A7
100
AcDbEntity
  8
ALLENTILE
 62
     1
100
AcDbLine
 10
28.109421
 20
-0.046171
 30
23.47
 11
28.29488
 21
-0.077544
 31
23.47
  0
LINE
  5
576
330
6A7
100
AcDbEntity
  8
ALLENTILE
 62
     1
100
AcDbLine
 10
28.29488
 20
-0.077544
 30
23.47
 11
28.478677
 21
-0.116817
 31
23.47
  0
LINE
  5
577
330
6A7
100
AcDbEntity
  8
ALLENTILE
 62
     1
100
AcDbLine
 10
28.478677
 20
-0.116817
 30
23.47
 11
28.660441
 21
-0.16391
 31
23.47
  0
LINE
  5
578
330
6A7
100
AcDbEntity
  8
ALLENTILE
 62
     1
100
AcDbLine
 10
28.660441
 20
-0.16391
 30
23.47
 11
28.839806
 21
-0.218729
 31
23.47
  0
LINE
  5
579
330
6A7
100
AcDbEntity
  8
ALLENTILE
 62
     1
100
AcDbLine
 10
28.839806
 20
-0.218729
 30
23.47
 11
29.016412
 21
-0.281163
 31
23.47
  0
LINE
  5
57A
330
6A7
100
AcDbEntity
  8
ALLENTILE
 62
     1
100
AcDbLine
 10
29.016412
 20
-0.281163
 30
23.47
 11
29.189903
 21
-0.351086
 31
23.47
  0
LINE
  5
57B
330
6A7
100
AcDbEntity
  8
ALLENTILE
 62
     1
100
AcDbLine
 10
29.189903
 20
-0.351086
 30
23.47
 11
29.359929
 21
-0.428359
 31
23.47
  0
LINE
  5
57C
330
6A7
100
AcDbEntity
  8
ALLENTILE
 62
     1
100
AcDbLine
 10
29.359929
 20
-0.428359
 30
23.47
 11
29.526149
 21
-0.512825
 31
23.47
  0
LINE
  5
57D
330
6A7
100
AcDbEntity
  8
ALLENTILE
 62
     1
100
AcDbLine
 10
29.526149
 20
-0.512825
 30
23.47
 11
29.688228
 21
-0.604314
 31
23.47
  0
LINE
  5
57E
330
6A7
100
AcDbEntity
  8
ALLENTILE
 62
     1
100
AcDbLine
 10
29.688228
 20
-0.604314
 30
23.47
 11
29.845839
 21
-0.702642
 31
23.47
  0
LINE
  5
57F
330
6A7
100
AcDbEntity
  8
ALLENTILE
 62
     1
100
AcDbLine
 10
29.845839
 20
-0.702642
 30
23.47
 11
29.998666
 21
-0.807612
 31
23.47
  0
LINE
  5
580
330
6A7
100
AcDbEntity
  8
ALLENTILE
 62
     1
100
AcDbLine
 10
29.998666
 20
-0.807612
 30
23.47
 11
30.1464
 21
-0.919011
 31
23.47
  0
LINE
  5
581
330
6A7
100
AcDbEntity
  8
ALLENTILE
 62
     1
100
AcDbLine
 10
30.1464
 20
-0.919011
 30
23.47
 11
30.288745
 21
-1.036616
 31
23.47
  0
LINE
  5
582
330
6A7
100
AcDbEntity
  8
ALLENTILE
 62
     1
100
AcDbLine
 10
30.288745
 20
-1.036616
 30
23.47
 11
30.425414
 21
-1.160191
 31
23.47
  0
LINE
  5
583
330
6A7
100
AcDbEntity
  8
ALLENTILE
 62
     1
100
AcDbLine
 10
30.425414
 20
-1.160191
 30
23.47
 11
30.556131
 21
-1.289485
 31
23.47
  0
LINE
  5
584
330
6A7
100
AcDbEntity
  8
ALLENTILE
 62
     1
100
AcDbLine
 10
30.556131
 20
-1.289485
 30
23.47
 11
30.680634
 21
-1.424239
 31
23.47
  0
LINE
  5
585
330
6A7
100
AcDbEntity
  8
ALLENTILE
 62
     1
100
AcDbLine
 10
30.680634
 20
-1.424239
 30
23.47
 11
30.798671
 21
-1.564182
 31
23.47
  0
LINE
  5
586
330
6A7
100
AcDbEntity
  8
ALLENTILE
 62
     1
100
AcDbLine
 10
30.798671
 20
-1.564182
 30
23.47
 11
30.910007
 21
-1.709032
 31
23.47
  0
LINE
  5
587
330
6A7
100
AcDbEntity
  8
ALLENTILE
 62
     1
100
AcDbLine
 10
30.910007
 20
-1.709032
 30
23.47
 11
31.014415
 21
-1.858497
 31
23.47
  0
LINE
  5
588
330
6A7
100
AcDbEntity
  8
ALLENTILE
 62
     1
100
AcDbLine
 10
31.014415
 20
-1.858497
 30
23.47
 11
31.111686
 21
-2.012277
 31
23.47
  0
LINE
  5
589
330
6A7
100
AcDbEntity
  8
ALLENTILE
 62
     1
100
AcDbLine
 10
31.111686
 20
-2.012277
 30
23.47
 11
31.201625
 21
-2.170062
 31
23.47
  0
LINE
  5
58A
330
6A7
100
AcDbEntity
  8
ALLENTILE
 62
     1
100
AcDbLine
 10
31.201625
 20
-2.170062
 30
23.47
 11
31.28405
 21
-2.331534
 31
23.47
  0
LINE
  5
58B
330
6A7
100
AcDbEntity
  8
ALLENTILE
 62
     1
100
AcDbLine
 10
31.28405
 20
-2.331534
 30
23.47
 11
31.358795
 21
-2.496369
 31
23.47
  0
LINE
  5
58C
330
6A7
100
AcDbEntity
  8
ALLENTILE
 62
     1
100
AcDbLine
 10
31.358795
 20
-2.496369
 30
23.47
 11
31.42571
 21
-2.664234
 31
23.47
  0
LINE
  5
58D
330
6A7
100
AcDbEntity
  8
ALLENTILE
 62
     1
100
AcDbLine
 10
31.42571
 20
-2.664234
 30
23.47
 11
31.484661
 21
-2.834792
 31
23.47
  0
LINE
  5
58E
330
6A7
100
AcDbEntity
  8
ALLENTILE
 62
     1
100
AcDbLine
 10
31.484661
 20
-2.834792
 30
23.47
 11
31.535527
 21
-3.007699
 31
23.47
  0
LINE
  5
58F
330
6A7
100
AcDbEntity
  8
ALLENTILE
 62
     1
100
AcDbLine
 10
31.535527
 20
-3.007699
 30
23.47
 11
31.578208
 21
-3.182607
 31
23.47
  0
LINE
  5
590
330
6A7
100
AcDbEntity
  8
ALLENTILE
 62
     1
100
AcDbLine
 10
31.578208
 20
-3.182607
 30
23.47
 11
31.612617
 21
-3.359165
 31
23.47
  0
LINE
  5
591
330
6A7
100
AcDbEntity
  8
ALLENTILE
 62
     1
100
AcDbLine
 10
31.612617
 20
-3.359165
 30
23.47
 11
31.638685
 21
-3.537016
 31
23.47
  0
LINE
  5
592
330
6A7
100
AcDbEntity
  8
ALLENTILE
 62
     1
100
AcDbLine
 10
31.638685
 20
-3.537016
 30
23.47
 11
31.656359
 21
-3.715803
 31
23.47
  0
LINE
  5
593
330
6A7
100
AcDbEntity
  8
ALLENTILE
 62
     1
100
AcDbLine
 10
31.656359
 20
-3.715803
 30
23.47
 11
31.665605
 21
-3.895166
 31
23.47
  0
LINE
  5
594
330
6A7
100
AcDbEntity
  8
ALLENTILE
 62
     1
100
AcDbLine
 10
13.660125
 20
-9.516533
 30
23.47
 11
17.473094
 21
-9.505696
 31
23.47
  0
LINE
  5
595
330
6A7
100
AcDbEntity
  8
ALLENTILE
 62
     1
100
AcDbLine
 10
15.817842
 20
-11.359994
 30
23.47
 11
15.826967
 21
-7.611794
 31
23.47
  0
TEXT
  5
596
330
6A7
100
AcDbEntity
  8
ALLENTILE
  6
CONTINUOUS
 62
     3
100
AcDbText
 10
16.868502
 20
-4.146648
 30
23.47
 40
0.75
  1
505 MASTER REVEAL
 50
180.0
100
AcDbText
  0
TEXT
  5
597
330
6A7
100
AcDbEntity
  8
ALLENTILE
  6
CONTINUOUS
 62
     3
100
AcDbText
 10
16.868502
 20
-2.913836
 30
23.47
 40
0.75
  1
THIS SIDE UP
 50
180.0
100
AcDbText
  0
ENDBLK
  5
6A9
330
6A7
100
AcDbEntity
  8
0
100
AcDbBlockEnd
  0
BLOCK
  5
6AB
330
6AA
100
AcDbEntity
  8
0
100
AcDbBlockBegin
  2
TILE_BOUNDARY
 70
     0
 71
     0
 10
0.0
 20
0.0
 30
0.0
  3
TILE_BOUNDARY
  1

  0
LINE
  5
48F
330
6AA
100
AcDbEntity
  8
ALLENBOUNDARY
 62
     4
100
AcDbLine
 10
0.0
 20
0.0
 30
0.0
 11
31.665609
 21
0.0
 31
23.47
  0
LINE
  5
490
330
6AA
100
AcDbEntity
  8
ALLENBOUNDARY
 62
     4
100
AcDbLine
 10
0.0
 20
-27.845879
 30
0.0
 11
31.665609
 21
-27.845879
 31
23.47
  0
ENDBLK
  5
6AC
330
6AA
100
AcDbEntity
  8
0
100
AcDbBlockEnd
  0
ENDSEC
  0
SECTION
  2
ENTITIES
  0
ARC
  5
22
330
691
100
AcDbEntity
  8
0
 62
     1
100
AcDbCircle
 10
11.342116
 20
-5.650587
 30
0.0
 40
4.090862
100
AcDbArc
 50
268.492332
 51
358.471987
  0
LINE
  5
23
330
691
100
AcDbEntity
  8
0
 62
     1
100
AcDbLine
 10
15.431526
 20
-5.759673
 30
0.0
 11
15.431516
 21
1.542407
 31
0.0
  0
ARC
  5
24
330
691
100
AcDbEntity
  8
0
 62
     1
100
AcDbCircle
 10
11.342126
 20
1.433347
 30
0.0
 40
4.090841
100
AcDbArc
 50
1.527668
 51
90.000324
  0
LINE
  5
25
330
691
100
AcDbEntity
  8
0
 62
     1
100
AcDbLine
 10
11.342106
 20
5.524187
 30
0.0
 11
5.831186
 21
5.524187
 31
0.0
  0
ARC
  5
26
330
691
100
AcDbEntity
  8
0
 62
     1
100
AcDbCircle
 10
5.831171
 20
6.395248
 30
0.0
 40
0.8710592
100
AcDbArc
 50
213.026428
 51
270.001012
  0
ARC
  5
27
330
691
100
AcDbEntity
  8
0
 62
     1
100
AcDbCircle
 10
-1.777137
 20
1.449052
 30
0.0
 40
8.203694000000001
100
AcDbArc
 50
33.028257
 51
86.224971
  0
ARC
  5
28
330
691
100
AcDbEntity
  8
0
 62
     1
100
AcDbCircle
 10
-4.366415
 20
-37.797793
 30
0.0
 40
47.53586
100
AcDbArc
 50
86.225353
 51
93.774843
  0
ARC
  5
29
330
691
100
AcDbEntity
  8
0
 62
     1
100
AcDbCircle
 10
-6.955911
 20
1.449087
 30
0.0
 40
8.203646000000001
100
AcDbArc
 50
93.774631
 51
172.049064
  0
ARC
  5
2A
330
691
100
AcDbEntity
  8
0
 62
     1
100
AcDbCircle
 10
20.338836
 20
-2.363266
 30
0.0
 40
35.76335
100
AcDbArc
 50
172.048818
 51
185.123098
  0
ARC
  5
2B
330
691
100
AcDbEntity
  8
0
 62
     1
100
AcDbCircle
 10
-11.032004
 20
-5.175758
 30
0.0
 40
4.266685
100
AcDbArc
 50
185.123466
 51
264.885254
  0
ARC
  5
2C
330
691
100
AcDbEntity
  8
0
 62
     1
100
AcDbCircle
 10
-4.366284
 20
69.297907
 30
0.0
 40
79.03806
100
AcDbArc
 50
264.885391
 51
269.999891
  0
LINE
  5
2D
330
691
100
AcDbEntity
  8
0
 62
     1
100
AcDbLine
 10
-4.366424
 20
-9.740153
 30
0.0
 11
11.234506
 21
-9.740033
 31
0.0
  0
LINE
  5
115
330
691
100
AcDbEntity
  8
0
  6
CONTINUOUS
 62
     1
100
AcDbLine
 10
-2.113591
 20
-0.014331
 30
0.0
 11
1.601888
 21
-0.025407
 31
0.0
  0
LINE
  5
116
330
691
100
AcDbEntity
  8
0
  6
CONTINUOUS
 62
     1
100
AcDbLine
 10
-0.011043
 20
1.869786
 30
0.0
 11
-0.002151
 21
-1.961078
 31
0.0
  0
ARC
  5
5FC
330
691
100
AcDbEntity
  8
0
  6
CONTINUOUS
 62
     1
100
AcDbCircle
 10
-10.189336
 20
-5.217291
 30
0.0
 40
5.103613050679171
100
AcDbArc
 50
95.740634
 51
183.814137
  0
ARC
  5
5FD
330
691
100
AcDbEntity
  8
0
  6
CONTINUOUS
 62
     1
100
AcDbCircle
 10
-10.754475
 20
-2.987829
 30
0.0
 40
6.471155324986225
100
AcDbArc
 50
264.164792
 51
343.813687
  0
ARC
  5
5FE
330
691
100
AcDbEntity
  8
0
 62
     1
100
AcDbCircle
 10
-11.032001
 20
-5.175757
 30
0.0
 40
4.266685
100
AcDbArc
 50
185.123466
 51
264.885254
  0
TEXT
  5
673
330
691
100
AcDbEntity
  8
0
  6
CONTINUOUS
100
AcDbText
 10
-6.333303
 20
3.867309
 30
0.0
 40
1.0
  1
505
100
AcDbText
  0
ENDSEC
  0
SECTION
  2
OBJECTS
  0
DICTIONARY
  5
67F
330
0
100
AcDbDictionary
  3
ACAD_COLOR
350
198
  3
ACAD_GROUP
350
680
  3
ACAD_LAYOUT
350
68C
  3
ACAD_MATERIAL
350
199
  3
ACAD_MLINESTYLE
350
689
  3
ACAD_PLOTSETTINGS
350
16A
  3
ACDBHEADERROUNDTRIPXREC
350
6B2
  0
DICTIONARY
  5
198
102
{ACAD_REACTORS
330
67F
102
}
330
67F
100
AcDbDictionary
  0
DICTIONARY
  5
680
102
{ACAD_REACTORS
330
67F
102
}
330
67F
100
AcDbDictionary
  3
ALLENCADTILE
350
6B1
  0
DICTIONARY
  5
68C
102
{ACAD_REACTORS
330
67F
102
}
330
67F
100
AcDbDictionary
  0
DICTIONARY
  5
199
102
{ACAD_REACTORS
330
67F
102
}
330
67F
100
AcDbDictionary
  0
DICTIONARY
  5
689
102
{ACAD_REACTORS
330
67F
102
}
330
67F
100
AcDbDictionary
  3
STANDARD
350
68A
  0
DICTIONARY
  5
16A
102
{ACAD_REACTORS
330
67F
102
}
330
67F
100
AcDbDictionary
  0
DICTIONARY
  5
6B2
102
{ACAD_REACTORS
330
67F
102
}
330
67F
100
AcDbDictionary
  3
CEPSNTYPE
350
6BB
  3
COLORDICT
350
6D2
  3
DIMSTYLEDATA
350
6D1
  3
FINGERPRINTGUID
350
6BC
  3
HYPERLINKBASE
350
6B5
  3
INSUNITS
350
6BA
  3
LAYOUTDICT
350
6B7
  3
LWETCUNION
350
6B9
  3
MATERIALDICT
350
6D3
  3
PLOTSETDICT
350
6B8
  3
PSVPSCALE
350
6BE
  3
PUCSBASE
350
6C1
  3
PUCSORGBACK
350
6C7
  3
PUCSORGBOTTOM
350
6C3
  3
PUCSORGFRONT
350
6C6
  3
PUCSORGLEFT
350
6C4
  3
PUCSORGRIGHT
350
6C5
  3
PUCSORGTOP
350
6C2
  3
PUCSORTHOREF
350
6BF
  3
PUCSORTHOVIEW
350
6C0
  3
STYLESHEET
350
6B6
  3
TSTACKALIGN
350
6B3
  3
TSTACKSIZE
350
6B4
  3
UCSBASE
350
6CA
  3
UCSORGBACK
350
6D0
  3
UCSORGBOTTOM
350
6CC
  3
UCSORGFRONT
350
6CF
  3
UCSORGLEFT
350
6CD
  3
UCSORGRIGHT
350
6CE
  3
UCSORGTOP
350
6CB
  3
UCSORTHOREF
350
6C8
  3
UCSORTHOVIEW
350
6C9
  3
VERSIONGUID
350
6BD
  0
GROUP
  5
6B1
102
{ACAD_REACTORS
330
680
102
}
330
680
100
AcDbGroup
300
{AllenCAD:J`JOJVJNJ]KAJ^IQKXK[KZK`KTKTKUK[IQLEK[KWIFKUKTKVKUKXKRLBKRK_K]K\IOKYKSINJSJZ
 70
     0
 71
     0
  0
MLINESTYLE
  5
68A
102
{ACAD_REACTORS
330
689
102
}
330
689
100
AcDbMlineStyle
  2
Standard
 70
     0
  3

 62
   256
 51
90.0
 52
90.0
 71
     2
 49
0.5
 62
   256
  6
BYLAYER
 49
-0.5
 62
   256
  6
BYLAYER
  0
XRECORD
  5
6BB
102
{ACAD_REACTORS
330
6B2
102
}
330
6B2
100
AcDbXrecord
 90
        0
  0
XRECORD
  5
6D2
102
{ACAD_REACTORS
330
6B2
102
}
330
6B2
100
AcDbXrecord
340
198
  0
XRECORD
  5
6D1
102
{ACAD_REACTORS
330
6B2
102
}
330
6B2
100
AcDbXrecord
1000
DSTYLE
1002
{
1070
    40
 40
10.0
1070
   340
340
684
1002
}
  0
XRECORD
  5
6BC
102
{ACAD_REACTORS
330
6B2
102
}
330
6B2
100
AcDbXrecord
  1
{53CDB2A9-CF78-44FE-9B15-5604A96E1FB5}
  0
XRECORD
  5
6B5
102
{ACAD_REACTORS
330
6B2
102
}
330
6B2
100
AcDbXrecord
  1

  0
XRECORD
  5
6BA
102
{ACAD_REACTORS
330
6B2
102
}
330
6B2
100
AcDbXrecord
 90
        0
  0
XRECORD
  5
6B7
102
{ACAD_REACTORS
330
6B2
102
}
330
6B2
100
AcDbXrecord
340
68C
  0
XRECORD
  5
6B9
102
{ACAD_REACTORS
330
6B2
102
}
330
6B2
100
AcDbXrecord
 90
    10781
  0
XRECORD
  5
6D3
102
{ACAD_REACTORS
330
6B2
102
}
330
6B2
100
AcDbXrecord
340
199
  0
XRECORD
  5
6B8
102
{ACAD_REACTORS
330
6B2
102
}
330
6B2
100
AcDbXrecord
340
16A
  0
XRECORD
  5
6BE
102
{ACAD_REACTORS
330
6B2
102
}
330
6B2
100
AcDbXrecord
 40
0.0
  0
XRECORD
  5
6C1
102
{ACAD_REACTORS
330
6B2
102
}
330
6B2
100
AcDbXrecord
340
0
  0
XRECORD
  5
6C7
102
{ACAD_REACTORS
330
6B2
102
}
330
6B2
100
AcDbXrecord
 10
0.0
 20
0.0
 30
0.0
  0
XRECORD
  5
6C3
102
{ACAD_REACTORS
330
6B2
102
}
330
6B2
100
AcDbXrecord
 10
0.0
 20
0.0
 30
0.0
  0
XRECORD
  5
6C6
102
{ACAD_REACTORS
330
6B2
102
}
330
6B2
100
AcDbXrecord
 10
0.0
 20
0.0
 30
0.0
  0
XRECORD
  5
6C4
102
{ACAD_REACTORS
330
6B2
102
}
330
6B2
100
AcDbXrecord
 10
0.0
 20
0.0
 30
0.0
  0
XRECORD
  5
6C5
102
{ACAD_REACTORS
330
6B2
102
}
330
6B2
100
AcDbXrecord
 10
0.0
 20
0.0
 30
0.0
  0
XRECORD
  5
6C2
102
{ACAD_REACTORS
330
6B2
102
}
330
6B2
100
AcDbXrecord
 10
0.0
 20
0.0
 30
0.0
  0
XRECORD
  5
6BF
102
{ACAD_REACTORS
330
6B2
102
}
330
6B2
100
AcDbXrecord
340
0
  0
XRECORD
  5
6C0
102
{ACAD_REACTORS
330
6B2
102
}
330
6B2
100
AcDbXrecord
 70
     0
  0
XRECORD
  5
6B6
102
{ACAD_REACTORS
330
6B2
102
}
330
6B2
100
AcDbXrecord
  1

  0
XRECORD
  5
6B3
102
{ACAD_REACTORS
330
6B2
102
}
330
6B2
100
AcDbXrecord
 90
        1
  0
XRECORD
  5
6B4
102
{ACAD_REACTORS
330
6B2
102
}
330
6B2
100
AcDbXrecord
 90
       70
  0
XRECORD
  5
6CA
102
{ACAD_REACTORS
330
6B2
102
}
330
6B2
100
AcDbXrecord
340
0
  0
XRECORD
  5
6D0
102
{ACAD_REACTORS
330
6B2
102
}
330
6B2
100
AcDbXrecord
 10
0.0
 20
0.0
 30
0.0
  0
XRECORD
  5
6CC
102
{ACAD_REACTORS
330
6B2
102
}
330
6B2
100
AcDbXrecord
 10
0.0
 20
0.0
 30
0.0
  0
XRECORD
  5
6CF
102
{ACAD_REACTORS
330
6B2
102
}
330
6B2
100
AcDbXrecord
 10
0.0
 20
0.0
 30
0.0
  0
XRECORD
  5
6CD
102
{ACAD_REACTORS
330
6B2
102
}
330
6B2
100
AcDbXrecord
 10
0.0
 20
0.0
 30
0.0
  0
XRECORD
  5
6CE
102
{ACAD_REACTORS
330
6B2
102
}
330
6B2
100
AcDbXrecord
 10
0.0
 20
0.0
 30
0.0
  0
XRECORD
  5
6CB
102
{ACAD_REACTORS
330
6B2
102
}
330
6B2
100
AcDbXrecord
 10
0.0
 20
0.0
 30
0.0
  0
XRECORD
  5
6C8
102
{ACAD_REACTORS
330
6B2
102
}
330
6B2
100
AcDbXrecord
340
0
  0
XRECORD
  5
6C9
102
{ACAD_REACTORS
330
6B2
102
}
330
6B2
100
AcDbXrecord
 70
     0
  0
XRECORD
  5
6BD
102
{ACAD_REACTORS
330
6B2
102
}
330
6B2
100
AcDbXrecord
  1
{FAEB1C32-E019-11D5-929B-00C0DF256EC4}
  0
ENDSEC
  0
EOF
