  0
SECTION
  2
HEADER
  9
$ACADVER
  1
AC1014
  9
$ACADMAINTVER
 70
     9
  9
$DWGCODEPAGE
  3
ANSI_1252
  9
$INSBASE
 10
0.0
 20
0.0
 30
0.0
  9
$EXTMIN
 10
-27.5
 20
-25.5
 30
0.0
  9
$EXTMAX
 10
27.5
 20
17.0
 30
0.0
  9
$LIMMIN
 10
0.0
 20
0.0
  9
$LIMMAX
 10
12.0
 20
9.0
  9
$ORTHOMODE
 70
     1
  9
$REGENMODE
 70
     1
  9
$FILLMODE
 70
     1
  9
$QTEXTMODE
 70
     0
  9
$MIRRTEXT
 70
     0
  9
$DRAGMODE
 70
     2
  9
$LTSCALE
 40
1.0
  9
$OSMODE
 70
    37
  9
$ATTMODE
 70
     1
  9
$TEXTSIZE
 40
0.25
  9
$TRACEWID
 40
0.05
  9
$TEXTSTYLE
  7
STANDARD
  9
$CLAYER
  8
CUTOUT_TEMPLATE
  9
$CELTYPE
  6
BYLAYER
  9
$CECOLOR
 62
   256
  9
$CELTSCALE
 40
1.0
  9
$DELOBJ
 70
     1
  9
$DISPSILH
 70
     0
  9
$DIMSCALE
 40
1.0
  9
$DIMASZ
 40
0.18
  9
$DIMEXO
 40
0.0625
  9
$DIMDLI
 40
0.38
  9
$DIMRND
 40
0.0
  9
$DIMDLE
 40
0.0
  9
$DIMEXE
 40
0.18
  9
$DIMTP
 40
0.0
  9
$DIMTM
 40
0.0
  9
$DIMTXT
 40
0.18
  9
$DIMCEN
 40
0.09
  9
$DIMTSZ
 40
0.0
  9
$DIMTOL
 70
     0
  9
$DIMLIM
 70
     0
  9
$DIMTIH
 70
     1
  9
$DIMTOH
 70
     1
  9
$DIMSE1
 70
     0
  9
$DIMSE2
 70
     0
  9
$DIMTAD
 70
     0
  9
$DIMZIN
 70
     0
  9
$DIMBLK
  1

  9
$DIMASO
 70
     1
  9
$DIMSHO
 70
     1
  9
$DIMPOST
  1

  9
$DIMAPOST
  1

  9
$DIMALT
 70
     0
  9
$DIMALTD
 70
     2
  9
$DIMALTF
 40
25.4
  9
$DIMLFAC
 40
1.0
  9
$DIMTOFL
 70
     0
  9
$DIMTVP
 40
0.0
  9
$DIMTIX
 70
     0
  9
$DIMSOXD
 70
     0
  9
$DIMSAH
 70
     0
  9
$DIMBLK1
  1

  9
$DIMBLK2
  1

  9
$DIMSTYLE
  2
STANDARD
  9
$DIMCLRD
 70
     0
  9
$DIMCLRE
 70
     0
  9
$DIMCLRT
 70
     0
  9
$DIMTFAC
 40
1.0
  9
$DIMGAP
 40
0.09
  9
$DIMJUST
 70
     0
  9
$DIMSD1
 70
     0
  9
$DIMSD2
 70
     0
  9
$DIMTOLJ
 70
     1
  9
$DIMTZIN
 70
     0
  9
$DIMALTZ
 70
     0
  9
$DIMALTTZ
 70
     0
  9
$DIMFIT
 70
     3
  9
$DIMUPT
 70
     0
  9
$DIMUNIT
 70
     2
  9
$DIMDEC
 70
     4
  9
$DIMTDEC
 70
     4
  9
$DIMALTU
 70
     2
  9
$DIMALTTD
 70
     2
  9
$DIMTXSTY
  7
STANDARD
  9
$DIMAUNIT
 70
     0
  9
$LUNITS
 70
     2
  9
$LUPREC
 70
     2
  9
$SKETCHINC
 40
0.1
  9
$FILLETRAD
 40
1.0
  9
$AUNITS
 70
     0
  9
$AUPREC
 70
     0
  9
$MENU
  1
acad
  9
$ELEVATION
 40
0.0
  9
$PELEVATION
 40
0.0
  9
$THICKNESS
 40
0.0
  9
$LIMCHECK
 70
     0
  9
$CHAMFERA
 40
0.0
  9
$CHAMFERB
 40
0.0
  9
$CHAMFERC
 40
1.0
  9
$CHAMFERD
 40
0.0
  9
$SKPOLY
 70
     0
  9
$TDCREATE
 40
2447892.791666667
  9
$TDUPDATE
 40
2447892.791666667
  9
$TDINDWG
 40
0.0
  9
$TDUSRTIMER
 40
0.0
  9
$USRTIMER
 70
     1
  9
$ANGBASE
 50
0.0
  9
$ANGDIR
 70
     0
  9
$PDMODE
 70
    34
  9
$PDSIZE
 40
0.0
  9
$PLINEWID
 40
0.0
  9
$COORDS
 70
     1
  9
$SPLFRAME
 70
     0
  9
$SPLINETYPE
 70
     6
  9
$SPLINESEGS
 70
     8
  9
$ATTDIA
 70
     0
  9
$ATTREQ
 70
     1
  9
$HANDLING
 70
     1
  9
$HANDSEED
  5
32117
  9
$SURFTAB1
 70
     6
  9
$SURFTAB2
 70
     6
  9
$SURFTYPE
 70
     6
  9
$SURFU
 70
     6
  9
$SURFV
 70
     6
  9
$UCSNAME
  2

  9
$UCSORG
 10
0.0
 20
0.0
 30
0.0
  9
$UCSXDIR
 10
1.0
 20
0.0
 30
0.0
  9
$UCSYDIR
 10
0.0
 20
1.0
 30
0.0
  9
$PUCSNAME
  2

  9
$PUCSORG
 10
0.0
 20
0.0
 30
0.0
  9
$PUCSXDIR
 10
1.0
 20
0.0
 30
0.0
  9
$PUCSYDIR
 10
0.0
 20
1.0
 30
0.0
  9
$USERI1
 70
     0
  9
$USERI2
 70
     0
  9
$USERI3
 70
     0
  9
$USERI4
 70
     0
  9
$USERI5
 70
     0
  9
$USERR1
 40
0.0
  9
$USERR2
 40
0.0
  9
$USERR3
 40
0.0
  9
$USERR4
 40
0.0
  9
$USERR5
 40
0.0
  9
$WORLDVIEW
 70
     1
  9
$SHADEDGE
 70
     1
  9
$SHADEDIF
 70
    70
  9
$TILEMODE
 70
     1
  9
$MAXACTVP
 70
    16
  9
$PINSBASE
 10
0.0
 20
0.0
 30
0.0
  9
$PLIMCHECK
 70
     0
  9
$PEXTMIN
 10
1.000000E+20
 20
1.000000E+20
 30
1.000000E+20
  9
$PEXTMAX
 10
-1.000000E+20
 20
-1.000000E+20
 30
-1.000000E+20
  9
$PLIMMIN
 10
0.0
 20
0.0
  9
$PLIMMAX
 10
12.0
 20
9.0
  9
$UNITMODE
 70
     0
  9
$VISRETAIN
 70
     0
  9
$PLINEGEN
 70
     0
  9
$PSLTSCALE
 70
     0
  9
$TREEDEPTH
 70
  3020
  9
$PICKSTYLE
 70
     1
  9
$CMLSTYLE
  2
STANDARD
  9
$CMLJUST
 70
     0
  9
$CMLSCALE
 40
1.0
  9
$PROXYGRAPHICS
 70
     1
  9
$MEASUREMENT
 70
     0
  0
ENDSEC
  0
SECTION
  2
CLASSES
  0
CLASS
  1
ACDBDICTIONARYWDFLT
  2
AcDbDictionaryWithDefault
  3
ObjectDBX Classes
 90
        0
280
     0
281
     0
  0
CLASS
  1
XRECORD
  2
AcDbXrecord
  3
AutoCAD 2000
 90
        0
280
     0
281
     0
  0
CLASS
  1
LWPOLYLINE
  2
AcDbPolyline
  3
AutoCAD 2000
 90
        0
280
     0
281
     1
  0
CLASS
  1
HATCH
  2
AcDbHatch
  3
AutoCAD 2000
 90
        0
280
     0
281
     1
  0
CLASS
  1
ACDBPLACEHOLDER
  2
AcDbPlaceHolder
  3
ObjectDBX Classes
 90
        0
280
     0
281
     0
  0
CLASS
  1
LAYOUT
  2
AcDbLayout
  3
ObjectDBX Classes
 90
        0
280
     0
281
     0
  0
ENDSEC
  0
SECTION
  2
TABLES
  0
TABLE
  2
VPORT
  5
31A80
330
0
100
AcDbSymbolTable
 70
     2
  0
VPORT
  5
31ACC
330
31A80
100
AcDbSymbolTableRecord
100
AcDbViewportTableRecord
  2
*ACTIVE
 70
     0
 10
0.0
 20
0.0
 11
1.0
 21
1.0
 12
-26.261651
 22
-4.25
 13
0.0
 23
0.0
 14
1.0
 24
1.0
 15
1.0
 25
1.0
 16
0.0
 26
0.0
 36
1.0
 17
0.0
 27
0.0
 37
0.0
 40
44.625
 41
1.294118
 42
50.0
 43
0.0
 44
0.0
 50
0.0
 51
0.0
 71
     0
 72
   100
 73
     1
 74
     1
 75
     0
 76
     0
 77
     0
 78
     0
  0
ENDTAB
  0
TABLE
  2
LTYPE
  5
31A7D
330
0
100
AcDbSymbolTable
 70
    13
  0
LTYPE
  5
31A8B
330
31A7D
100
AcDbSymbolTableRecord
100
AcDbLinetypeTableRecord
  2
BYBLOCK
 70
     0
  3

 72
    65
 73
     0
 40
0.0
  0
LTYPE
  5
31A8C
330
31A7D
100
AcDbSymbolTableRecord
100
AcDbLinetypeTableRecord
  2
BYLAYER
 70
     0
  3

 72
    65
 73
     0
 40
0.0
  0
LTYPE
  5
31A8D
330
31A7D
100
AcDbSymbolTableRecord
100
AcDbLinetypeTableRecord
  2
CONTINUOUS
 70
     0
  3
Solid Line
 72
    65
 73
     0
 40
0.0
  0
LTYPE
  5
31AB9
330
31A7D
100
AcDbSymbolTableRecord
100
AcDbLinetypeTableRecord
  2
BATTING
 70
     0
  3
Batting SSSSSSSSSSSSSSSSSSSSSSSSSSSSSSSSSSSSSSSSSSSSS
 72
    65
 73
     4
 40
1.00025
 49
0.00025
 74
     0
 49
-0.25
 74
     4
 75
   134
340
31AB8
 46
0.25
 50
0.0
 44
-0.25
 45
0.0
 49
-0.5
 74
     4
 75
   134
340
31AB8
 46
0.25
 50
180.0
 44
0.25
 45
0.0
 49
-0.25
 74
     0
  0
LTYPE
  5
31ABA
330
31A7D
100
AcDbSymbolTableRecord
100
AcDbLinetypeTableRecord
  2
BORDER
 70
     0
  3
 Border __ __ . __ __ . __ __ . __ __ . __ __ . __ __ . __ __
 72
    65
 73
     6
 40
1.75
 49
0.5
 74
     0
 49
-0.25
 74
     0
 49
0.5
 74
     0
 49
-0.25
 74
     0
 49
0.0
 74
     0
 49
-0.25
 74
     0
  0
LTYPE
  5
31ABB
330
31A7D
100
AcDbSymbolTableRecord
100
AcDbLinetypeTableRecord
  2
CENTERLINE
 70
     0
  3
Centerline ____ _ ____ _ ____ _ ____ _ ____ _ ____ _ ____ _ ____
 72
    65
 73
     4
 40
2.0
 49
1.25
 74
     0
 49
-0.25
 74
     0
 49
0.25
 74
     0
 49
-0.25
 74
     0
  0
LTYPE
  5
31ABC
330
31A7D
100
AcDbSymbolTableRecord
100
AcDbLinetypeTableRecord
  2
DASH2DOT
 70
     0
  3
DasDotDot ____ . . ____ . . ____ . . ____ . . ____ . . ____ . .
 72
    65
 73
     6
 40
1.25
 49
0.5
 74
     0
 49
-0.25
 74
     0
 49
0.0
 74
     0
 49
-0.25
 74
     0
 49
0.0
 74
     0
 49
-0.25
 74
     0
  0
LTYPE
  5
31ABD
330
31A7D
100
AcDbSymbolTableRecord
100
AcDbLinetypeTableRecord
  2
DASHDOT
 70
     0
  3
DashDot __ . __ . __ . __ . __ . __ . __ . __ . __ . __ . __
 72
    65
 73
     4
 40
1.0
 49
0.5
 74
     0
 49
-0.25
 74
     0
 49
0.0
 74
     0
 49
-0.25
 74
     0
  0
LTYPE
  5
31ABE
330
31A7D
100
AcDbSymbolTableRecord
100
AcDbLinetypeTableRecord
  2
DASHED2
 70
     0
  3
DashLong ____   ____   ____   ____   ____   ____   ____   ____
 72
    65
 73
     2
 40
0.75
 49
0.5
 74
     0
 49
-0.25
 74
     0
  0
LTYPE
  5
31ABF
330
31A7D
100
AcDbSymbolTableRecord
100
AcDbLinetypeTableRecord
  2
DOT
 70
     0
  3
 Dotline . . . . . . . . . . . . . . . . . . . . . . . . . . .
 72
    65
 73
     2
 40
0.25
 49
0.0
 74
     0
 49
-0.25
 74
     0
  0
LTYPE
  5
31AC0
330
31A7D
100
AcDbSymbolTableRecord
100
AcDbLinetypeTableRecord
  2
DRAW
 70
     0
  3
 on template _________________________________
 72
    65
 73
     2
 40
1.25
 49
1.25
 74
     0
 49
0.0
 74
     0
  0
LTYPE
  5
31AC1
330
31A7D
100
AcDbSymbolTableRecord
100
AcDbLinetypeTableRecord
  2
EUROPEANCUT
 70
     0
  3
 on template _________________________________
 72
    65
 73
     2
 40
1.25
 49
1.25
 74
     0
 49
0.0
 74
     0
  0
LTYPE
  5
31AC2
330
31A7D
100
AcDbSymbolTableRecord
100
AcDbLinetypeTableRecord
  2
FENCELINE
 70
     0
  3
 Fenceline ----0-----0----0-----0----0-----0--
 72
    65
 73
     4
 40
1.375
 49
0.625
 74
     0
 49
-0.25
 74
     4
 75
   133
340
31AB8
 46
0.25
 50
0.0
 44
-0.25
 45
0.0
 49
-0.25
 74
     0
 49
0.25
 74
     0
  0
LTYPE
  5
31AC3
330
31A7D
100
AcDbSymbolTableRecord
100
AcDbLinetypeTableRecord
  2
HIDDEN
 70
     0
  3
Hidden __ __ __ __ __ __ __ __ __ __ __ __ __ __ __ __ __ __
 72
    65
 73
     2
 40
0.375
 49
0.25
 74
     0
 49
-0.125
 74
     0
  0
LTYPE
  5
31AC4
330
31A7D
100
AcDbSymbolTableRecord
100
AcDbLinetypeTableRecord
  2
ZIGZAG
 70
     0
  3
ZigZag /\/\/\/\/\/\/\/\/\/\/\/\/\/\/\/\/\/\/\/\/\/\/\/
 72
    65
 73
     4
 40
2.00025
 49
0.00025
 74
     0
 49
-0.5
 74
     4
 75
   131
340
31AB8
 46
0.5
 50
0.0
 44
-0.5
 45
0.0
 49
-1.0
 74
     4
 75
   131
340
31AB8
 46
0.5
 50
180.0
 44
0.5
 45
0.0
 49
-0.5
 74
     0
  0
ENDTAB
  0
TABLE
  2
LAYER
  5
31A7A
330
0
100
AcDbSymbolTable
 70
     6
  0
LAYER
  5
31A88
330
31A7A
100
AcDbSymbolTableRecord
100
AcDbLayerTableRecord
  2
0
 70
     0
 62
     7
  6
CONTINUOUS
  0
LAYER
  5
31AC5
330
31A7A
100
AcDbSymbolTableRecord
100
AcDbLayerTableRecord
  2
ALLENBOUNDARY
 70
     0
 62
     7
  6
CONTINUOUS
  0
LAYER
  5
31AC6
330
31A7A
100
AcDbSymbolTableRecord
100
AcDbLayerTableRecord
  2
ALLENTILE
 70
     0
 62
     7
  6
CONTINUOUS
  0
LAYER
  5
31AC7
330
31A7A
100
AcDbSymbolTableRecord
100
AcDbLayerTableRecord
  2
CUTOUT_TEMPLATE
 70
     0
 62
     7
  6
CONTINUOUS
  0
LAYER
  5
31AC8
330
31A7A
100
AcDbSymbolTableRecord
100
AcDbLayerTableRecord
  2
DEFPOINTS
 70
     0
 62
     7
  6
CONTINUOUS
  0
LAYER
  5
31AC9
330
31A7A
100
AcDbSymbolTableRecord
100
AcDbLayerTableRecord
  2
TITLE_BLOCK
 70
     0
 62
     7
  6
CONTINUOUS
  0
ENDTAB
  0
TABLE
  2
STYLE
  5
31A7B
330
0
100
AcDbSymbolTable
 70
     2
  0
STYLE
  5
31A89
330
31A7B
100
AcDbSymbolTableRecord
100
AcDbTextStyleTableRecord
  2
STANDARD
 70
     0
 40
0.0
 41
1.0
 50
0.0
 71
     0
 42
0.25
  3
TXT.SHX
  4

  0
STYLE
  5
31AB8
330
31A7B
100
AcDbSymbolTableRecord
100
AcDbTextStyleTableRecord
  2

 70
     1
 40
0.2
 41
1.0
 50
0.0
 71
     0
 42
0.2
  3
LTYPESHP.SHX
  4

  0
ENDTAB
  0
TABLE
  2
VIEW
  5
31A7E
330
0
100
AcDbSymbolTable
 70
     0
  0
ENDTAB
  0
TABLE
  2
UCS
  5
31A7F
330
0
100
AcDbSymbolTable
 70
     0
  0
ENDTAB
  0
TABLE
  2
APPID
  5
31A81
330
0
100
AcDbSymbolTable
 70
     3
  0
APPID
  5
31A8A
330
31A81
100
AcDbSymbolTableRecord
100
AcDbRegAppTableRecord
  2
ACAD
 70
     0
  0
APPID
  5
31ACA
330
31A81
100
AcDbSymbolTableRecord
100
AcDbRegAppTableRecord
  2
ARROW_TEXT
 70
     0
  0
APPID
  5
31ACB
330
31A81
100
AcDbSymbolTableRecord
100
AcDbRegAppTableRecord
  2
TCAD
 70
     0
  0
ENDTAB
  0
TABLE
  2
DIMSTYLE
  5
31A82
330
0
100
AcDbSymbolTable
 70
     1
  0
DIMSTYLE
105
31A9E
330
31A82
100
AcDbSymbolTableRecord
100
AcDbDimStyleTableRecord
  2
STANDARD
 70
     0
  3

  4

  5

  6

  7

 40
1.0
 41
0.18
 42
0.0625
 43
0.38
 44
0.18
 45
0.0
 46
0.0
 47
0.0
 48
0.0
140
0.18
141
0.09
142
0.0
143
25.4
144
1.0
145
0.0
146
1.0
147
0.09
 71
     0
 72
     0
 73
     1
 74
     1
 75
     0
 76
     0
 77
     0
 78
     0
170
     0
171
     2
172
     0
173
     0
174
     0
175
     0
176
     0
177
     0
178
     0
270
     2
271
     4
272
     4
273
     2
274
     2
340
31A89
275
     0
280
     0
281
     0
282
     0
283
     1
284
     0
285
     0
286
     0
287
     3
288
     0
  0
ENDTAB
  0
TABLE
  2
BLOCK_RECORD
  5
31A79
330
0
100
AcDbSymbolTable
 70
     8
  0
BLOCK_RECORD
  5
31A96
330
31A79
100
AcDbSymbolTableRecord
100
AcDbBlockTableRecord
  2
*MODEL_SPACE
  0
BLOCK_RECORD
  5
31A92
330
31A79
100
AcDbSymbolTableRecord
100
AcDbBlockTableRecord
  2
*PAPER_SPACE
  0
BLOCK_RECORD
  5
31AA3
330
31A79
100
AcDbSymbolTableRecord
100
AcDbBlockTableRecord
  2
*D1
  0
BLOCK_RECORD
  5
31AA6
330
31A79
100
AcDbSymbolTableRecord
100
AcDbBlockTableRecord
  2
*D2
  0
BLOCK_RECORD
  5
31AA9
330
31A79
100
AcDbSymbolTableRecord
100
AcDbBlockTableRecord
  2
*D3
  0
BLOCK_RECORD
  5
31AAC
330
31A79
100
AcDbSymbolTableRecord
100
AcDbBlockTableRecord
  2
ARROW
  0
BLOCK_RECORD
  5
31AAF
330
31A79
100
AcDbSymbolTableRecord
100
AcDbBlockTableRecord
  2
TILE_1
  0
BLOCK_RECORD
  5
31AB2
330
31A79
100
AcDbSymbolTableRecord
100
AcDbBlockTableRecord
  2
TILE_2
  0
BLOCK_RECORD
  5
31AB5
330
31A79
100
AcDbSymbolTableRecord
100
AcDbBlockTableRecord
  2
TILE_BOUNDARY
  0
ENDTAB
  0
ENDSEC
  0
SECTION
  2
BLOCKS
  0
BLOCK
  5
31A97
330
31A96
100
AcDbEntity
  8
0
100
AcDbBlockBegin
  2
*MODEL_SPACE
 70
     0
 71
     0
 10
0.0
 20
0.0
 30
0.0
  3
*MODEL_SPACE
  1

  0
ENDBLK
  5
31A98
330
31A96
100
AcDbEntity
  8
0
100
AcDbBlockEnd
  0
BLOCK
  5
31A93
330
31A92
100
AcDbEntity
 67
     1
  8
0
100
AcDbBlockBegin
  2
*PAPER_SPACE
 70
     0
 71
     0
 10
0.0
 20
0.0
 30
0.0
  3
*PAPER_SPACE
  1

  0
ENDBLK
  5
31A94
330
31A92
100
AcDbEntity
 67
     1
  8
0
100
AcDbBlockEnd
  0
BLOCK
  5
31AA4
330
31AA3
100
AcDbEntity
  8
0
100
AcDbBlockBegin
  2
*D1
 70
     1
 71
     0
 10
0.0
 20
0.0
 30
0.0
  3
*D1
  1

  0
POINT
  5
31208
330
31AA3
100
AcDbEntity
  8
DEFPOINTS
  6
CONTINUOUS
 62
     7
100
AcDbPoint
 10
48.895155
 20
5.938
 30
0.0
  0
POINT
  5
31209
330
31AA3
100
AcDbEntity
  8
DEFPOINTS
  6
CONTINUOUS
 62
     7
100
AcDbPoint
 10
48.895155
 20
-5.442
 30
0.0
  0
POINT
  5
3120A
330
31AA3
100
AcDbEntity
  8
DEFPOINTS
  6
CONTINUOUS
 62
     7
100
AcDbPoint
 10
51.569406
 20
-5.442
 30
0.0
  0
LINE
  5
3120B
330
31AA3
100
AcDbEntity
  8
CUTOUT_TEMPLATE
 62
     0
100
AcDbLine
 10
51.569406
 20
-5.442
 30
0.0
 11
51.569406
 21
0.068
 31
0.0
  0
LINE
  5
3120C
330
31AA3
100
AcDbEntity
  8
CUTOUT_TEMPLATE
 62
     0
100
AcDbLine
 10
51.569406
 20
5.938
 30
0.0
 11
51.569406
 21
0.428
 31
0.0
  0
INSERT
  5
3120D
330
31AA3
100
AcDbEntity
  8
0
 62
     0
100
AcDbBlockReference
  2
ARROW
 10
51.569406
 20
5.938
 30
0.0
 41
0.18
 42
0.18
 43
0.18
 50
90.0
  0
INSERT
  5
3120E
330
31AA3
100
AcDbEntity
  8
0
 62
     0
100
AcDbBlockReference
  2
ARROW
 10
51.569406
 20
-5.442
 30
0.0
 41
0.18
 42
0.18
 43
0.18
 50
270.0
  0
TEXT
  5
3120F
330
31AA3
100
AcDbEntity
  8
CUTOUT_TEMPLATE
 62
     0
100
AcDbText
 10
51.245406
 20
0.158
 30
0.0
 40
0.18
  1
11.38
 72
     1
 11
51.569406
 21
0.248
 31
0.0
100
AcDbText
 73
     2
  0
LINE
  5
31210
330
31AA3
100
AcDbEntity
  8
CUTOUT_TEMPLATE
 62
     0
100
AcDbLine
 10
48.957655
 20
-5.442
 30
0.0
 11
51.749406
 21
-5.442
 31
0.0
  0
LINE
  5
31211
330
31AA3
100
AcDbEntity
  8
CUTOUT_TEMPLATE
 62
     0
100
AcDbLine
 10
48.957655
 20
5.938
 30
0.0
 11
51.749406
 21
5.938
 31
0.0
  0
ENDBLK
  5
31AA5
330
31AA3
100
AcDbEntity
  8
0
100
AcDbBlockEnd
  0
BLOCK
  5
31AA7
330
31AA6
100
AcDbEntity
  8
0
100
AcDbBlockBegin
  2
*D2
 70
     1
 71
     0
 10
0.0
 20
0.0
 30
0.0
  3
*D2
  1

  0
POINT
  5
31520
330
31AA6
100
AcDbEntity
  8
DEFPOINTS
  6
CONTINUOUS
 62
     7
100
AcDbPoint
 10
47.895155
 20
4.938
 30
0.0
  0
POINT
  5
31521
330
31AA6
100
AcDbEntity
  8
DEFPOINTS
  6
CONTINUOUS
 62
     7
100
AcDbPoint
 10
65.645155
 20
4.938
 30
0.0
  0
POINT
  5
31522
330
31AA6
100
AcDbEntity
  8
DEFPOINTS
  6
CONTINUOUS
 62
     7
100
AcDbPoint
 10
61.788314
 20
4.938
 30
0.0
  0
LINE
  5
31523
330
31AA6
100
AcDbEntity
  8
CUTOUT_TEMPLATE
 62
     0
100
AcDbLine
 10
61.788314
 20
4.938
 30
0.0
 11
61.788314
 21
4.578
 31
0.0
  0
LINE
  5
31524
330
31AA6
100
AcDbEntity
  8
CUTOUT_TEMPLATE
 62
     0
100
AcDbLine
 10
61.788314
 20
4.938
 30
0.0
 11
61.788314
 21
5.298
 31
0.0
  0
INSERT
  5
31525
330
31AA6
100
AcDbEntity
  8
0
 62
     0
100
AcDbBlockReference
  2
ARROW
 10
61.788314
 20
4.938
 30
0.0
 41
0.18
 42
0.18
 43
0.18
 50
270.0
  0
INSERT
  5
31526
330
31AA6
100
AcDbEntity
  8
0
 62
     0
100
AcDbBlockReference
  2
ARROW
 10
61.788314
 20
4.938
 30
0.0
 41
0.18
 42
0.18
 43
0.18
 50
90.0
  0
LINE
  5
31527
330
31AA6
100
AcDbEntity
  8
CUTOUT_TEMPLATE
 62
     0
100
AcDbLine
 10
61.788314
 20
5.298
 30
0.0
 11
61.968314
 21
5.298
 31
0.0
  0
TEXT
  5
31528
330
31AA6
100
AcDbEntity
  8
CUTOUT_TEMPLATE
 62
     0
100
AcDbText
 10
62.088014
 20
5.208
 30
0.0
 40
0.18
  1
0.00
 72
     1
 11
62.331014
 21
5.298
 31
0.0
100
AcDbText
 73
     2
  0
LINE
  5
31529
330
31AA6
100
AcDbEntity
  8
CUTOUT_TEMPLATE
 62
     0
100
AcDbLine
 10
65.582655
 20
4.938
 30
0.0
 11
61.608314
 21
4.938
 31
0.0
  0
LINE
  5
3152A
330
31AA6
100
AcDbEntity
  8
CUTOUT_TEMPLATE
 62
     0
100
AcDbLine
 10
47.957655
 20
4.938
 30
0.0
 11
61.968314
 21
4.938
 31
0.0
  0
ENDBLK
  5
31AA8
330
31AA6
100
AcDbEntity
  8
0
100
AcDbBlockEnd
  0
BLOCK
  5
31AAA
330
31AA9
100
AcDbEntity
  8
0
100
AcDbBlockBegin
  2
*D3
 70
     1
 71
     0
 10
0.0
 20
0.0
 30
0.0
  3
*D3
  1

  0
POINT
  5
31806
330
31AA9
100
AcDbEntity
  8
DEFPOINTS
  6
CONTINUOUS
 62
     7
100
AcDbPoint
 10
47.895155
 20
4.938
 30
0.0
  0
POINT
  5
31807
330
31AA9
100
AcDbEntity
  8
DEFPOINTS
  6
CONTINUOUS
 62
     7
100
AcDbPoint
 10
65.645155
 20
4.938
 30
0.0
  0
POINT
  5
31808
330
31AA9
100
AcDbEntity
  8
DEFPOINTS
  6
CONTINUOUS
 62
     7
100
AcDbPoint
 10
65.645155
 20
5.522359
 30
0.0
  0
LINE
  5
31809
330
31AA9
100
AcDbEntity
  8
CUTOUT_TEMPLATE
 62
     0
100
AcDbLine
 10
47.895155
 20
5.522359
 30
0.0
 11
56.326455
 21
5.522359
 31
0.0
  0
LINE
  5
3180A
330
31AA9
100
AcDbEntity
  8
CUTOUT_TEMPLATE
 62
     0
100
AcDbLine
 10
65.645155
 20
5.522359
 30
0.0
 11
57.213855
 21
5.522359
 31
0.0
  0
INSERT
  5
3180B
330
31AA9
100
AcDbEntity
  8
0
 62
     0
100
AcDbBlockReference
  2
ARROW
 10
65.645155
 20
5.522359
 30
0.0
 41
0.18
 42
0.18
 43
0.18
  0
INSERT
  5
3180C
330
31AA9
100
AcDbEntity
  8
0
 62
     0
100
AcDbBlockReference
  2
ARROW
 10
47.895155
 20
5.522359
 30
0.0
 41
0.18
 42
0.18
 43
0.18
 50
180.0
  0
TEXT
  5
3180D
330
31AA9
100
AcDbEntity
  8
CUTOUT_TEMPLATE
 62
     0
100
AcDbText
 10
56.446155
 20
5.432359
 30
0.0
 40
0.18
  1
17.75
 72
     1
 11
56.770155
 21
5.522359
 31
0.0
100
AcDbText
 73
     2
  0
LINE
  5
3180E
330
31AA9
100
AcDbEntity
  8
CUTOUT_TEMPLATE
 62
     0
100
AcDbLine
 10
65.645155
 20
5.0005
 30
0.0
 11
65.645155
 21
5.702359
 31
0.0
  0
LINE
  5
3180F
330
31AA9
100
AcDbEntity
  8
CUTOUT_TEMPLATE
 62
     0
100
AcDbLine
 10
47.895155
 20
5.0005
 30
0.0
 11
47.895155
 21
5.702359
 31
0.0
  0
ENDBLK
  5
31AAB
330
31AA9
100
AcDbEntity
  8
0
100
AcDbBlockEnd
  0
BLOCK
  5
31AAD
330
31AAC
100
AcDbEntity
  8
0
100
AcDbBlockBegin
  2
ARROW
 70
     0
 71
     0
 10
0.0
 20
0.0
 30
0.0
  3
ARROW
  1

  0
SOLID
  5
1A33D
330
31AAC
100
AcDbEntity
  8
0
  6
CONTINUOUS
 62
     0
100
AcDbTrace
 10
-1.0
 20
0.176
 30
0.0
 11
-1.0
 21
-0.176
 31
0.0
 12
0.0
 22
0.0
 32
0.0
 13
0.0
 23
0.0
 33
0.0
  0
ENDBLK
  5
31AAE
330
31AAC
100
AcDbEntity
  8
0
100
AcDbBlockEnd
  0
BLOCK
  5
31AB0
330
31AAF
100
AcDbEntity
  8
0
100
AcDbBlockBegin
  2
TILE_1
 70
     0
 71
     0
 10
0.0
 20
0.0
 30
0.0
  3
TILE_1
  1

  0
LINE
  5
3195C
330
31AAF
100
AcDbEntity
  8
ALLENTILE
 62
     1
100
AcDbLine
 10
12.151492
 20
-19.817774
 30
23.47
 11
2.684989
 21
-19.817774
 31
23.47
  0
TEXT
  5
3195D
330
31AAF
100
AcDbEntity
  8
ALLENTILE
 62
     3
100
AcDbText
 10
10.754306
 20
-12.618345
 30
23.47
 40
0.75
  1
ECLIPSE
 50
270.0
100
AcDbText
  0
TEXT
  5
3195E
330
31AAF
100
AcDbEntity
  8
ALLENTILE
 62
     3
100
AcDbText
 10
9.465512
 20
-13.876454
 30
23.47
 40
0.75
  1
194
 50
270.0
100
AcDbText
  0
LINE
  5
3195F
330
31AAF
100
AcDbEntity
  8
ALLENTILE
 62
     1
100
AcDbLine
 10
1.662136
 20
-2.684989
 30
23.47
 11
1.662136
 21
-18.794921
 31
23.47
  0
LINE
  5
31960
330
31AAF
100
AcDbEntity
  8
ALLENTILE
 62
     1
100
AcDbLine
 10
12.151492
 20
-1.662136
 30
23.47
 11
2.684989
 21
-1.662136
 31
23.47
  0
LINE
  5
31961
330
31AAF
100
AcDbEntity
  8
ALLENTILE
 62
     1
100
AcDbLine
 10
1.662136
 20
-2.684989
 30
23.47
 11
1.666499
 21
-2.590612
 31
23.47
  0
LINE
  5
31962
330
31AAF
100
AcDbEntity
  8
ALLENTILE
 62
     1
100
AcDbLine
 10
1.666499
 20
-2.590612
 30
23.47
 11
1.679552
 21
-2.49704
 31
23.47
  0
LINE
  5
31963
330
31AAF
100
AcDbEntity
  8
ALLENTILE
 62
     1
100
AcDbLine
 10
1.679552
 20
-2.49704
 30
23.47
 11
1.701183
 21
-2.405072
 31
23.47
  0
LINE
  5
31964
330
31AAF
100
AcDbEntity
  8
ALLENTILE
 62
     1
100
AcDbLine
 10
1.701183
 20
-2.405072
 30
23.47
 11
1.731207
 21
-2.315492
 31
23.47
  0
LINE
  5
31965
330
31AAF
100
AcDbEntity
  8
ALLENTILE
 62
     1
100
AcDbLine
 10
1.731207
 20
-2.315492
 30
23.47
 11
1.769368
 21
-2.229064
 31
23.47
  0
LINE
  5
31966
330
31AAF
100
AcDbEntity
  8
ALLENTILE
 62
     1
100
AcDbLine
 10
1.769368
 20
-2.229064
 30
23.47
 11
1.815342
 21
-2.146526
 31
23.47
  0
LINE
  5
31967
330
31AAF
100
AcDbEntity
  8
ALLENTILE
 62
     1
100
AcDbLine
 10
1.815342
 20
-2.146526
 30
23.47
 11
1.868735
 21
-2.068582
 31
23.47
  0
LINE
  5
31968
330
31AAF
100
AcDbEntity
  8
ALLENTILE
 62
     1
100
AcDbLine
 10
1.868735
 20
-2.068582
 30
23.47
 11
1.929091
 21
-1.995897
 31
23.47
  0
LINE
  5
31969
330
31AAF
100
AcDbEntity
  8
ALLENTILE
 62
     1
100
AcDbLine
 10
1.929091
 20
-1.995897
 30
23.47
 11
1.995897
 21
-1.929091
 31
23.47
  0
LINE
  5
3196A
330
31AAF
100
AcDbEntity
  8
ALLENTILE
 62
     1
100
AcDbLine
 10
1.995897
 20
-1.929091
 30
23.47
 11
2.068582
 21
-1.868735
 31
23.47
  0
LINE
  5
3196B
330
31AAF
100
AcDbEntity
  8
ALLENTILE
 62
     1
100
AcDbLine
 10
2.068582
 20
-1.868735
 30
23.47
 11
2.146526
 21
-1.815342
 31
23.47
  0
LINE
  5
3196C
330
31AAF
100
AcDbEntity
  8
ALLENTILE
 62
     1
100
AcDbLine
 10
2.146526
 20
-1.815342
 30
23.47
 11
2.229064
 21
-1.769368
 31
23.47
  0
LINE
  5
3196D
330
31AAF
100
AcDbEntity
  8
ALLENTILE
 62
     1
100
AcDbLine
 10
2.229064
 20
-1.769368
 30
23.47
 11
2.315492
 21
-1.731207
 31
23.47
  0
LINE
  5
3196E
330
31AAF
100
AcDbEntity
  8
ALLENTILE
 62
     1
100
AcDbLine
 10
2.315492
 20
-1.731207
 30
23.47
 11
2.405072
 21
-1.701183
 31
23.47
  0
LINE
  5
3196F
330
31AAF
100
AcDbEntity
  8
ALLENTILE
 62
     1
100
AcDbLine
 10
2.405072
 20
-1.701183
 30
23.47
 11
2.49704
 21
-1.679552
 31
23.47
  0
LINE
  5
31970
330
31AAF
100
AcDbEntity
  8
ALLENTILE
 62
     1
100
AcDbLine
 10
2.49704
 20
-1.679552
 30
23.47
 11
2.590612
 21
-1.666499
 31
23.47
  0
LINE
  5
31971
330
31AAF
100
AcDbEntity
  8
ALLENTILE
 62
     1
100
AcDbLine
 10
2.590612
 20
-1.666499
 30
23.47
 11
2.684989
 21
-1.662136
 31
23.47
  0
LINE
  5
31972
330
31AAF
100
AcDbEntity
  8
ALLENTILE
 62
     1
100
AcDbLine
 10
2.684989
 20
-19.817774
 30
23.47
 11
2.590612
 21
-19.81341
 31
23.47
  0
LINE
  5
31973
330
31AAF
100
AcDbEntity
  8
ALLENTILE
 62
     1
100
AcDbLine
 10
2.590612
 20
-19.81341
 30
23.47
 11
2.49704
 21
-19.800358
 31
23.47
  0
LINE
  5
31974
330
31AAF
100
AcDbEntity
  8
ALLENTILE
 62
     1
100
AcDbLine
 10
2.49704
 20
-19.800358
 30
23.47
 11
2.405072
 21
-19.778727
 31
23.47
  0
LINE
  5
31975
330
31AAF
100
AcDbEntity
  8
ALLENTILE
 62
     1
100
AcDbLine
 10
2.405072
 20
-19.778727
 30
23.47
 11
2.315492
 21
-19.748703
 31
23.47
  0
LINE
  5
31976
330
31AAF
100
AcDbEntity
  8
ALLENTILE
 62
     1
100
AcDbLine
 10
2.315492
 20
-19.748703
 30
23.47
 11
2.229064
 21
-19.710541
 31
23.47
  0
LINE
  5
31977
330
31AAF
100
AcDbEntity
  8
ALLENTILE
 62
     1
100
AcDbLine
 10
2.229064
 20
-19.710541
 30
23.47
 11
2.146526
 21
-19.664568
 31
23.47
  0
LINE
  5
31978
330
31AAF
100
AcDbEntity
  8
ALLENTILE
 62
     1
100
AcDbLine
 10
2.146526
 20
-19.664568
 30
23.47
 11
2.068582
 21
-19.611175
 31
23.47
  0
LINE
  5
31979
330
31AAF
100
AcDbEntity
  8
ALLENTILE
 62
     1
100
AcDbLine
 10
2.068582
 20
-19.611175
 30
23.47
 11
1.995897
 21
-19.550818
 31
23.47
  0
LINE
  5
3197A
330
31AAF
100
AcDbEntity
  8
ALLENTILE
 62
     1
100
AcDbLine
 10
1.995897
 20
-19.550818
 30
23.47
 11
1.929091
 21
-19.484012
 31
23.47
  0
LINE
  5
3197B
330
31AAF
100
AcDbEntity
  8
ALLENTILE
 62
     1
100
AcDbLine
 10
1.929091
 20
-19.484012
 30
23.47
 11
1.868735
 21
-19.411327
 31
23.47
  0
LINE
  5
3197C
330
31AAF
100
AcDbEntity
  8
ALLENTILE
 62
     1
100
AcDbLine
 10
1.868735
 20
-19.411327
 30
23.47
 11
1.815342
 21
-19.333383
 31
23.47
  0
LINE
  5
3197D
330
31AAF
100
AcDbEntity
  8
ALLENTILE
 62
     1
100
AcDbLine
 10
1.815342
 20
-19.333383
 30
23.47
 11
1.769368
 21
-19.250846
 31
23.47
  0
LINE
  5
3197E
330
31AAF
100
AcDbEntity
  8
ALLENTILE
 62
     1
100
AcDbLine
 10
1.769368
 20
-19.250846
 30
23.47
 11
1.731207
 21
-19.164418
 31
23.47
  0
LINE
  5
3197F
330
31AAF
100
AcDbEntity
  8
ALLENTILE
 62
     1
100
AcDbLine
 10
1.731207
 20
-19.164418
 30
23.47
 11
1.701183
 21
-19.074838
 31
23.47
  0
LINE
  5
31980
330
31AAF
100
AcDbEntity
  8
ALLENTILE
 62
     1
100
AcDbLine
 10
1.701183
 20
-19.074838
 30
23.47
 11
1.679552
 21
-18.98287
 31
23.47
  0
LINE
  5
31981
330
31AAF
100
AcDbEntity
  8
ALLENTILE
 62
     1
100
AcDbLine
 10
1.679552
 20
-18.98287
 30
23.47
 11
1.666499
 21
-18.889298
 31
23.47
  0
LINE
  5
31982
330
31AAF
100
AcDbEntity
  8
ALLENTILE
 62
     1
100
AcDbLine
 10
1.666499
 20
-18.889298
 30
23.47
 11
1.662136
 21
-18.794921
 31
23.47
  0
LINE
  5
31983
330
31AAF
100
AcDbEntity
  8
ALLENTILE
 62
     1
100
AcDbLine
 10
10.550727
 20
-10.739955
 30
23.47
 11
4.41361
 21
-10.739955
 31
23.47
  0
LINE
  5
31984
330
31AAF
100
AcDbEntity
  8
ALLENTILE
 62
     1
100
AcDbLine
 10
13.174345
 20
-2.684989
 30
23.47
 11
13.174345
 21
-18.794921
 31
23.47
  0
LINE
  5
31985
330
31AAF
100
AcDbEntity
  8
ALLENTILE
 62
     1
100
AcDbLine
 10
13.174345
 20
-18.794921
 30
23.47
 11
13.169981
 21
-18.889298
 31
23.47
  0
LINE
  5
31986
330
31AAF
100
AcDbEntity
  8
ALLENTILE
 62
     1
100
AcDbLine
 10
13.169981
 20
-18.889298
 30
23.47
 11
13.156928
 21
-18.98287
 31
23.47
  0
LINE
  5
31987
330
31AAF
100
AcDbEntity
  8
ALLENTILE
 62
     1
100
AcDbLine
 10
13.156928
 20
-18.98287
 30
23.47
 11
13.135298
 21
-19.074838
 31
23.47
  0
LINE
  5
31988
330
31AAF
100
AcDbEntity
  8
ALLENTILE
 62
     1
100
AcDbLine
 10
13.135298
 20
-19.074838
 30
23.47
 11
13.105274
 21
-19.164418
 31
23.47
  0
LINE
  5
31989
330
31AAF
100
AcDbEntity
  8
ALLENTILE
 62
     1
100
AcDbLine
 10
13.105274
 20
-19.164418
 30
23.47
 11
13.067112
 21
-19.250846
 31
23.47
  0
LINE
  5
3198A
330
31AAF
100
AcDbEntity
  8
ALLENTILE
 62
     1
100
AcDbLine
 10
13.067112
 20
-19.250846
 30
23.47
 11
13.021139
 21
-19.333383
 31
23.47
  0
LINE
  5
3198B
330
31AAF
100
AcDbEntity
  8
ALLENTILE
 62
     1
100
AcDbLine
 10
13.021139
 20
-19.333383
 30
23.47
 11
12.967746
 21
-19.411327
 31
23.47
  0
LINE
  5
3198C
330
31AAF
100
AcDbEntity
  8
ALLENTILE
 62
     1
100
AcDbLine
 10
12.967746
 20
-19.411327
 30
23.47
 11
12.907389
 21
-19.484012
 31
23.47
  0
LINE
  5
3198D
330
31AAF
100
AcDbEntity
  8
ALLENTILE
 62
     1
100
AcDbLine
 10
12.907389
 20
-19.484012
 30
23.47
 11
12.840583
 21
-19.550818
 31
23.47
  0
LINE
  5
3198E
330
31AAF
100
AcDbEntity
  8
ALLENTILE
 62
     1
100
AcDbLine
 10
12.840583
 20
-19.550818
 30
23.47
 11
12.767898
 21
-19.611175
 31
23.47
  0
LINE
  5
3198F
330
31AAF
100
AcDbEntity
  8
ALLENTILE
 62
     1
100
AcDbLine
 10
12.767898
 20
-19.611175
 30
23.47
 11
12.689954
 21
-19.664568
 31
23.47
  0
LINE
  5
31990
330
31AAF
100
AcDbEntity
  8
ALLENTILE
 62
     1
100
AcDbLine
 10
12.689954
 20
-19.664568
 30
23.47
 11
12.607416
 21
-19.710541
 31
23.47
  0
LINE
  5
31991
330
31AAF
100
AcDbEntity
  8
ALLENTILE
 62
     1
100
AcDbLine
 10
12.607416
 20
-19.710541
 30
23.47
 11
12.520989
 21
-19.748703
 31
23.47
  0
LINE
  5
31992
330
31AAF
100
AcDbEntity
  8
ALLENTILE
 62
     1
100
AcDbLine
 10
12.520989
 20
-19.748703
 30
23.47
 11
12.431409
 21
-19.778727
 31
23.47
  0
LINE
  5
31993
330
31AAF
100
AcDbEntity
  8
ALLENTILE
 62
     1
100
AcDbLine
 10
12.431409
 20
-19.778727
 30
23.47
 11
12.33944
 21
-19.800358
 31
23.47
  0
LINE
  5
31994
330
31AAF
100
AcDbEntity
  8
ALLENTILE
 62
     1
100
AcDbLine
 10
12.33944
 20
-19.800358
 30
23.47
 11
12.245869
 21
-19.81341
 31
23.47
  0
LINE
  5
31995
330
31AAF
100
AcDbEntity
  8
ALLENTILE
 62
     1
100
AcDbLine
 10
12.245869
 20
-19.81341
 30
23.47
 11
12.151492
 21
-19.817774
 31
23.47
  0
LINE
  5
31996
330
31AAF
100
AcDbEntity
  8
ALLENTILE
 62
     1
100
AcDbLine
 10
12.151492
 20
-1.662136
 30
23.47
 11
12.245869
 21
-1.666499
 31
23.47
  0
LINE
  5
31997
330
31AAF
100
AcDbEntity
  8
ALLENTILE
 62
     1
100
AcDbLine
 10
12.245869
 20
-1.666499
 30
23.47
 11
12.33944
 21
-1.679552
 31
23.47
  0
LINE
  5
31998
330
31AAF
100
AcDbEntity
  8
ALLENTILE
 62
     1
100
AcDbLine
 10
12.33944
 20
-1.679552
 30
23.47
 11
12.431409
 21
-1.701183
 31
23.47
  0
LINE
  5
31999
330
31AAF
100
AcDbEntity
  8
ALLENTILE
 62
     1
100
AcDbLine
 10
12.431409
 20
-1.701183
 30
23.47
 11
12.520989
 21
-1.731207
 31
23.47
  0
LINE
  5
3199A
330
31AAF
100
AcDbEntity
  8
ALLENTILE
 62
     1
100
AcDbLine
 10
12.520989
 20
-1.731207
 30
23.47
 11
12.607416
 21
-1.769368
 31
23.47
  0
LINE
  5
3199B
330
31AAF
100
AcDbEntity
  8
ALLENTILE
 62
     1
100
AcDbLine
 10
12.607416
 20
-1.769368
 30
23.47
 11
12.689954
 21
-1.815342
 31
23.47
  0
LINE
  5
3199C
330
31AAF
100
AcDbEntity
  8
ALLENTILE
 62
     1
100
AcDbLine
 10
12.689954
 20
-1.815342
 30
23.47
 11
12.767898
 21
-1.868735
 31
23.47
  0
LINE
  5
3199D
330
31AAF
100
AcDbEntity
  8
ALLENTILE
 62
     1
100
AcDbLine
 10
12.767898
 20
-1.868735
 30
23.47
 11
12.840583
 21
-1.929091
 31
23.47
  0
LINE
  5
3199E
330
31AAF
100
AcDbEntity
  8
ALLENTILE
 62
     1
100
AcDbLine
 10
12.840583
 20
-1.929091
 30
23.47
 11
12.907389
 21
-1.995897
 31
23.47
  0
LINE
  5
3199F
330
31AAF
100
AcDbEntity
  8
ALLENTILE
 62
     1
100
AcDbLine
 10
12.907389
 20
-1.995897
 30
23.47
 11
12.967746
 21
-2.068582
 31
23.47
  0
LINE
  5
319A0
330
31AAF
100
AcDbEntity
  8
ALLENTILE
 62
     1
100
AcDbLine
 10
12.967746
 20
-2.068582
 30
23.47
 11
13.021139
 21
-2.146526
 31
23.47
  0
LINE
  5
319A1
330
31AAF
100
AcDbEntity
  8
ALLENTILE
 62
     1
100
AcDbLine
 10
13.021139
 20
-2.146526
 30
23.47
 11
13.067112
 21
-2.229064
 31
23.47
  0
LINE
  5
319A2
330
31AAF
100
AcDbEntity
  8
ALLENTILE
 62
     1
100
AcDbLine
 10
13.067112
 20
-2.229064
 30
23.47
 11
13.105274
 21
-2.315492
 31
23.47
  0
LINE
  5
319A3
330
31AAF
100
AcDbEntity
  8
ALLENTILE
 62
     1
100
AcDbLine
 10
13.105274
 20
-2.315492
 30
23.47
 11
13.135298
 21
-2.405072
 31
23.47
  0
LINE
  5
319A4
330
31AAF
100
AcDbEntity
  8
ALLENTILE
 62
     1
100
AcDbLine
 10
13.135298
 20
-2.405072
 30
23.47
 11
13.156928
 21
-2.49704
 31
23.47
  0
LINE
  5
319A5
330
31AAF
100
AcDbEntity
  8
ALLENTILE
 62
     1
100
AcDbLine
 10
13.156928
 20
-2.49704
 30
23.47
 11
13.169981
 21
-2.590612
 31
23.47
  0
LINE
  5
319A6
330
31AAF
100
AcDbEntity
  8
ALLENTILE
 62
     1
100
AcDbLine
 10
13.169981
 20
-2.590612
 30
23.47
 11
13.174345
 21
-2.684989
 31
23.47
  0
LINE
  5
319A7
330
31AAF
100
AcDbEntity
  8
ALLENTILE
 62
     1
100
AcDbLine
 10
7.41824
 20
-7.671396
 30
23.47
 11
7.41824
 21
-13.808513
 31
23.47
  0
LINE
  5
319A8
330
31AAF
100
AcDbEntity
  8
ALLENTILE
 62
     1
100
AcDbLine
 10
12.151492
 20
-1.150709
 30
23.47
 11
12.266149
 21
-1.155
 31
23.47
  0
LINE
  5
319A9
330
31AAF
100
AcDbEntity
  8
ALLENTILE
 62
     1
100
AcDbLine
 10
12.266149
 20
-1.155
 30
23.47
 11
12.380164
 21
-1.167846
 31
23.47
  0
LINE
  5
319AA
330
31AAF
100
AcDbEntity
  8
ALLENTILE
 62
     1
100
AcDbLine
 10
12.380164
 20
-1.167846
 30
23.47
 11
12.492901
 21
-1.189177
 31
23.47
  0
LINE
  5
319AB
330
31AAF
100
AcDbEntity
  8
ALLENTILE
 62
     1
100
AcDbLine
 10
12.492901
 20
-1.189177
 30
23.47
 11
12.603728
 21
-1.218873
 31
23.47
  0
LINE
  5
319AC
330
31AAF
100
AcDbEntity
  8
ALLENTILE
 62
     1
100
AcDbLine
 10
12.603728
 20
-1.218873
 30
23.47
 11
12.712027
 21
-1.256768
 31
23.47
  0
LINE
  5
319AD
330
31AAF
100
AcDbEntity
  8
ALLENTILE
 62
     1
100
AcDbLine
 10
12.712027
 20
-1.256768
 30
23.47
 11
12.81719
 21
-1.302651
 31
23.47
  0
LINE
  5
319AE
330
31AAF
100
AcDbEntity
  8
ALLENTILE
 62
     1
100
AcDbLine
 10
12.81719
 20
-1.302651
 30
23.47
 11
12.918631
 21
-1.356264
 31
23.47
  0
LINE
  5
319AF
330
31AAF
100
AcDbEntity
  8
ALLENTILE
 62
     1
100
AcDbLine
 10
12.918631
 20
-1.356264
 30
23.47
 11
13.015782
 21
-1.417308
 31
23.47
  0
LINE
  5
319B0
330
31AAF
100
AcDbEntity
  8
ALLENTILE
 62
     1
100
AcDbLine
 10
13.015782
 20
-1.417308
 30
23.47
 11
13.108099
 21
-1.485441
 31
23.47
  0
LINE
  5
319B1
330
31AAF
100
AcDbEntity
  8
ALLENTILE
 62
     1
100
AcDbLine
 10
13.108099
 20
-1.485441
 30
23.47
 11
13.195067
 21
-1.560282
 31
23.47
  0
LINE
  5
319B2
330
31AAF
100
AcDbEntity
  8
ALLENTILE
 62
     1
100
AcDbLine
 10
13.195067
 20
-1.560282
 30
23.47
 11
13.276198
 21
-1.641414
 31
23.47
  0
LINE
  5
319B3
330
31AAF
100
AcDbEntity
  8
ALLENTILE
 62
     1
100
AcDbLine
 10
13.276198
 20
-1.641414
 30
23.47
 11
13.351039
 21
-1.728381
 31
23.47
  0
LINE
  5
319B4
330
31AAF
100
AcDbEntity
  8
ALLENTILE
 62
     1
100
AcDbLine
 10
13.351039
 20
-1.728381
 30
23.47
 11
13.419173
 21
-1.820698
 31
23.47
  0
LINE
  5
319B5
330
31AAF
100
AcDbEntity
  8
ALLENTILE
 62
     1
100
AcDbLine
 10
13.419173
 20
-1.820698
 30
23.47
 11
13.480216
 21
-1.917849
 31
23.47
  0
LINE
  5
319B6
330
31AAF
100
AcDbEntity
  8
ALLENTILE
 62
     1
100
AcDbLine
 10
13.480216
 20
-1.917849
 30
23.47
 11
13.53383
 21
-2.01929
 31
23.47
  0
LINE
  5
319B7
330
31AAF
100
AcDbEntity
  8
ALLENTILE
 62
     1
100
AcDbLine
 10
13.53383
 20
-2.01929
 30
23.47
 11
13.579712
 21
-2.124454
 31
23.47
  0
LINE
  5
319B8
330
31AAF
100
AcDbEntity
  8
ALLENTILE
 62
     1
100
AcDbLine
 10
13.579712
 20
-2.124454
 30
23.47
 11
13.617607
 21
-2.232752
 31
23.47
  0
LINE
  5
319B9
330
31AAF
100
AcDbEntity
  8
ALLENTILE
 62
     1
100
AcDbLine
 10
13.617607
 20
-2.232752
 30
23.47
 11
13.647303
 21
-2.343579
 31
23.47
  0
LINE
  5
319BA
330
31AAF
100
AcDbEntity
  8
ALLENTILE
 62
     1
100
AcDbLine
 10
13.647303
 20
-2.343579
 30
23.47
 11
13.668634
 21
-2.456316
 31
23.47
  0
LINE
  5
319BB
330
31AAF
100
AcDbEntity
  8
ALLENTILE
 62
     1
100
AcDbLine
 10
13.668634
 20
-2.456316
 30
23.47
 11
13.681481
 21
-2.570332
 31
23.47
  0
LINE
  5
319BC
330
31AAF
100
AcDbEntity
  8
ALLENTILE
 62
     1
100
AcDbLine
 10
13.681481
 20
-2.570332
 30
23.47
 11
13.685771
 21
-2.684989
 31
23.47
  0
LINE
  5
319BD
330
31AAF
100
AcDbEntity
  8
ALLENTILE
 62
     1
100
AcDbLine
 10
13.685771
 20
-2.684989
 30
23.47
 11
13.685771
 21
-18.794921
 31
23.47
  0
LINE
  5
319BE
330
31AAF
100
AcDbEntity
  8
ALLENTILE
 62
     1
100
AcDbLine
 10
13.685771
 20
-18.794921
 30
23.47
 11
13.681481
 21
-18.909578
 31
23.47
  0
LINE
  5
319BF
330
31AAF
100
AcDbEntity
  8
ALLENTILE
 62
     1
100
AcDbLine
 10
13.681481
 20
-18.909578
 30
23.47
 11
13.668634
 21
-19.023593
 31
23.47
  0
LINE
  5
319C0
330
31AAF
100
AcDbEntity
  8
ALLENTILE
 62
     1
100
AcDbLine
 10
13.668634
 20
-19.023593
 30
23.47
 11
13.647303
 21
-19.13633
 31
23.47
  0
LINE
  5
319C1
330
31AAF
100
AcDbEntity
  8
ALLENTILE
 62
     1
100
AcDbLine
 10
13.647303
 20
-19.13633
 30
23.47
 11
13.617607
 21
-19.247158
 31
23.47
  0
LINE
  5
319C2
330
31AAF
100
AcDbEntity
  8
ALLENTILE
 62
     1
100
AcDbLine
 10
13.617607
 20
-19.247158
 30
23.47
 11
13.579712
 21
-19.355456
 31
23.47
  0
LINE
  5
319C3
330
31AAF
100
AcDbEntity
  8
ALLENTILE
 62
     1
100
AcDbLine
 10
13.579712
 20
-19.355456
 30
23.47
 11
13.53383
 21
-19.46062
 31
23.47
  0
LINE
  5
319C4
330
31AAF
100
AcDbEntity
  8
ALLENTILE
 62
     1
100
AcDbLine
 10
13.53383
 20
-19.46062
 30
23.47
 11
13.480216
 21
-19.56206
 31
23.47
  0
LINE
  5
319C5
330
31AAF
100
AcDbEntity
  8
ALLENTILE
 62
     1
100
AcDbLine
 10
13.480216
 20
-19.56206
 30
23.47
 11
13.419173
 21
-19.659211
 31
23.47
  0
LINE
  5
319C6
330
31AAF
100
AcDbEntity
  8
ALLENTILE
 62
     1
100
AcDbLine
 10
13.419173
 20
-19.659211
 30
23.47
 11
13.351039
 21
-19.751528
 31
23.47
  0
LINE
  5
319C7
330
31AAF
100
AcDbEntity
  8
ALLENTILE
 62
     1
100
AcDbLine
 10
13.351039
 20
-19.751528
 30
23.47
 11
13.276198
 21
-19.838496
 31
23.47
  0
LINE
  5
319C8
330
31AAF
100
AcDbEntity
  8
ALLENTILE
 62
     1
100
AcDbLine
 10
13.276198
 20
-19.838496
 30
23.47
 11
13.195067
 21
-19.919627
 31
23.47
  0
LINE
  5
319C9
330
31AAF
100
AcDbEntity
  8
ALLENTILE
 62
     1
100
AcDbLine
 10
13.195067
 20
-19.919627
 30
23.47
 11
13.108099
 21
-19.994469
 31
23.47
  0
LINE
  5
319CA
330
31AAF
100
AcDbEntity
  8
ALLENTILE
 62
     1
100
AcDbLine
 10
13.108099
 20
-19.994469
 30
23.47
 11
13.015782
 21
-20.062602
 31
23.47
  0
LINE
  5
319CB
330
31AAF
100
AcDbEntity
  8
ALLENTILE
 62
     1
100
AcDbLine
 10
13.015782
 20
-20.062602
 30
23.47
 11
12.918631
 21
-20.123646
 31
23.47
  0
LINE
  5
319CC
330
31AAF
100
AcDbEntity
  8
ALLENTILE
 62
     1
100
AcDbLine
 10
12.918631
 20
-20.123646
 30
23.47
 11
12.81719
 21
-20.177259
 31
23.47
  0
LINE
  5
319CD
330
31AAF
100
AcDbEntity
  8
ALLENTILE
 62
     1
100
AcDbLine
 10
12.81719
 20
-20.177259
 30
23.47
 11
12.712027
 21
-20.223141
 31
23.47
  0
LINE
  5
319CE
330
31AAF
100
AcDbEntity
  8
ALLENTILE
 62
     1
100
AcDbLine
 10
12.712027
 20
-20.223141
 30
23.47
 11
12.603728
 21
-20.261036
 31
23.47
  0
LINE
  5
319CF
330
31AAF
100
AcDbEntity
  8
ALLENTILE
 62
     1
100
AcDbLine
 10
12.603728
 20
-20.261036
 30
23.47
 11
12.492901
 21
-20.290733
 31
23.47
  0
LINE
  5
319D0
330
31AAF
100
AcDbEntity
  8
ALLENTILE
 62
     1
100
AcDbLine
 10
12.492901
 20
-20.290733
 30
23.47
 11
12.380164
 21
-20.312063
 31
23.47
  0
LINE
  5
319D1
330
31AAF
100
AcDbEntity
  8
ALLENTILE
 62
     1
100
AcDbLine
 10
12.380164
 20
-20.312063
 30
23.47
 11
12.266149
 21
-20.32491
 31
23.47
  0
LINE
  5
319D2
330
31AAF
100
AcDbEntity
  8
ALLENTILE
 62
     1
100
AcDbLine
 10
12.266149
 20
-20.32491
 30
23.47
 11
12.151492
 21
-20.3292
 31
23.47
  0
LINE
  5
319D3
330
31AAF
100
AcDbEntity
  8
ALLENTILE
 62
     1
100
AcDbLine
 10
12.151492
 20
-20.3292
 30
23.47
 11
2.684989
 21
-20.3292
 31
23.47
  0
LINE
  5
319D4
330
31AAF
100
AcDbEntity
  8
ALLENTILE
 62
     1
100
AcDbLine
 10
2.684989
 20
-20.3292
 30
23.47
 11
2.570332
 21
-20.32491
 31
23.47
  0
LINE
  5
319D5
330
31AAF
100
AcDbEntity
  8
ALLENTILE
 62
     1
100
AcDbLine
 10
2.570332
 20
-20.32491
 30
23.47
 11
2.456316
 21
-20.312063
 31
23.47
  0
LINE
  5
319D6
330
31AAF
100
AcDbEntity
  8
ALLENTILE
 62
     1
100
AcDbLine
 10
2.456316
 20
-20.312063
 30
23.47
 11
2.343579
 21
-20.290733
 31
23.47
  0
LINE
  5
319D7
330
31AAF
100
AcDbEntity
  8
ALLENTILE
 62
     1
100
AcDbLine
 10
2.343579
 20
-20.290733
 30
23.47
 11
2.232752
 21
-20.261036
 31
23.47
  0
LINE
  5
319D8
330
31AAF
100
AcDbEntity
  8
ALLENTILE
 62
     1
100
AcDbLine
 10
2.232752
 20
-20.261036
 30
23.47
 11
2.124454
 21
-20.223141
 31
23.47
  0
LINE
  5
319D9
330
31AAF
100
AcDbEntity
  8
ALLENTILE
 62
     1
100
AcDbLine
 10
2.124454
 20
-20.223141
 30
23.47
 11
2.01929
 21
-20.177259
 31
23.47
  0
LINE
  5
319DA
330
31AAF
100
AcDbEntity
  8
ALLENTILE
 62
     1
100
AcDbLine
 10
2.01929
 20
-20.177259
 30
23.47
 11
1.917849
 21
-20.123646
 31
23.47
  0
LINE
  5
319DB
330
31AAF
100
AcDbEntity
  8
ALLENTILE
 62
     1
100
AcDbLine
 10
1.917849
 20
-20.123646
 30
23.47
 11
1.820698
 21
-20.062602
 31
23.47
  0
LINE
  5
319DC
330
31AAF
100
AcDbEntity
  8
ALLENTILE
 62
     1
100
AcDbLine
 10
1.820698
 20
-20.062602
 30
23.47
 11
1.728381
 21
-19.994469
 31
23.47
  0
LINE
  5
319DD
330
31AAF
100
AcDbEntity
  8
ALLENTILE
 62
     1
100
AcDbLine
 10
1.728381
 20
-19.994469
 30
23.47
 11
1.641414
 21
-19.919627
 31
23.47
  0
LINE
  5
319DE
330
31AAF
100
AcDbEntity
  8
ALLENTILE
 62
     1
100
AcDbLine
 10
1.641414
 20
-19.919627
 30
23.47
 11
1.560282
 21
-19.838496
 31
23.47
  0
LINE
  5
319DF
330
31AAF
100
AcDbEntity
  8
ALLENTILE
 62
     1
100
AcDbLine
 10
1.560282
 20
-19.838496
 30
23.47
 11
1.485441
 21
-19.751528
 31
23.47
  0
LINE
  5
319E0
330
31AAF
100
AcDbEntity
  8
ALLENTILE
 62
     1
100
AcDbLine
 10
1.485441
 20
-19.751528
 30
23.47
 11
1.417308
 21
-19.659211
 31
23.47
  0
LINE
  5
319E1
330
31AAF
100
AcDbEntity
  8
ALLENTILE
 62
     1
100
AcDbLine
 10
1.417308
 20
-19.659211
 30
23.47
 11
1.356264
 21
-19.56206
 31
23.47
  0
LINE
  5
319E2
330
31AAF
100
AcDbEntity
  8
ALLENTILE
 62
     1
100
AcDbLine
 10
1.356264
 20
-19.56206
 30
23.47
 11
1.302651
 21
-19.46062
 31
23.47
  0
LINE
  5
319E3
330
31AAF
100
AcDbEntity
  8
ALLENTILE
 62
     1
100
AcDbLine
 10
1.302651
 20
-19.46062
 30
23.47
 11
1.256768
 21
-19.355456
 31
23.47
  0
LINE
  5
319E4
330
31AAF
100
AcDbEntity
  8
ALLENTILE
 62
     1
100
AcDbLine
 10
1.256768
 20
-19.355456
 30
23.47
 11
1.218873
 21
-19.247158
 31
23.47
  0
LINE
  5
319E5
330
31AAF
100
AcDbEntity
  8
ALLENTILE
 62
     1
100
AcDbLine
 10
1.218873
 20
-19.247158
 30
23.47
 11
1.189177
 21
-19.13633
 31
23.47
  0
LINE
  5
319E6
330
31AAF
100
AcDbEntity
  8
ALLENTILE
 62
     1
100
AcDbLine
 10
1.189177
 20
-19.13633
 30
23.47
 11
1.167846
 21
-19.023593
 31
23.47
  0
LINE
  5
319E7
330
31AAF
100
AcDbEntity
  8
ALLENTILE
 62
     1
100
AcDbLine
 10
1.167846
 20
-19.023593
 30
23.47
 11
1.155
 21
-18.909578
 31
23.47
  0
LINE
  5
319E8
330
31AAF
100
AcDbEntity
  8
ALLENTILE
 62
     1
100
AcDbLine
 10
1.155
 20
-18.909578
 30
23.47
 11
1.150709
 21
-18.794921
 31
23.47
  0
LINE
  5
319E9
330
31AAF
100
AcDbEntity
  8
ALLENTILE
 62
     1
100
AcDbLine
 10
1.150709
 20
-2.684989
 30
23.47
 11
1.150709
 21
-18.794921
 31
23.47
  0
LINE
  5
319EA
330
31AAF
100
AcDbEntity
  8
ALLENTILE
 62
     1
100
AcDbLine
 10
1.150709
 20
-2.684989
 30
23.47
 11
1.155
 21
-2.570332
 31
23.47
  0
LINE
  5
319EB
330
31AAF
100
AcDbEntity
  8
ALLENTILE
 62
     1
100
AcDbLine
 10
1.155
 20
-2.570332
 30
23.47
 11
1.167846
 21
-2.456316
 31
23.47
  0
LINE
  5
319EC
330
31AAF
100
AcDbEntity
  8
ALLENTILE
 62
     1
100
AcDbLine
 10
1.167846
 20
-2.456316
 30
23.47
 11
1.189177
 21
-2.343579
 31
23.47
  0
LINE
  5
319ED
330
31AAF
100
AcDbEntity
  8
ALLENTILE
 62
     1
100
AcDbLine
 10
1.189177
 20
-2.343579
 30
23.47
 11
1.218873
 21
-2.232752
 31
23.47
  0
LINE
  5
319EE
330
31AAF
100
AcDbEntity
  8
ALLENTILE
 62
     1
100
AcDbLine
 10
1.218873
 20
-2.232752
 30
23.47
 11
1.256768
 21
-2.124454
 31
23.47
  0
LINE
  5
319EF
330
31AAF
100
AcDbEntity
  8
ALLENTILE
 62
     1
100
AcDbLine
 10
1.256768
 20
-2.124454
 30
23.47
 11
1.302651
 21
-2.01929
 31
23.47
  0
LINE
  5
319F0
330
31AAF
100
AcDbEntity
  8
ALLENTILE
 62
     1
100
AcDbLine
 10
1.302651
 20
-2.01929
 30
23.47
 11
1.356264
 21
-1.917849
 31
23.47
  0
LINE
  5
319F1
330
31AAF
100
AcDbEntity
  8
ALLENTILE
 62
     1
100
AcDbLine
 10
1.356264
 20
-1.917849
 30
23.47
 11
1.417308
 21
-1.820698
 31
23.47
  0
LINE
  5
319F2
330
31AAF
100
AcDbEntity
  8
ALLENTILE
 62
     1
100
AcDbLine
 10
1.417308
 20
-1.820698
 30
23.47
 11
1.485441
 21
-1.728381
 31
23.47
  0
LINE
  5
319F3
330
31AAF
100
AcDbEntity
  8
ALLENTILE
 62
     1
100
AcDbLine
 10
1.485441
 20
-1.728381
 30
23.47
 11
1.560282
 21
-1.641414
 31
23.47
  0
LINE
  5
319F4
330
31AAF
100
AcDbEntity
  8
ALLENTILE
 62
     1
100
AcDbLine
 10
1.560282
 20
-1.641414
 30
23.47
 11
1.641414
 21
-1.560282
 31
23.47
  0
LINE
  5
319F5
330
31AAF
100
AcDbEntity
  8
ALLENTILE
 62
     1
100
AcDbLine
 10
1.641414
 20
-1.560282
 30
23.47
 11
1.728381
 21
-1.485441
 31
23.47
  0
LINE
  5
319F6
330
31AAF
100
AcDbEntity
  8
ALLENTILE
 62
     1
100
AcDbLine
 10
1.728381
 20
-1.485441
 30
23.47
 11
1.820698
 21
-1.417308
 31
23.47
  0
LINE
  5
319F7
330
31AAF
100
AcDbEntity
  8
ALLENTILE
 62
     1
100
AcDbLine
 10
1.820698
 20
-1.417308
 30
23.47
 11
1.917849
 21
-1.356264
 31
23.47
  0
LINE
  5
319F8
330
31AAF
100
AcDbEntity
  8
ALLENTILE
 62
     1
100
AcDbLine
 10
1.917849
 20
-1.356264
 30
23.47
 11
2.01929
 21
-1.302651
 31
23.47
  0
LINE
  5
319F9
330
31AAF
100
AcDbEntity
  8
ALLENTILE
 62
     1
100
AcDbLine
 10
2.01929
 20
-1.302651
 30
23.47
 11
2.124454
 21
-1.256768
 31
23.47
  0
LINE
  5
319FA
330
31AAF
100
AcDbEntity
  8
ALLENTILE
 62
     1
100
AcDbLine
 10
2.124454
 20
-1.256768
 30
23.47
 11
2.232752
 21
-1.218873
 31
23.47
  0
LINE
  5
319FB
330
31AAF
100
AcDbEntity
  8
ALLENTILE
 62
     1
100
AcDbLine
 10
2.232752
 20
-1.218873
 30
23.47
 11
2.343579
 21
-1.189177
 31
23.47
  0
LINE
  5
319FC
330
31AAF
100
AcDbEntity
  8
ALLENTILE
 62
     1
100
AcDbLine
 10
2.343579
 20
-1.189177
 30
23.47
 11
2.456316
 21
-1.167846
 31
23.47
  0
LINE
  5
319FD
330
31AAF
100
AcDbEntity
  8
ALLENTILE
 62
     1
100
AcDbLine
 10
2.456316
 20
-1.167846
 30
23.47
 11
2.570332
 21
-1.155
 31
23.47
  0
LINE
  5
319FE
330
31AAF
100
AcDbEntity
  8
ALLENTILE
 62
     1
100
AcDbLine
 10
2.570332
 20
-1.155
 30
23.47
 11
2.684989
 21
-1.150709
 31
23.47
  0
LINE
  5
319FF
330
31AAF
100
AcDbEntity
  8
ALLENTILE
 62
     1
100
AcDbLine
 10
12.151492
 20
-1.150709
 30
23.47
 11
2.684989
 21
-1.150709
 31
23.47
  0
LINE
  5
31A00
330
31AAF
100
AcDbEntity
  8
ALLENTILE
 62
     1
100
AcDbLine
 10
12.151492
 20
0.0
 30
23.47
 11
12.30204
 21
-0.004224
 31
23.47
  0
LINE
  5
31A01
330
31AAF
100
AcDbEntity
  8
ALLENTILE
 62
     1
100
AcDbLine
 10
12.30204
 20
-0.004224
 30
23.47
 11
12.452115
 21
-0.016883
 31
23.47
  0
LINE
  5
31A02
330
31AAF
100
AcDbEntity
  8
ALLENTILE
 62
     1
100
AcDbLine
 10
12.452115
 20
-0.016883
 30
23.47
 11
12.601244
 21
-0.037936
 31
23.47
  0
LINE
  5
31A03
330
31AAF
100
AcDbEntity
  8
ALLENTILE
 62
     1
100
AcDbLine
 10
12.601244
 20
-0.037936
 30
23.47
 11
12.748958
 21
-0.067318
 31
23.47
  0
LINE
  5
31A04
330
31AAF
100
AcDbEntity
  8
ALLENTILE
 62
     1
100
AcDbLine
 10
12.748958
 20
-0.067318
 30
23.47
 11
12.894792
 21
-0.104937
 31
23.47
  0
LINE
  5
31A05
330
31AAF
100
AcDbEntity
  8
ALLENTILE
 62
     1
100
AcDbLine
 10
12.894792
 20
-0.104937
 30
23.47
 11
13.038287
 21
-0.150673
 31
23.47
  0
LINE
  5
31A06
330
31AAF
100
AcDbEntity
  8
ALLENTILE
 62
     1
100
AcDbLine
 10
13.038287
 20
-0.150673
 30
23.47
 11
13.178992
 21
-0.204383
 31
23.47
  0
LINE
  5
31A07
330
31AAF
100
AcDbEntity
  8
ALLENTILE
 62
     1
100
AcDbLine
 10
13.178992
 20
-0.204383
 30
23.47
 11
13.316465
 21
-0.265897
 31
23.47
  0
LINE
  5
31A08
330
31AAF
100
AcDbEntity
  8
ALLENTILE
 62
     1
100
AcDbLine
 10
13.316465
 20
-0.265897
 30
23.47
 11
13.450271
 21
-0.335024
 31
23.47
  0
LINE
  5
31A09
330
31AAF
100
AcDbEntity
  8
ALLENTILE
 62
     1
100
AcDbLine
 10
13.450271
 20
-0.335024
 30
23.47
 11
13.579992
 21
-0.411544
 31
23.47
  0
LINE
  5
31A0A
330
31AAF
100
AcDbEntity
  8
ALLENTILE
 62
     1
100
AcDbLine
 10
13.579992
 20
-0.411544
 30
23.47
 11
13.705218
 21
-0.495217
 31
23.47
  0
LINE
  5
31A0B
330
31AAF
100
AcDbEntity
  8
ALLENTILE
 62
     1
100
AcDbLine
 10
13.705218
 20
-0.495217
 30
23.47
 11
13.825555
 21
-0.58578
 31
23.47
  0
LINE
  5
31A0C
330
31AAF
100
AcDbEntity
  8
ALLENTILE
 62
     1
100
AcDbLine
 10
13.825555
 20
-0.58578
 30
23.47
 11
13.940625
 21
-0.682948
 31
23.47
  0
LINE
  5
31A0D
330
31AAF
100
AcDbEntity
  8
ALLENTILE
 62
     1
100
AcDbLine
 10
13.940625
 20
-0.682948
 30
23.47
 11
14.050065
 21
-0.786415
 31
23.47
  0
LINE
  5
31A0E
330
31AAF
100
AcDbEntity
  8
ALLENTILE
 62
     1
100
AcDbLine
 10
14.050065
 20
-0.786415
 30
23.47
 11
14.153532
 21
-0.895856
 31
23.47
  0
LINE
  5
31A0F
330
31AAF
100
AcDbEntity
  8
ALLENTILE
 62
     1
100
AcDbLine
 10
14.153532
 20
-0.895856
 30
23.47
 11
14.2507
 21
-1.010926
 31
23.47
  0
LINE
  5
31A10
330
31AAF
100
AcDbEntity
  8
ALLENTILE
 62
     1
100
AcDbLine
 10
14.2507
 20
-1.010926
 30
23.47
 11
14.341263
 21
-1.131263
 31
23.47
  0
LINE
  5
31A11
330
31AAF
100
AcDbEntity
  8
ALLENTILE
 62
     1
100
AcDbLine
 10
14.341263
 20
-1.131263
 30
23.47
 11
14.424937
 21
-1.256489
 31
23.47
  0
LINE
  5
31A12
330
31AAF
100
AcDbEntity
  8
ALLENTILE
 62
     1
100
AcDbLine
 10
14.424937
 20
-1.256489
 30
23.47
 11
14.501457
 21
-1.386209
 31
23.47
  0
LINE
  5
31A13
330
31AAF
100
AcDbEntity
  8
ALLENTILE
 62
     1
100
AcDbLine
 10
14.501457
 20
-1.386209
 30
23.47
 11
14.570583
 21
-1.520016
 31
23.47
  0
LINE
  5
31A14
330
31AAF
100
AcDbEntity
  8
ALLENTILE
 62
     1
100
AcDbLine
 10
14.570583
 20
-1.520016
 30
23.47
 11
14.632098
 21
-1.657488
 31
23.47
  0
LINE
  5
31A15
330
31AAF
100
AcDbEntity
  8
ALLENTILE
 62
     1
100
AcDbLine
 10
14.632098
 20
-1.657488
 30
23.47
 11
14.685808
 21
-1.798193
 31
23.47
  0
LINE
  5
31A16
330
31AAF
100
AcDbEntity
  8
ALLENTILE
 62
     1
100
AcDbLine
 10
14.685808
 20
-1.798193
 30
23.47
 11
14.731544
 21
-1.941688
 31
23.47
  0
LINE
  5
31A17
330
31AAF
100
AcDbEntity
  8
ALLENTILE
 62
     1
100
AcDbLine
 10
14.731544
 20
-1.941688
 30
23.47
 11
14.769162
 21
-2.087522
 31
23.47
  0
LINE
  5
31A18
330
31AAF
100
AcDbEntity
  8
ALLENTILE
 62
     1
100
AcDbLine
 10
14.769162
 20
-2.087522
 30
23.47
 11
14.798544
 21
-2.235236
 31
23.47
  0
LINE
  5
31A19
330
31AAF
100
AcDbEntity
  8
ALLENTILE
 62
     1
100
AcDbLine
 10
14.798544
 20
-2.235236
 30
23.47
 11
14.819598
 21
-2.384365
 31
23.47
  0
LINE
  5
31A1A
330
31AAF
100
AcDbEntity
  8
ALLENTILE
 62
     1
100
AcDbLine
 10
14.819598
 20
-2.384365
 30
23.47
 11
14.832256
 21
-2.53444
 31
23.47
  0
LINE
  5
31A1B
330
31AAF
100
AcDbEntity
  8
ALLENTILE
 62
     1
100
AcDbLine
 10
14.832256
 20
-2.53444
 30
23.47
 11
14.83648
 21
-2.684989
 31
23.47
  0
LINE
  5
31A1C
330
31AAF
100
AcDbEntity
  8
ALLENTILE
 62
     1
100
AcDbLine
 10
14.83648
 20
-2.684989
 30
23.47
 11
14.83648
 21
-18.794921
 31
23.47
  0
LINE
  5
31A1D
330
31AAF
100
AcDbEntity
  8
ALLENTILE
 62
     1
100
AcDbLine
 10
14.83648
 20
-18.794921
 30
23.47
 11
14.832256
 21
-18.945469
 31
23.47
  0
LINE
  5
31A1E
330
31AAF
100
AcDbEntity
  8
ALLENTILE
 62
     1
100
AcDbLine
 10
14.832256
 20
-18.945469
 30
23.47
 11
14.819598
 21
-19.095544
 31
23.47
  0
LINE
  5
31A1F
330
31AAF
100
AcDbEntity
  8
ALLENTILE
 62
     1
100
AcDbLine
 10
14.819598
 20
-19.095544
 30
23.47
 11
14.798544
 21
-19.244673
 31
23.47
  0
LINE
  5
31A20
330
31AAF
100
AcDbEntity
  8
ALLENTILE
 62
     1
100
AcDbLine
 10
14.798544
 20
-19.244673
 30
23.47
 11
14.769162
 21
-19.392387
 31
23.47
  0
LINE
  5
31A21
330
31AAF
100
AcDbEntity
  8
ALLENTILE
 62
     1
100
AcDbLine
 10
14.769162
 20
-19.392387
 30
23.47
 11
14.731544
 21
-19.538221
 31
23.47
  0
LINE
  5
31A22
330
31AAF
100
AcDbEntity
  8
ALLENTILE
 62
     1
100
AcDbLine
 10
14.731544
 20
-19.538221
 30
23.47
 11
14.685808
 21
-19.681716
 31
23.47
  0
LINE
  5
31A23
330
31AAF
100
AcDbEntity
  8
ALLENTILE
 62
     1
100
AcDbLine
 10
14.685808
 20
-19.681716
 30
23.47
 11
14.632098
 21
-19.822422
 31
23.47
  0
LINE
  5
31A24
330
31AAF
100
AcDbEntity
  8
ALLENTILE
 62
     1
100
AcDbLine
 10
14.632098
 20
-19.822422
 30
23.47
 11
14.570583
 21
-19.959894
 31
23.47
  0
LINE
  5
31A25
330
31AAF
100
AcDbEntity
  8
ALLENTILE
 62
     1
100
AcDbLine
 10
14.570583
 20
-19.959894
 30
23.47
 11
14.501457
 21
-20.093701
 31
23.47
  0
LINE
  5
31A26
330
31AAF
100
AcDbEntity
  8
ALLENTILE
 62
     1
100
AcDbLine
 10
14.501457
 20
-20.093701
 30
23.47
 11
14.424937
 21
-20.223421
 31
23.47
  0
LINE
  5
31A27
330
31AAF
100
AcDbEntity
  8
ALLENTILE
 62
     1
100
AcDbLine
 10
14.424937
 20
-20.223421
 30
23.47
 11
14.341263
 21
-20.348647
 31
23.47
  0
LINE
  5
31A28
330
31AAF
100
AcDbEntity
  8
ALLENTILE
 62
     1
100
AcDbLine
 10
14.341263
 20
-20.348647
 30
23.47
 11
14.2507
 21
-20.468984
 31
23.47
  0
LINE
  5
31A29
330
31AAF
100
AcDbEntity
  8
ALLENTILE
 62
     1
100
AcDbLine
 10
14.2507
 20
-20.468984
 30
23.47
 11
14.153532
 21
-20.584054
 31
23.47
  0
LINE
  5
31A2A
330
31AAF
100
AcDbEntity
  8
ALLENTILE
 62
     1
100
AcDbLine
 10
14.153532
 20
-20.584054
 30
23.47
 11
14.050065
 21
-20.693495
 31
23.47
  0
LINE
  5
31A2B
330
31AAF
100
AcDbEntity
  8
ALLENTILE
 62
     1
100
AcDbLine
 10
14.050065
 20
-20.693495
 30
23.47
 11
13.940625
 21
-20.796962
 31
23.47
  0
LINE
  5
31A2C
330
31AAF
100
AcDbEntity
  8
ALLENTILE
 62
     1
100
AcDbLine
 10
13.940625
 20
-20.796962
 30
23.47
 11
13.825555
 21
-20.89413
 31
23.47
  0
LINE
  5
31A2D
330
31AAF
100
AcDbEntity
  8
ALLENTILE
 62
     1
100
AcDbLine
 10
13.825555
 20
-20.89413
 30
23.47
 11
13.705218
 21
-20.984693
 31
23.47
  0
LINE
  5
31A2E
330
31AAF
100
AcDbEntity
  8
ALLENTILE
 62
     1
100
AcDbLine
 10
13.705218
 20
-20.984693
 30
23.47
 11
13.579992
 21
-21.068366
 31
23.47
  0
LINE
  5
31A2F
330
31AAF
100
AcDbEntity
  8
ALLENTILE
 62
     1
100
AcDbLine
 10
13.579992
 20
-21.068366
 30
23.47
 11
13.450271
 21
-21.144886
 31
23.47
  0
LINE
  5
31A30
330
31AAF
100
AcDbEntity
  8
ALLENTILE
 62
     1
100
AcDbLine
 10
13.450271
 20
-21.144886
 30
23.47
 11
13.316465
 21
-21.214012
 31
23.47
  0
LINE
  5
31A31
330
31AAF
100
AcDbEntity
  8
ALLENTILE
 62
     1
100
AcDbLine
 10
13.316465
 20
-21.214012
 30
23.47
 11
13.178992
 21
-21.275527
 31
23.47
  0
LINE
  5
31A32
330
31AAF
100
AcDbEntity
  8
ALLENTILE
 62
     1
100
AcDbLine
 10
13.178992
 20
-21.275527
 30
23.47
 11
13.038287
 21
-21.329237
 31
23.47
  0
LINE
  5
31A33
330
31AAF
100
AcDbEntity
  8
ALLENTILE
 62
     1
100
AcDbLine
 10
13.038287
 20
-21.329237
 30
23.47
 11
12.894792
 21
-21.374973
 31
23.47
  0
LINE
  5
31A34
330
31AAF
100
AcDbEntity
  8
ALLENTILE
 62
     1
100
AcDbLine
 10
12.894792
 20
-21.374973
 30
23.47
 11
12.748958
 21
-21.412591
 31
23.47
  0
LINE
  5
31A35
330
31AAF
100
AcDbEntity
  8
ALLENTILE
 62
     1
100
AcDbLine
 10
12.748958
 20
-21.412591
 30
23.47
 11
12.601244
 21
-21.441973
 31
23.47
  0
LINE
  5
31A36
330
31AAF
100
AcDbEntity
  8
ALLENTILE
 62
     1
100
AcDbLine
 10
12.601244
 20
-21.441973
 30
23.47
 11
12.452115
 21
-21.463027
 31
23.47
  0
LINE
  5
31A37
330
31AAF
100
AcDbEntity
  8
ALLENTILE
 62
     1
100
AcDbLine
 10
12.452115
 20
-21.463027
 30
23.47
 11
12.30204
 21
-21.475686
 31
23.47
  0
LINE
  5
31A38
330
31AAF
100
AcDbEntity
  8
ALLENTILE
 62
     1
100
AcDbLine
 10
12.30204
 20
-21.475686
 30
23.47
 11
12.151492
 21
-21.47991
 31
23.47
  0
LINE
  5
31A39
330
31AAF
100
AcDbEntity
  8
ALLENTILE
 62
     1
100
AcDbLine
 10
12.151492
 20
-21.47991
 30
23.47
 11
2.684989
 21
-21.47991
 31
23.47
  0
LINE
  5
31A3A
330
31AAF
100
AcDbEntity
  8
ALLENTILE
 62
     1
100
AcDbLine
 10
2.684989
 20
-21.47991
 30
23.47
 11
2.53444
 21
-21.475686
 31
23.47
  0
LINE
  5
31A3B
330
31AAF
100
AcDbEntity
  8
ALLENTILE
 62
     1
100
AcDbLine
 10
2.53444
 20
-21.475686
 30
23.47
 11
2.384365
 21
-21.463027
 31
23.47
  0
LINE
  5
31A3C
330
31AAF
100
AcDbEntity
  8
ALLENTILE
 62
     1
100
AcDbLine
 10
2.384365
 20
-21.463027
 30
23.47
 11
2.235236
 21
-21.441973
 31
23.47
  0
LINE
  5
31A3D
330
31AAF
100
AcDbEntity
  8
ALLENTILE
 62
     1
100
AcDbLine
 10
2.235236
 20
-21.441973
 30
23.47
 11
2.087522
 21
-21.412591
 31
23.47
  0
LINE
  5
31A3E
330
31AAF
100
AcDbEntity
  8
ALLENTILE
 62
     1
100
AcDbLine
 10
2.087522
 20
-21.412591
 30
23.47
 11
1.941688
 21
-21.374973
 31
23.47
  0
LINE
  5
31A3F
330
31AAF
100
AcDbEntity
  8
ALLENTILE
 62
     1
100
AcDbLine
 10
1.941688
 20
-21.374973
 30
23.47
 11
1.798193
 21
-21.329237
 31
23.47
  0
LINE
  5
31A40
330
31AAF
100
AcDbEntity
  8
ALLENTILE
 62
     1
100
AcDbLine
 10
1.798193
 20
-21.329237
 30
23.47
 11
1.657488
 21
-21.275527
 31
23.47
  0
LINE
  5
31A41
330
31AAF
100
AcDbEntity
  8
ALLENTILE
 62
     1
100
AcDbLine
 10
1.657488
 20
-21.275527
 30
23.47
 11
1.520016
 21
-21.214012
 31
23.47
  0
LINE
  5
31A42
330
31AAF
100
AcDbEntity
  8
ALLENTILE
 62
     1
100
AcDbLine
 10
1.520016
 20
-21.214012
 30
23.47
 11
1.386209
 21
-21.144886
 31
23.47
  0
LINE
  5
31A43
330
31AAF
100
AcDbEntity
  8
ALLENTILE
 62
     1
100
AcDbLine
 10
1.386209
 20
-21.144886
 30
23.47
 11
1.256489
 21
-21.068366
 31
23.47
  0
LINE
  5
31A44
330
31AAF
100
AcDbEntity
  8
ALLENTILE
 62
     1
100
AcDbLine
 10
1.256489
 20
-21.068366
 30
23.47
 11
1.131263
 21
-20.984693
 31
23.47
  0
LINE
  5
31A45
330
31AAF
100
AcDbEntity
  8
ALLENTILE
 62
     1
100
AcDbLine
 10
1.131263
 20
-20.984693
 30
23.47
 11
1.010926
 21
-20.89413
 31
23.47
  0
LINE
  5
31A46
330
31AAF
100
AcDbEntity
  8
ALLENTILE
 62
     1
100
AcDbLine
 10
1.010926
 20
-20.89413
 30
23.47
 11
0.895856
 21
-20.796962
 31
23.47
  0
LINE
  5
31A47
330
31AAF
100
AcDbEntity
  8
ALLENTILE
 62
     1
100
AcDbLine
 10
0.895856
 20
-20.796962
 30
23.47
 11
0.786415
 21
-20.693495
 31
23.47
  0
LINE
  5
31A48
330
31AAF
100
AcDbEntity
  8
ALLENTILE
 62
     1
100
AcDbLine
 10
0.786415
 20
-20.693495
 30
23.47
 11
0.682948
 21
-20.584054
 31
23.47
  0
LINE
  5
31A49
330
31AAF
100
AcDbEntity
  8
ALLENTILE
 62
     1
100
AcDbLine
 10
0.682948
 20
-20.584054
 30
23.47
 11
0.58578
 21
-20.468984
 31
23.47
  0
LINE
  5
31A4A
330
31AAF
100
AcDbEntity
  8
ALLENTILE
 62
     1
100
AcDbLine
 10
0.58578
 20
-20.468984
 30
23.47
 11
0.495217
 21
-20.348647
 31
23.47
  0
LINE
  5
31A4B
330
31AAF
100
AcDbEntity
  8
ALLENTILE
 62
     1
100
AcDbLine
 10
0.495217
 20
-20.348647
 30
23.47
 11
0.411544
 21
-20.223421
 31
23.47
  0
LINE
  5
31A4C
330
31AAF
100
AcDbEntity
  8
ALLENTILE
 62
     1
100
AcDbLine
 10
0.411544
 20
-20.223421
 30
23.47
 11
0.335024
 21
-20.093701
 31
23.47
  0
LINE
  5
31A4D
330
31AAF
100
AcDbEntity
  8
ALLENTILE
 62
     1
100
AcDbLine
 10
0.335024
 20
-20.093701
 30
23.47
 11
0.265897
 21
-19.959894
 31
23.47
  0
LINE
  5
31A4E
330
31AAF
100
AcDbEntity
  8
ALLENTILE
 62
     1
100
AcDbLine
 10
0.265897
 20
-19.959894
 30
23.47
 11
0.204383
 21
-19.822422
 31
23.47
  0
LINE
  5
31A4F
330
31AAF
100
AcDbEntity
  8
ALLENTILE
 62
     1
100
AcDbLine
 10
0.204383
 20
-19.822422
 30
23.47
 11
0.150673
 21
-19.681716
 31
23.47
  0
LINE
  5
31A50
330
31AAF
100
AcDbEntity
  8
ALLENTILE
 62
     1
100
AcDbLine
 10
0.150673
 20
-19.681716
 30
23.47
 11
0.104937
 21
-19.538221
 31
23.47
  0
LINE
  5
31A51
330
31AAF
100
AcDbEntity
  8
ALLENTILE
 62
     1
100
AcDbLine
 10
0.104937
 20
-19.538221
 30
23.47
 11
0.067318
 21
-19.392387
 31
23.47
  0
LINE
  5
31A52
330
31AAF
100
AcDbEntity
  8
ALLENTILE
 62
     1
100
AcDbLine
 10
0.067318
 20
-19.392387
 30
23.47
 11
0.037936
 21
-19.244673
 31
23.47
  0
LINE
  5
31A53
330
31AAF
100
AcDbEntity
  8
ALLENTILE
 62
     1
100
AcDbLine
 10
0.037936
 20
-19.244673
 30
23.47
 11
0.016883
 21
-19.095544
 31
23.47
  0
LINE
  5
31A54
330
31AAF
100
AcDbEntity
  8
ALLENTILE
 62
     1
100
AcDbLine
 10
0.016883
 20
-19.095544
 30
23.47
 11
0.004224
 21
-18.945469
 31
23.47
  0
LINE
  5
31A55
330
31AAF
100
AcDbEntity
  8
ALLENTILE
 62
     1
100
AcDbLine
 10
0.004224
 20
-18.945469
 30
23.47
 11
0.0
 21
-18.794921
 31
23.47
  0
LINE
  5
31A56
330
31AAF
100
AcDbEntity
  8
ALLENTILE
 62
     1
100
AcDbLine
 10
0.0
 20
-2.684989
 30
23.47
 11
0.0
 21
-18.794921
 31
23.47
  0
LINE
  5
31A57
330
31AAF
100
AcDbEntity
  8
ALLENTILE
 62
     1
100
AcDbLine
 10
0.0
 20
-2.684989
 30
23.47
 11
0.004224
 21
-2.53444
 31
23.47
  0
LINE
  5
31A58
330
31AAF
100
AcDbEntity
  8
ALLENTILE
 62
     1
100
AcDbLine
 10
0.004224
 20
-2.53444
 30
23.47
 11
0.016883
 21
-2.384365
 31
23.47
  0
LINE
  5
31A59
330
31AAF
100
AcDbEntity
  8
ALLENTILE
 62
     1
100
AcDbLine
 10
0.016883
 20
-2.384365
 30
23.47
 11
0.037936
 21
-2.235236
 31
23.47
  0
LINE
  5
31A5A
330
31AAF
100
AcDbEntity
  8
ALLENTILE
 62
     1
100
AcDbLine
 10
0.037936
 20
-2.235236
 30
23.47
 11
0.067318
 21
-2.087522
 31
23.47
  0
LINE
  5
31A5B
330
31AAF
100
AcDbEntity
  8
ALLENTILE
 62
     1
100
AcDbLine
 10
0.067318
 20
-2.087522
 30
23.47
 11
0.104937
 21
-1.941688
 31
23.47
  0
LINE
  5
31A5C
330
31AAF
100
AcDbEntity
  8
ALLENTILE
 62
     1
100
AcDbLine
 10
0.104937
 20
-1.941688
 30
23.47
 11
0.150673
 21
-1.798193
 31
23.47
  0
LINE
  5
31A5D
330
31AAF
100
AcDbEntity
  8
ALLENTILE
 62
     1
100
AcDbLine
 10
0.150673
 20
-1.798193
 30
23.47
 11
0.204383
 21
-1.657488
 31
23.47
  0
LINE
  5
31A5E
330
31AAF
100
AcDbEntity
  8
ALLENTILE
 62
     1
100
AcDbLine
 10
0.204383
 20
-1.657488
 30
23.47
 11
0.265897
 21
-1.520016
 31
23.47
  0
LINE
  5
31A5F
330
31AAF
100
AcDbEntity
  8
ALLENTILE
 62
     1
100
AcDbLine
 10
0.265897
 20
-1.520016
 30
23.47
 11
0.335024
 21
-1.386209
 31
23.47
  0
LINE
  5
31A60
330
31AAF
100
AcDbEntity
  8
ALLENTILE
 62
     1
100
AcDbLine
 10
0.335024
 20
-1.386209
 30
23.47
 11
0.411544
 21
-1.256489
 31
23.47
  0
LINE
  5
31A61
330
31AAF
100
AcDbEntity
  8
ALLENTILE
 62
     1
100
AcDbLine
 10
0.411544
 20
-1.256489
 30
23.47
 11
0.495217
 21
-1.131263
 31
23.47
  0
LINE
  5
31A62
330
31AAF
100
AcDbEntity
  8
ALLENTILE
 62
     1
100
AcDbLine
 10
0.495217
 20
-1.131263
 30
23.47
 11
0.58578
 21
-1.010926
 31
23.47
  0
LINE
  5
31A63
330
31AAF
100
AcDbEntity
  8
ALLENTILE
 62
     1
100
AcDbLine
 10
0.58578
 20
-1.010926
 30
23.47
 11
0.682948
 21
-0.895856
 31
23.47
  0
LINE
  5
31A64
330
31AAF
100
AcDbEntity
  8
ALLENTILE
 62
     1
100
AcDbLine
 10
0.682948
 20
-0.895856
 30
23.47
 11
0.786415
 21
-0.786415
 31
23.47
  0
LINE
  5
31A65
330
31AAF
100
AcDbEntity
  8
ALLENTILE
 62
     1
100
AcDbLine
 10
0.786415
 20
-0.786415
 30
23.47
 11
0.895856
 21
-0.682948
 31
23.47
  0
LINE
  5
31A66
330
31AAF
100
AcDbEntity
  8
ALLENTILE
 62
     1
100
AcDbLine
 10
0.895856
 20
-0.682948
 30
23.47
 11
1.010926
 21
-0.58578
 31
23.47
  0
LINE
  5
31A67
330
31AAF
100
AcDbEntity
  8
ALLENTILE
 62
     1
100
AcDbLine
 10
1.010926
 20
-0.58578
 30
23.47
 11
1.131263
 21
-0.495217
 31
23.47
  0
LINE
  5
31A68
330
31AAF
100
AcDbEntity
  8
ALLENTILE
 62
     1
100
AcDbLine
 10
1.131263
 20
-0.495217
 30
23.47
 11
1.256489
 21
-0.411544
 31
23.47
  0
LINE
  5
31A69
330
31AAF
100
AcDbEntity
  8
ALLENTILE
 62
     1
100
AcDbLine
 10
1.256489
 20
-0.411544
 30
23.47
 11
1.386209
 21
-0.335024
 31
23.47
  0
LINE
  5
31A6A
330
31AAF
100
AcDbEntity
  8
ALLENTILE
 62
     1
100
AcDbLine
 10
1.386209
 20
-0.335024
 30
23.47
 11
1.520016
 21
-0.265897
 31
23.47
  0
LINE
  5
31A6B
330
31AAF
100
AcDbEntity
  8
ALLENTILE
 62
     1
100
AcDbLine
 10
1.520016
 20
-0.265897
 30
23.47
 11
1.657488
 21
-0.204383
 31
23.47
  0
LINE
  5
31A6C
330
31AAF
100
AcDbEntity
  8
ALLENTILE
 62
     1
100
AcDbLine
 10
1.657488
 20
-0.204383
 30
23.47
 11
1.798193
 21
-0.150673
 31
23.47
  0
LINE
  5
31A6D
330
31AAF
100
AcDbEntity
  8
ALLENTILE
 62
     1
100
AcDbLine
 10
1.798193
 20
-0.150673
 30
23.47
 11
1.941688
 21
-0.104937
 31
23.47
  0
LINE
  5
31A6E
330
31AAF
100
AcDbEntity
  8
ALLENTILE
 62
     1
100
AcDbLine
 10
1.941688
 20
-0.104937
 30
23.47
 11
2.087522
 21
-0.067318
 31
23.47
  0
LINE
  5
31A6F
330
31AAF
100
AcDbEntity
  8
ALLENTILE
 62
     1
100
AcDbLine
 10
2.087522
 20
-0.067318
 30
23.47
 11
2.235236
 21
-0.037936
 31
23.47
  0
LINE
  5
31A70
330
31AAF
100
AcDbEntity
  8
ALLENTILE
 62
     1
100
AcDbLine
 10
2.235236
 20
-0.037936
 30
23.47
 11
2.384365
 21
-0.016883
 31
23.47
  0
LINE
  5
31A71
330
31AAF
100
AcDbEntity
  8
ALLENTILE
 62
     1
100
AcDbLine
 10
2.384365
 20
-0.016883
 30
23.47
 11
2.53444
 21
-0.004224
 31
23.47
  0
LINE
  5
31A72
330
31AAF
100
AcDbEntity
  8
ALLENTILE
 62
     1
100
AcDbLine
 10
2.53444
 20
-0.004224
 30
23.47
 11
2.684989
 21
0.0
 31
23.47
  0
LINE
  5
31A73
330
31AAF
100
AcDbEntity
  8
ALLENTILE
 62
     1
100
AcDbLine
 10
12.151492
 20
0.0
 30
23.47
 11
2.684989
 21
0.0
 31
23.47
  0
ENDBLK
  5
31AB1
330
31AAF
100
AcDbEntity
  8
0
100
AcDbBlockEnd
  0
BLOCK
  5
31AB3
330
31AB2
100
AcDbEntity
  8
0
100
AcDbBlockBegin
  2
TILE_2
 70
     0
 71
     0
 10
0.0
 20
0.0
 30
0.0
  3
TILE_2
  1

  0
LINE
  5
31A75
330
31AB2
100
AcDbEntity
  8
ALLENTILE
 62
     1
100
AcDbLine
 10
15.347907
 20
0.0
 30
23.47
 11
15.347907
 21
-30.071873
 31
23.47
  0
ENDBLK
  5
31AB4
330
31AB2
100
AcDbEntity
  8
0
100
AcDbBlockEnd
  0
BLOCK
  5
31AB6
330
31AB5
100
AcDbEntity
  8
0
100
AcDbBlockBegin
  2
TILE_BOUNDARY
 70
     0
 71
     0
 10
0.0
 20
0.0
 30
0.0
  3
TILE_BOUNDARY
  1

  0
LINE
  5
31959
330
31AB5
100
AcDbEntity
  8
ALLENBOUNDARY
 62
     4
100
AcDbLine
 10
0.0
 20
0.0
 30
0.0
 11
15.347907
 21
0.0
 31
23.47
  0
LINE
  5
3195A
330
31AB5
100
AcDbEntity
  8
ALLENBOUNDARY
 62
     4
100
AcDbLine
 10
0.0
 20
-30.071873
 30
0.0
 11
15.347907
 21
-30.071873
 31
23.47
  0
ENDBLK
  5
31AB7
330
31AB5
100
AcDbEntity
  8
0
100
AcDbBlockEnd
  0
ENDSEC
  0
SECTION
  2
ENTITIES
  0
LINE
  5
19CFE
330
31A96
100
AcDbEntity
  8
TITLE_BLOCK
  6
CONTINUOUS
 62
     7
100
AcDbLine
 10
-27.5
 20
17.0
 30
0.0
 11
-27.5
 21
-25.5
 31
0.0
  0
LINE
  5
19CFF
330
31A96
100
AcDbEntity
  8
TITLE_BLOCK
  6
CONTINUOUS
 62
     7
100
AcDbLine
 10
-27.5
 20
-25.5
 30
0.0
 11
27.5
 21
-25.5
 31
0.0
  0
LINE
  5
19D00
330
31A96
100
AcDbEntity
  8
TITLE_BLOCK
  6
CONTINUOUS
 62
     7
100
AcDbLine
 10
27.5
 20
-25.5
 30
0.0
 11
27.5
 21
17.0
 31
0.0
  0
LINE
  5
19D01
330
31A96
100
AcDbEntity
  8
TITLE_BLOCK
  6
CONTINUOUS
 62
     7
100
AcDbLine
 10
27.5
 20
17.0
 30
0.0
 11
-27.5
 21
17.0
 31
0.0
  0
LINE
  5
19D02
330
31A96
100
AcDbEntity
  8
TITLE_BLOCK
  6
CONTINUOUS
 62
     7
100
AcDbLine
 10
-27.5
 20
-17.0
 30
0.0
 11
27.5
 21
-17.0
 31
0.0
  0
LINE
  5
19D03
330
31A96
100
AcDbEntity
  8
TITLE_BLOCK
  6
CONTINUOUS
 62
     7
100
AcDbLine
 10
-27.0
 20
16.5
 30
0.0
 11
-27.0
 21
-16.5
 31
0.0
  0
LINE
  5
19D04
330
31A96
100
AcDbEntity
  8
TITLE_BLOCK
  6
CONTINUOUS
 62
     7
100
AcDbLine
 10
27.0
 20
16.5
 30
0.0
 11
-27.0
 21
16.5
 31
0.0
  0
LINE
  5
19D05
330
31A96
100
AcDbEntity
  8
TITLE_BLOCK
  6
CONTINUOUS
 62
     7
100
AcDbLine
 10
-27.0
 20
-16.5
 30
0.0
 11
27.0
 21
-16.5
 31
0.0
  0
LINE
  5
19D06
330
31A96
100
AcDbEntity
  8
TITLE_BLOCK
  6
CONTINUOUS
 62
     7
100
AcDbLine
 10
-27.0
 20
-17.5
 30
0.0
 11
-9.62
 21
-17.5
 31
0.0
  0
LINE
  5
19D07
330
31A96
100
AcDbEntity
  8
TITLE_BLOCK
  6
CONTINUOUS
 62
     7
100
AcDbLine
 10
-27.0
 20
-25.0
 30
0.0
 11
-9.62
 21
-25.0
 31
0.0
  0
LINE
  5
19D08
330
31A96
100
AcDbEntity
  8
TITLE_BLOCK
  6
CONTINUOUS
 62
     7
100
AcDbLine
 10
27.0
 20
-16.5
 30
0.0
 11
27.0
 21
16.5
 31
0.0
  0
LINE
  5
19D09
330
31A96
100
AcDbEntity
  8
TITLE_BLOCK
  6
CONTINUOUS
 62
     7
100
AcDbLine
 10
-27.0
 20
-17.5
 30
0.0
 11
-27.0
 21
-25.0
 31
0.0
  0
LINE
  5
19D0A
330
31A96
100
AcDbEntity
  8
TITLE_BLOCK
  6
CONTINUOUS
 62
     7
100
AcDbLine
 10
27.0
 20
-25.0
 30
0.0
 11
27.0
 21
-17.5
 31
0.0
  0
POLYLINE
  5
19D0B
330
31A96
100
AcDbEntity
  8
TITLE_BLOCK
  6
CONTINUOUS
 62
     7
100
AcDb2dPolyline
 66
     1
 10
0.0
 20
0.0
 30
0.0
 70
     5
 75
     5
  0
VERTEX
  5
31ACE
330
19D0B
100
AcDbEntity
  8
TITLE_BLOCK
  6
CONTINUOUS
 62
     7
100
AcDbVertex
100
AcDb2dVertex
 10
-22.714945
 20
-19.623364
 30
0.0
 70
     8
  0
VERTEX
  5
31ACF
330
19D0B
100
AcDbEntity
  8
TITLE_BLOCK
  6
CONTINUOUS
 62
     7
100
AcDbVertex
100
AcDb2dVertex
 10
-22.12179
 20
-19.286717
 30
0.0
 70
     8
  0
VERTEX
  5
31AD0
330
19D0B
100
AcDbEntity
  8
TITLE_BLOCK
  6
CONTINUOUS
 62
     7
100
AcDbVertex
100
AcDb2dVertex
 10
-21.502943
 20
-19.000248
 30
0.0
 70
     8
  0
VERTEX
  5
31AD1
330
19D0B
100
AcDbEntity
  8
TITLE_BLOCK
  6
CONTINUOUS
 62
     7
100
AcDbVertex
100
AcDb2dVertex
 10
-20.862787
 20
-18.765127
 30
0.0
 70
     8
  0
VERTEX
  5
31AD2
330
19D0B
100
AcDbEntity
  8
TITLE_BLOCK
  6
CONTINUOUS
 62
     7
100
AcDbVertex
100
AcDb2dVertex
 10
-20.205704
 20
-18.582519
 30
0.0
 70
     8
  0
VERTEX
  5
31AD3
330
19D0B
100
AcDbEntity
  8
TITLE_BLOCK
  6
CONTINUOUS
 62
     7
100
AcDbVertex
100
AcDb2dVertex
 10
-19.536078
 20
-18.453592
 30
0.0
 70
     8
  0
VERTEX
  5
31AD4
330
19D0B
100
AcDbEntity
  8
TITLE_BLOCK
  6
CONTINUOUS
 62
     7
100
AcDbVertex
100
AcDb2dVertex
 10
-18.858291
 20
-18.379514
 30
0.0
 70
     8
  0
VERTEX
  5
31AD5
330
19D0B
100
AcDbEntity
  8
TITLE_BLOCK
  6
CONTINUOUS
 62
     7
100
AcDbVertex
100
AcDb2dVertex
 10
-18.176725
 20
-18.361451
 30
0.0
 70
     8
  0
VERTEX
  5
31AD6
330
19D0B
100
AcDbEntity
  8
TITLE_BLOCK
  6
CONTINUOUS
 62
     7
100
AcDbVertex
100
AcDb2dVertex
 10
-17.495765
 20
-18.400571
 30
0.0
 70
     8
  0
VERTEX
  5
31AD7
330
19D0B
100
AcDbEntity
  8
TITLE_BLOCK
  6
CONTINUOUS
 62
     7
100
AcDbVertex
100
AcDb2dVertex
 10
-16.724623
 20
-18.508402
 30
0.0
 70
     8
  0
VERTEX
  5
31AD8
330
19D0B
100
AcDbEntity
  8
TITLE_BLOCK
  6
CONTINUOUS
 62
     7
100
AcDbVertex
100
AcDb2dVertex
 10
-15.968325
 20
-18.68976
 30
0.0
 70
     8
  0
VERTEX
  5
31AD9
330
19D0B
100
AcDbEntity
  8
TITLE_BLOCK
  6
CONTINUOUS
 62
     7
100
AcDbVertex
100
AcDb2dVertex
 10
-15.232405
 20
-18.941149
 30
0.0
 70
     8
  0
VERTEX
  5
31ADA
330
19D0B
100
AcDbEntity
  8
TITLE_BLOCK
  6
CONTINUOUS
 62
     7
100
AcDbVertex
100
AcDb2dVertex
 10
-14.522396
 20
-19.259072
 30
0.0
 70
     8
  0
VERTEX
  5
31ADB
330
19D0B
100
AcDbEntity
  8
TITLE_BLOCK
  6
CONTINUOUS
 62
     7
100
AcDbVertex
100
AcDb2dVertex
 10
-13.843834
 20
-19.640032
 30
0.0
 70
     8
  0
VERTEX
  5
31ADC
330
19D0B
100
AcDbEntity
  8
TITLE_BLOCK
  6
CONTINUOUS
 62
     7
100
AcDbVertex
100
AcDb2dVertex
 10
-13.202253
 20
-20.080534
 30
0.0
 70
     8
  0
VERTEX
  5
31ADD
330
19D0B
100
AcDbEntity
  8
TITLE_BLOCK
  6
CONTINUOUS
 62
     7
100
AcDbVertex
100
AcDb2dVertex
 10
-12.603188
 20
-20.577081
 30
0.0
 70
     8
  0
VERTEX
  5
31ADE
330
19D0B
100
AcDbEntity
  8
TITLE_BLOCK
  6
CONTINUOUS
 62
     7
100
AcDbVertex
100
AcDb2dVertex
 10
-12.052172
 20
-21.126176
 30
0.0
 70
     8
  0
VERTEX
  5
31ADF
330
19D0B
100
AcDbEntity
  8
TITLE_BLOCK
  6
CONTINUOUS
 62
     7
100
AcDbVertex
100
AcDb2dVertex
 10
-11.525129
 20
-21.755985
 30
0.0
 70
     8
  0
VERTEX
  5
31AE0
330
19D0B
100
AcDbEntity
  8
TITLE_BLOCK
  6
CONTINUOUS
 62
     7
100
AcDbVertex
100
AcDb2dVertex
 10
-11.060013
 20
-22.432932
 30
0.0
 70
     8
  0
VERTEX
  5
31AE1
330
19D0B
100
AcDbEntity
  8
TITLE_BLOCK
  6
CONTINUOUS
 62
     7
100
AcDbVertex
100
AcDb2dVertex
 10
-10.661269
 20
-23.150904
 30
0.0
 70
     8
  0
VERTEX
  5
31AE2
330
19D0B
100
AcDbEntity
  8
TITLE_BLOCK
  6
CONTINUOUS
 62
     7
100
AcDbVertex
100
AcDb2dVertex
 10
-10.333343
 20
-23.903793
 30
0.0
 70
     8
  0
VERTEX
  5
31AE3
330
19D0B
100
AcDbEntity
  8
TITLE_BLOCK
  6
CONTINUOUS
 62
     7
100
AcDbVertex
100
AcDb2dVertex
 10
-10.360531
 20
-23.906957
 30
0.0
 70
     8
  0
VERTEX
  5
31AE4
330
19D0B
100
AcDbEntity
  8
TITLE_BLOCK
  6
CONTINUOUS
 62
     7
100
AcDbVertex
100
AcDb2dVertex
 10
-10.756699
 20
-23.069782
 30
0.0
 70
     8
  0
VERTEX
  5
31AE5
330
19D0B
100
AcDbEntity
  8
TITLE_BLOCK
  6
CONTINUOUS
 62
     7
100
AcDbVertex
100
AcDb2dVertex
 10
-11.235404
 20
-22.276818
 30
0.0
 70
     8
  0
VERTEX
  5
31AE6
330
19D0B
100
AcDbEntity
  8
TITLE_BLOCK
  6
CONTINUOUS
 62
     7
100
AcDbVertex
100
AcDb2dVertex
 10
-11.795774
 20
-21.540027
 30
0.0
 70
     8
  0
VERTEX
  5
31AE7
330
19D0B
100
AcDbEntity
  8
TITLE_BLOCK
  6
CONTINUOUS
 62
     7
100
AcDbVertex
100
AcDb2dVertex
 10
-12.436937
 20
-20.871372
 30
0.0
 70
     8
  0
VERTEX
  5
31AE8
330
19D0B
100
AcDbEntity
  8
TITLE_BLOCK
  6
CONTINUOUS
 62
     7
100
AcDbVertex
100
AcDb2dVertex
 10
-13.035497
 20
-20.352562
 30
0.0
 70
     8
  0
VERTEX
  5
31AE9
330
19D0B
100
AcDbEntity
  8
TITLE_BLOCK
  6
CONTINUOUS
 62
     7
100
AcDbVertex
100
AcDb2dVertex
 10
-13.68061
 20
-19.893471
 30
0.0
 70
     8
  0
VERTEX
  5
31AEA
330
19D0B
100
AcDbEntity
  8
TITLE_BLOCK
  6
CONTINUOUS
 62
     7
100
AcDbVertex
100
AcDb2dVertex
 10
-14.365921
 20
-19.496705
 30
0.0
 70
     8
  0
VERTEX
  5
31AEB
330
19D0B
100
AcDbEntity
  8
TITLE_BLOCK
  6
CONTINUOUS
 62
     7
100
AcDbVertex
100
AcDb2dVertex
 10
-15.085072
 20
-19.16487
 30
0.0
 70
     8
  0
VERTEX
  5
31AEC
330
19D0B
100
AcDbEntity
  8
TITLE_BLOCK
  6
CONTINUOUS
 62
     7
100
AcDbVertex
100
AcDb2dVertex
 10
-15.831707
 20
-18.900573
 30
0.0
 70
     8
  0
VERTEX
  5
31AED
330
19D0B
100
AcDbEntity
  8
TITLE_BLOCK
  6
CONTINUOUS
 62
     7
100
AcDbVertex
100
AcDb2dVertex
 10
-16.59947
 20
-18.706419
 30
0.0
 70
     8
  0
VERTEX
  5
31AEE
330
19D0B
100
AcDbEntity
  8
TITLE_BLOCK
  6
CONTINUOUS
 62
     7
100
AcDbVertex
100
AcDb2dVertex
 10
-17.382004
 20
-18.585016
 30
0.0
 70
     8
  0
VERTEX
  5
31AEF
330
19D0B
100
AcDbEntity
  8
TITLE_BLOCK
  6
CONTINUOUS
 62
     7
100
AcDbVertex
100
AcDb2dVertex
 10
-18.172953
 20
-18.538969
 30
0.0
 70
     8
  0
VERTEX
  5
31AF0
330
19D0B
100
AcDbEntity
  8
TITLE_BLOCK
  6
CONTINUOUS
 62
     7
100
AcDbVertex
100
AcDb2dVertex
 10
-19.010169
 20
-18.567702
 30
0.0
 70
     8
  0
VERTEX
  5
31AF1
330
19D0B
100
AcDbEntity
  8
TITLE_BLOCK
  6
CONTINUOUS
 62
     7
100
AcDbVertex
100
AcDb2dVertex
 10
-19.840558
 20
-18.67852
 30
0.0
 70
     8
  0
VERTEX
  5
31AF2
330
19D0B
100
AcDbEntity
  8
TITLE_BLOCK
  6
CONTINUOUS
 62
     7
100
AcDbVertex
100
AcDb2dVertex
 10
-20.655943
 20
-18.870564
 30
0.0
 70
     8
  0
VERTEX
  5
31AF3
330
19D0B
100
AcDbEntity
  8
TITLE_BLOCK
  6
CONTINUOUS
 62
     7
100
AcDbVertex
100
AcDb2dVertex
 10
-21.448148
 20
-19.142973
 30
0.0
 70
     8
  0
VERTEX
  5
31AF4
330
19D0B
100
AcDbEntity
  8
TITLE_BLOCK
  6
CONTINUOUS
 62
     7
100
AcDbVertex
100
AcDb2dVertex
 10
-22.132945
 20
-19.450879
 30
0.0
 70
     8
  0
VERTEX
  5
31AF5
330
19D0B
100
AcDbEntity
  8
TITLE_BLOCK
  6
CONTINUOUS
 62
     7
100
AcDbVertex
100
AcDb2dVertex
 10
-22.787328
 20
-19.818583
 30
0.0
 70
     8
  0
VERTEX
  5
31AF6
330
19D0B
100
AcDbEntity
  8
TITLE_BLOCK
  6
CONTINUOUS
 62
     7
100
AcDbVertex
100
AcDb2dVertex
 10
-23.406947
 20
-20.24232
 30
0.0
 70
     8
  0
VERTEX
  5
31AF7
330
19D0B
100
AcDbEntity
  8
TITLE_BLOCK
  6
CONTINUOUS
 62
     7
100
AcDbVertex
100
AcDb2dVertex
 10
-23.987452
 20
-20.718327
 30
0.0
 70
     8
  0
VERTEX
  5
31AF8
330
19D0B
100
AcDbEntity
  8
TITLE_BLOCK
  6
CONTINUOUS
 62
     7
100
AcDbVertex
100
AcDb2dVertex
 10
-24.524495
 20
-21.242839
 30
0.0
 70
     8
  0
VERTEX
  5
31AF9
330
19D0B
100
AcDbEntity
  8
TITLE_BLOCK
  6
CONTINUOUS
 62
     7
100
AcDbVertex
100
AcDb2dVertex
 10
-25.013725
 20
-21.812093
 30
0.0
 70
     8
  0
VERTEX
  5
31AFA
330
19D0B
100
AcDbEntity
  8
TITLE_BLOCK
  6
CONTINUOUS
 62
     7
100
AcDbVertex
100
AcDb2dVertex
 10
-25.450794
 20
-22.422325
 30
0.0
 70
     8
  0
VERTEX
  5
31AFB
330
19D0B
100
AcDbEntity
  8
TITLE_BLOCK
  6
CONTINUOUS
 62
     7
100
AcDbVertex
100
AcDb2dVertex
 10
-25.831351
 20
-23.06977
 30
0.0
 70
     8
  0
VERTEX
  5
31AFC
330
19D0B
100
AcDbEntity
  8
TITLE_BLOCK
  6
CONTINUOUS
 62
     7
100
AcDbVertex
100
AcDb2dVertex
 10
-26.218558
 20
-23.893364
 30
0.0
 70
     8
  0
VERTEX
  5
31AFD
330
19D0B
100
AcDbEntity
  8
TITLE_BLOCK
  6
CONTINUOUS
 62
     7
100
AcDbVertex
100
AcDb2dVertex
 10
-26.2043
 20
-23.767163
 30
0.0
 70
     8
  0
VERTEX
  5
31AFE
330
19D0B
100
AcDbEntity
  8
TITLE_BLOCK
  6
CONTINUOUS
 62
     7
100
AcDbVertex
100
AcDb2dVertex
 10
-26.154945
 20
-23.648168
 30
0.0
 70
     8
  0
VERTEX
  5
31AFF
330
19D0B
100
AcDbEntity
  8
TITLE_BLOCK
  6
CONTINUOUS
 62
     7
100
AcDbVertex
100
AcDb2dVertex
 10
-25.870867
 20
-23.038607
 30
0.0
 70
     8
  0
VERTEX
  5
31B00
330
19D0B
100
AcDbEntity
  8
TITLE_BLOCK
  6
CONTINUOUS
 62
     7
100
AcDbVertex
100
AcDb2dVertex
 10
-25.540164
 20
-22.453137
 30
0.0
 70
     8
  0
VERTEX
  5
31B01
330
19D0B
100
AcDbEntity
  8
TITLE_BLOCK
  6
CONTINUOUS
 62
     7
100
AcDbVertex
100
AcDb2dVertex
 10
-25.165304
 20
-21.89492
 30
0.0
 70
     8
  0
VERTEX
  5
31B02
330
19D0B
100
AcDbEntity
  8
TITLE_BLOCK
  6
CONTINUOUS
 62
     7
100
AcDbVertex
100
AcDb2dVertex
 10
-24.748751
 20
-21.367121
 30
0.0
 70
     8
  0
VERTEX
  5
31B03
330
19D0B
100
AcDbEntity
  8
TITLE_BLOCK
  6
CONTINUOUS
 62
     7
100
AcDbVertex
100
AcDb2dVertex
 10
-24.292973
 20
-20.872902
 30
0.0
 70
     8
  0
VERTEX
  5
31B04
330
19D0B
100
AcDbEntity
  8
TITLE_BLOCK
  6
CONTINUOUS
 62
     7
100
AcDbVertex
100
AcDb2dVertex
 10
-23.800435
 20
-20.415428
 30
0.0
 70
     8
  0
VERTEX
  5
31B05
330
19D0B
100
AcDbEntity
  8
TITLE_BLOCK
  6
CONTINUOUS
 62
     7
100
AcDbVertex
100
AcDb2dVertex
 10
-23.273603
 20
-19.99786
 30
0.0
 70
     8
  0
VERTEX
  5
31B06
330
19D0B
100
AcDbEntity
  8
TITLE_BLOCK
  6
CONTINUOUS
 62
     7
100
AcDbVertex
100
AcDb2dVertex
 10
-22.714945
 20
-19.623364
 30
0.0
 70
     8
  0
VERTEX
  5
31B07
330
19D0B
100
AcDbEntity
  8
TITLE_BLOCK
  6
CONTINUOUS
 62
     7
100
AcDbVertex
100
AcDb2dVertex
 10
-22.714945
 20
-19.623364
 30
0.0
 70
     8
  0
VERTEX
  5
31B08
330
19D0B
100
AcDbEntity
  8
TITLE_BLOCK
  6
CONTINUOUS
 62
     7
100
AcDbVertex
100
AcDb2dVertex
 10
-22.714945
 20
-19.623364
 30
0.0
 70
    16
  0
VERTEX
  5
31B09
330
19D0B
100
AcDbEntity
  8
TITLE_BLOCK
  6
CONTINUOUS
 62
     7
100
AcDbVertex
100
AcDb2dVertex
 10
-21.171351
 20
-18.65977
 30
0.0
 70
    16
  0
VERTEX
  5
31B0A
330
19D0B
100
AcDbEntity
  8
TITLE_BLOCK
  6
CONTINUOUS
 62
     7
100
AcDbVertex
100
AcDb2dVertex
 10
-19.306957
 20
-18.218969
 30
0.0
 70
    16
  0
VERTEX
  5
31B0B
330
19D0B
100
AcDbEntity
  8
TITLE_BLOCK
  6
CONTINUOUS
 62
     7
100
AcDbVertex
100
AcDb2dVertex
 10
-17.495765
 20
-18.400571
 30
0.0
 70
    16
  0
VERTEX
  5
31B0C
330
19D0B
100
AcDbEntity
  8
TITLE_BLOCK
  6
CONTINUOUS
 62
     7
100
AcDbVertex
100
AcDb2dVertex
 10
-15.424515
 20
-18.586977
 30
0.0
 70
    16
  0
VERTEX
  5
31B0D
330
19D0B
100
AcDbEntity
  8
TITLE_BLOCK
  6
CONTINUOUS
 62
     7
100
AcDbVertex
100
AcDb2dVertex
 10
-13.452562
 20
-19.594965
 30
0.0
 70
    16
  0
VERTEX
  5
31B0E
330
19D0B
100
AcDbEntity
  8
TITLE_BLOCK
  6
CONTINUOUS
 62
     7
100
AcDbVertex
100
AcDb2dVertex
 10
-12.052172
 20
-21.126176
 30
0.0
 70
    16
  0
VERTEX
  5
31B0F
330
19D0B
100
AcDbEntity
  8
TITLE_BLOCK
  6
CONTINUOUS
 62
     7
100
AcDbVertex
100
AcDb2dVertex
 10
-11.31014
 20
-21.931782
 30
0.0
 70
    16
  0
VERTEX
  5
31B10
330
19D0B
100
AcDbEntity
  8
TITLE_BLOCK
  6
CONTINUOUS
 62
     7
100
AcDbVertex
100
AcDb2dVertex
 10
-10.72139
 20
-22.879379
 30
0.0
 70
    16
  0
VERTEX
  5
31B11
330
19D0B
100
AcDbEntity
  8
TITLE_BLOCK
  6
CONTINUOUS
 62
     7
100
AcDbVertex
100
AcDb2dVertex
 10
-10.333343
 20
-23.903793
 30
0.0
 70
    16
  0
VERTEX
  5
31B12
330
19D0B
100
AcDbEntity
  8
TITLE_BLOCK
  6
CONTINUOUS
 62
     7
100
AcDbVertex
100
AcDb2dVertex
 10
-10.34014
 20
-23.904575
 30
0.0
 70
    16
  0
VERTEX
  5
31B13
330
19D0B
100
AcDbEntity
  8
TITLE_BLOCK
  6
CONTINUOUS
 62
     7
100
AcDbVertex
100
AcDb2dVertex
 10
-10.353734
 20
-23.906176
 30
0.0
 70
    16
  0
VERTEX
  5
31B14
330
19D0B
100
AcDbEntity
  8
TITLE_BLOCK
  6
CONTINUOUS
 62
     7
100
AcDbVertex
100
AcDb2dVertex
 10
-10.360531
 20
-23.906957
 30
0.0
 70
    16
  0
VERTEX
  5
31B15
330
19D0B
100
AcDbEntity
  8
TITLE_BLOCK
  6
CONTINUOUS
 62
     7
100
AcDbVertex
100
AcDb2dVertex
 10
-10.833343
 20
-22.766567
 30
0.0
 70
    16
  0
VERTEX
  5
31B16
330
19D0B
100
AcDbEntity
  8
TITLE_BLOCK
  6
CONTINUOUS
 62
     7
100
AcDbVertex
100
AcDb2dVertex
 10
-11.528578
 20
-21.712172
 30
0.0
 70
    16
  0
VERTEX
  5
31B17
330
19D0B
100
AcDbEntity
  8
TITLE_BLOCK
  6
CONTINUOUS
 62
     7
100
AcDbVertex
100
AcDb2dVertex
 10
-12.436937
 20
-20.871372
 30
0.0
 70
    16
  0
VERTEX
  5
31B18
330
19D0B
100
AcDbEntity
  8
TITLE_BLOCK
  6
CONTINUOUS
 62
     7
100
AcDbVertex
100
AcDb2dVertex
 10
-13.965375
 20
-19.410571
 30
0.0
 70
    16
  0
VERTEX
  5
31B19
330
19D0B
100
AcDbEntity
  8
TITLE_BLOCK
  6
CONTINUOUS
 62
     7
100
AcDbVertex
100
AcDb2dVertex
 10
-16.058187
 20
-18.558969
 30
0.0
 70
    16
  0
VERTEX
  5
31B1A
330
19D0B
100
AcDbEntity
  8
TITLE_BLOCK
  6
CONTINUOUS
 62
     7
100
AcDbVertex
100
AcDb2dVertex
 10
-18.172953
 20
-18.538969
 30
0.0
 70
    16
  0
VERTEX
  5
31B1B
330
19D0B
100
AcDbEntity
  8
TITLE_BLOCK
  6
CONTINUOUS
 62
     7
100
AcDbVertex
100
AcDb2dVertex
 10
-19.29016
 20
-18.522172
 30
0.0
 70
    16
  0
VERTEX
  5
31B1C
330
19D0B
100
AcDbEntity
  8
TITLE_BLOCK
  6
CONTINUOUS
 62
     7
100
AcDbVertex
100
AcDb2dVertex
 10
-20.410961
 20
-18.726567
 30
0.0
 70
    16
  0
VERTEX
  5
31B1D
330
19D0B
100
AcDbEntity
  8
TITLE_BLOCK
  6
CONTINUOUS
 62
     7
100
AcDbVertex
100
AcDb2dVertex
 10
-21.448148
 20
-19.142973
 30
0.0
 70
    16
  0
VERTEX
  5
31B1E
330
19D0B
100
AcDbEntity
  8
TITLE_BLOCK
  6
CONTINUOUS
 62
     7
100
AcDbVertex
100
AcDb2dVertex
 10
-23.310961
 20
-19.880981
 30
0.0
 70
    16
  0
VERTEX
  5
31B1F
330
19D0B
100
AcDbEntity
  8
TITLE_BLOCK
  6
CONTINUOUS
 62
     7
100
AcDbVertex
100
AcDb2dVertex
 10
-24.895746
 20
-21.296977
 30
0.0
 70
    16
  0
VERTEX
  5
31B20
330
19D0B
100
AcDbEntity
  8
TITLE_BLOCK
  6
CONTINUOUS
 62
     7
100
AcDbVertex
100
AcDb2dVertex
 10
-25.831351
 20
-23.06977
 30
0.0
 70
    16
  0
VERTEX
  5
31B21
330
19D0B
100
AcDbEntity
  8
TITLE_BLOCK
  6
CONTINUOUS
 62
     7
100
AcDbVertex
100
AcDb2dVertex
 10
-25.978949
 20
-23.335356
 30
0.0
 70
    16
  0
VERTEX
  5
31B22
330
19D0B
100
AcDbEntity
  8
TITLE_BLOCK
  6
CONTINUOUS
 62
     7
100
AcDbVertex
100
AcDb2dVertex
 10
-26.091761
 20
-23.617778
 30
0.0
 70
    16
  0
VERTEX
  5
31B23
330
19D0B
100
AcDbEntity
  8
TITLE_BLOCK
  6
CONTINUOUS
 62
     7
100
AcDbVertex
100
AcDb2dVertex
 10
-26.218558
 20
-23.893364
 30
0.0
 70
    16
  0
VERTEX
  5
31B24
330
19D0B
100
AcDbEntity
  8
TITLE_BLOCK
  6
CONTINUOUS
 62
     7
100
AcDbVertex
100
AcDb2dVertex
 10
-26.236547
 20
-23.805356
 30
0.0
 70
    16
  0
VERTEX
  5
31B25
330
19D0B
100
AcDbEntity
  8
TITLE_BLOCK
  6
CONTINUOUS
 62
     7
100
AcDbVertex
100
AcDb2dVertex
 10
-26.183754
 20
-23.726567
 30
0.0
 70
    16
  0
VERTEX
  5
31B26
330
19D0B
100
AcDbEntity
  8
TITLE_BLOCK
  6
CONTINUOUS
 62
     7
100
AcDbVertex
100
AcDb2dVertex
 10
-26.154945
 20
-23.648168
 30
0.0
 70
    16
  0
VERTEX
  5
31B27
330
19D0B
100
AcDbEntity
  8
TITLE_BLOCK
  6
CONTINUOUS
 62
     7
100
AcDbVertex
100
AcDb2dVertex
 10
-25.461761
 20
-21.993364
 30
0.0
 70
    16
  0
VERTEX
  5
31B28
330
19D0B
100
AcDbEntity
  8
TITLE_BLOCK
  6
CONTINUOUS
 62
     7
100
AcDbVertex
100
AcDb2dVertex
 10
-24.244945
 20
-20.561782
 30
0.0
 70
    16
  0
VERTEX
  5
31B29
330
19D0B
100
AcDbEntity
  8
TITLE_BLOCK
  6
CONTINUOUS
 62
     7
100
AcDbVertex
100
AcDb2dVertex
 10
-22.714945
 20
-19.623364
 30
0.0
 70
    16
  0
VERTEX
  5
31B2A
330
19D0B
100
AcDbEntity
  8
TITLE_BLOCK
  6
CONTINUOUS
 62
     7
100
AcDbVertex
100
AcDb2dVertex
 10
-22.714945
 20
-19.623364
 30
0.0
 70
    16
  0
VERTEX
  5
31B2B
330
19D0B
100
AcDbEntity
  8
TITLE_BLOCK
  6
CONTINUOUS
 62
     7
100
AcDbVertex
100
AcDb2dVertex
 10
-22.714945
 20
-19.623364
 30
0.0
 70
    16
  0
VERTEX
  5
31B2C
330
19D0B
100
AcDbEntity
  8
TITLE_BLOCK
  6
CONTINUOUS
 62
     7
100
AcDbVertex
100
AcDb2dVertex
 10
-22.714945
 20
-19.623364
 30
0.0
 70
    16
  0
SEQEND
  5
31B2D
330
19D0B
100
AcDbEntity
  8
TITLE_BLOCK
  6
CONTINUOUS
 62
     7
  0
POLYLINE
  5
19D6B
330
31A96
100
AcDbEntity
  8
TITLE_BLOCK
  6
CONTINUOUS
 62
     7
100
AcDb2dPolyline
 66
     1
 10
0.0
 20
0.0
 30
0.0
 70
     5
 75
     5
  0
VERTEX
  5
31B2E
330
19D6B
100
AcDbEntity
  8
TITLE_BLOCK
  6
CONTINUOUS
 62
     7
100
AcDbVertex
100
AcDb2dVertex
 10
-19.223617
 20
-19.314575
 30
0.0
 70
     8
  0
VERTEX
  5
31B2F
330
19D6B
100
AcDbEntity
  8
TITLE_BLOCK
  6
CONTINUOUS
 62
     7
100
AcDbVertex
100
AcDb2dVertex
 10
-18.929533
 20
-19.115321
 30
0.0
 70
     8
  0
VERTEX
  5
31B30
330
19D6B
100
AcDbEntity
  8
TITLE_BLOCK
  6
CONTINUOUS
 62
     7
100
AcDbVertex
100
AcDb2dVertex
 10
-18.776685
 20
-19.023096
 30
0.0
 70
     8
  0
VERTEX
  5
31B31
330
19D6B
100
AcDbEntity
  8
TITLE_BLOCK
  6
CONTINUOUS
 62
     7
100
AcDbVertex
100
AcDb2dVertex
 10
-18.619662
 20
-18.938825
 30
0.0
 70
     8
  0
VERTEX
  5
31B32
330
19D6B
100
AcDbEntity
  8
TITLE_BLOCK
  6
CONTINUOUS
 62
     7
100
AcDbVertex
100
AcDb2dVertex
 10
-18.458233
 20
-18.864772
 30
0.0
 70
     8
  0
VERTEX
  5
31B33
330
19D6B
100
AcDbEntity
  8
TITLE_BLOCK
  6
CONTINUOUS
 62
     7
100
AcDbVertex
100
AcDb2dVertex
 10
-18.292168
 20
-18.803202
 30
0.0
 70
     8
  0
VERTEX
  5
31B34
330
19D6B
100
AcDbEntity
  8
TITLE_BLOCK
  6
CONTINUOUS
 62
     7
100
AcDbVertex
100
AcDb2dVertex
 10
-18.12124
 20
-18.756379
 30
0.0
 70
     8
  0
VERTEX
  5
31B35
330
19D6B
100
AcDbEntity
  8
TITLE_BLOCK
  6
CONTINUOUS
 62
     7
100
AcDbVertex
100
AcDb2dVertex
 10
-17.945218
 20
-18.726567
 30
0.0
 70
     8
  0
VERTEX
  5
31B36
330
19D6B
100
AcDbEntity
  8
TITLE_BLOCK
  6
CONTINUOUS
 62
     7
100
AcDbVertex
100
AcDb2dVertex
 10
-17.66328
 20
-18.703474
 30
0.0
 70
     8
  0
VERTEX
  5
31B37
330
19D6B
100
AcDbEntity
  8
TITLE_BLOCK
  6
CONTINUOUS
 62
     7
100
AcDbVertex
100
AcDb2dVertex
 10
-17.522173
 20
-18.70497
 30
0.0
 70
     8
  0
VERTEX
  5
31B38
330
19D6B
100
AcDbEntity
  8
TITLE_BLOCK
  6
CONTINUOUS
 62
     7
100
AcDbVertex
100
AcDb2dVertex
 10
-17.382836
 20
-18.726567
 30
0.0
 70
     8
  0
VERTEX
  5
31B39
330
19D6B
100
AcDbEntity
  8
TITLE_BLOCK
  6
CONTINUOUS
 62
     7
100
AcDbVertex
100
AcDb2dVertex
 10
-17.327466
 20
-18.753977
 30
0.0
 70
     8
  0
VERTEX
  5
31B3A
330
19D6B
100
AcDbEntity
  8
TITLE_BLOCK
  6
CONTINUOUS
 62
     7
100
AcDbVertex
100
AcDb2dVertex
 10
-17.279115
 20
-18.791033
 30
0.0
 70
     8
  0
VERTEX
  5
31B3B
330
19D6B
100
AcDbEntity
  8
TITLE_BLOCK
  6
CONTINUOUS
 62
     7
100
AcDbVertex
100
AcDb2dVertex
 10
-17.238461
 20
-18.836131
 30
0.0
 70
     8
  0
VERTEX
  5
31B3C
330
19D6B
100
AcDbEntity
  8
TITLE_BLOCK
  6
CONTINUOUS
 62
     7
100
AcDbVertex
100
AcDb2dVertex
 10
-17.206185
 20
-18.88767
 30
0.0
 70
     8
  0
VERTEX
  5
31B3D
330
19D6B
100
AcDbEntity
  8
TITLE_BLOCK
  6
CONTINUOUS
 62
     7
100
AcDbVertex
100
AcDb2dVertex
 10
-17.182965
 20
-18.944047
 30
0.0
 70
     8
  0
VERTEX
  5
31B3E
330
19D6B
100
AcDbEntity
  8
TITLE_BLOCK
  6
CONTINUOUS
 62
     7
100
AcDbVertex
100
AcDb2dVertex
 10
-17.169481
 20
-19.003659
 30
0.0
 70
     8
  0
VERTEX
  5
31B3F
330
19D6B
100
AcDbEntity
  8
TITLE_BLOCK
  6
CONTINUOUS
 62
     7
100
AcDbVertex
100
AcDb2dVertex
 10
-17.166412
 20
-19.064903
 30
0.0
 70
     8
  0
VERTEX
  5
31B40
330
19D6B
100
AcDbEntity
  8
TITLE_BLOCK
  6
CONTINUOUS
 62
     7
100
AcDbVertex
100
AcDb2dVertex
 10
-17.174437
 20
-19.126176
 30
0.0
 70
     8
  0
VERTEX
  5
31B41
330
19D6B
100
AcDbEntity
  8
TITLE_BLOCK
  6
CONTINUOUS
 62
     7
100
AcDbVertex
100
AcDb2dVertex
 10
-17.206035
 20
-19.231586
 30
0.0
 70
     8
  0
VERTEX
  5
31B42
330
19D6B
100
AcDbEntity
  8
TITLE_BLOCK
  6
CONTINUOUS
 62
     7
100
AcDbVertex
100
AcDb2dVertex
 10
-17.25237
 20
-19.329566
 30
0.0
 70
     8
  0
VERTEX
  5
31B43
330
19D6B
100
AcDbEntity
  8
TITLE_BLOCK
  6
CONTINUOUS
 62
     7
100
AcDbVertex
100
AcDb2dVertex
 10
-17.311375
 20
-19.420339
 30
0.0
 70
     8
  0
VERTEX
  5
31B44
330
19D6B
100
AcDbEntity
  8
TITLE_BLOCK
  6
CONTINUOUS
 62
     7
100
AcDbVertex
100
AcDb2dVertex
 10
-17.38098
 20
-19.504123
 30
0.0
 70
     8
  0
VERTEX
  5
31B45
330
19D6B
100
AcDbEntity
  8
TITLE_BLOCK
  6
CONTINUOUS
 62
     7
100
AcDbVertex
100
AcDb2dVertex
 10
-17.459118
 20
-19.581139
 30
0.0
 70
     8
  0
VERTEX
  5
31B46
330
19D6B
100
AcDbEntity
  8
TITLE_BLOCK
  6
CONTINUOUS
 62
     7
100
AcDbVertex
100
AcDb2dVertex
 10
-17.543721
 20
-19.651606
 30
0.0
 70
     8
  0
VERTEX
  5
31B47
330
19D6B
100
AcDbEntity
  8
TITLE_BLOCK
  6
CONTINUOUS
 62
     7
100
AcDbVertex
100
AcDb2dVertex
 10
-17.724047
 20
-19.773774
 30
0.0
 70
     8
  0
VERTEX
  5
31B48
330
19D6B
100
AcDbEntity
  8
TITLE_BLOCK
  6
CONTINUOUS
 62
     7
100
AcDbVertex
100
AcDb2dVertex
 10
-17.910427
 20
-19.878335
 30
0.0
 70
     8
  0
VERTEX
  5
31B49
330
19D6B
100
AcDbEntity
  8
TITLE_BLOCK
  6
CONTINUOUS
 62
     7
100
AcDbVertex
100
AcDb2dVertex
 10
-18.102341
 20
-19.970876
 30
0.0
 70
     8
  0
VERTEX
  5
31B4A
330
19D6B
100
AcDbEntity
  8
TITLE_BLOCK
  6
CONTINUOUS
 62
     7
100
AcDbVertex
100
AcDb2dVertex
 10
-18.29884
 20
-20.053141
 30
0.0
 70
     8
  0
VERTEX
  5
31B4B
330
19D6B
100
AcDbEntity
  8
TITLE_BLOCK
  6
CONTINUOUS
 62
     7
100
AcDbVertex
100
AcDb2dVertex
 10
-18.498971
 20
-20.126874
 30
0.0
 70
     8
  0
VERTEX
  5
31B4C
330
19D6B
100
AcDbEntity
  8
TITLE_BLOCK
  6
CONTINUOUS
 62
     7
100
AcDbVertex
100
AcDb2dVertex
 10
-18.906326
 20
-20.255722
 30
0.0
 70
     8
  0
VERTEX
  5
31B4D
330
19D6B
100
AcDbEntity
  8
TITLE_BLOCK
  6
CONTINUOUS
 62
     7
100
AcDbVertex
100
AcDb2dVertex
 10
-19.3168
 20
-20.371372
 30
0.0
 70
     8
  0
VERTEX
  5
31B4E
330
19D6B
100
AcDbEntity
  8
TITLE_BLOCK
  6
CONTINUOUS
 62
     7
100
AcDbVertex
100
AcDb2dVertex
 10
-19.408935
 20
-20.540126
 30
0.0
 70
     8
  0
VERTEX
  5
31B4F
330
19D6B
100
AcDbEntity
  8
TITLE_BLOCK
  6
CONTINUOUS
 62
     7
100
AcDbVertex
100
AcDb2dVertex
 10
-19.490414
 20
-20.714575
 30
0.0
 70
     8
  0
VERTEX
  5
31B50
330
19D6B
100
AcDbEntity
  8
TITLE_BLOCK
  6
CONTINUOUS
 62
     7
100
AcDbVertex
100
AcDb2dVertex
 10
-19.557786
 20
-20.894722
 30
0.0
 70
     8
  0
VERTEX
  5
31B51
330
19D6B
100
AcDbEntity
  8
TITLE_BLOCK
  6
CONTINUOUS
 62
     7
100
AcDbVertex
100
AcDb2dVertex
 10
-19.607601
 20
-21.080571
 30
0.0
 70
     8
  0
VERTEX
  5
31B52
330
19D6B
100
AcDbEntity
  8
TITLE_BLOCK
  6
CONTINUOUS
 62
     7
100
AcDbVertex
100
AcDb2dVertex
 10
-19.608533
 20
-21.15793
 30
0.0
 70
     8
  0
VERTEX
  5
31B53
330
19D6B
100
AcDbEntity
  8
TITLE_BLOCK
  6
CONTINUOUS
 62
     7
100
AcDbVertex
100
AcDb2dVertex
 10
-19.595103
 20
-21.237506
 30
0.0
 70
     8
  0
VERTEX
  5
31B54
330
19D6B
100
AcDbEntity
  8
TITLE_BLOCK
  6
CONTINUOUS
 62
     7
100
AcDbVertex
100
AcDb2dVertex
 10
-19.568172
 20
-21.315101
 30
0.0
 70
     8
  0
VERTEX
  5
31B55
330
19D6B
100
AcDbEntity
  8
TITLE_BLOCK
  6
CONTINUOUS
 62
     7
100
AcDbVertex
100
AcDb2dVertex
 10
-19.528605
 20
-21.386523
 30
0.0
 70
     8
  0
VERTEX
  5
31B56
330
19D6B
100
AcDbEntity
  8
TITLE_BLOCK
  6
CONTINUOUS
 62
     7
100
AcDbVertex
100
AcDb2dVertex
 10
-19.477262
 20
-21.447575
 30
0.0
 70
     8
  0
VERTEX
  5
31B57
330
19D6B
100
AcDbEntity
  8
TITLE_BLOCK
  6
CONTINUOUS
 62
     7
100
AcDbVertex
100
AcDb2dVertex
 10
-19.415008
 20
-21.494063
 30
0.0
 70
     8
  0
VERTEX
  5
31B58
330
19D6B
100
AcDbEntity
  8
TITLE_BLOCK
  6
CONTINUOUS
 62
     7
100
AcDbVertex
100
AcDb2dVertex
 10
-19.342705
 20
-21.521792
 30
0.0
 70
     8
  0
VERTEX
  5
31B59
330
19D6B
100
AcDbEntity
  8
TITLE_BLOCK
  6
CONTINUOUS
 62
     7
100
AcDbVertex
100
AcDb2dVertex
 10
-19.261214
 20
-21.526567
 30
0.0
 70
     8
  0
VERTEX
  5
31B5A
330
19D6B
100
AcDbEntity
  8
TITLE_BLOCK
  6
CONTINUOUS
 62
     7
100
AcDbVertex
100
AcDb2dVertex
 10
-19.140443
 20
-21.52087
 30
0.0
 70
     8
  0
VERTEX
  5
31B5B
330
19D6B
100
AcDbEntity
  8
TITLE_BLOCK
  6
CONTINUOUS
 62
     7
100
AcDbVertex
100
AcDb2dVertex
 10
-19.022154
 20
-21.502041
 30
0.0
 70
     8
  0
VERTEX
  5
31B5C
330
19D6B
100
AcDbEntity
  8
TITLE_BLOCK
  6
CONTINUOUS
 62
     7
100
AcDbVertex
100
AcDb2dVertex
 10
-18.906547
 20
-21.471539
 30
0.0
 70
     8
  0
VERTEX
  5
31B5D
330
19D6B
100
AcDbEntity
  8
TITLE_BLOCK
  6
CONTINUOUS
 62
     7
100
AcDbVertex
100
AcDb2dVertex
 10
-18.793817
 20
-21.430822
 30
0.0
 70
     8
  0
VERTEX
  5
31B5E
330
19D6B
100
AcDbEntity
  8
TITLE_BLOCK
  6
CONTINUOUS
 62
     7
100
AcDbVertex
100
AcDb2dVertex
 10
-18.684161
 20
-21.381348
 30
0.0
 70
     8
  0
VERTEX
  5
31B5F
330
19D6B
100
AcDbEntity
  8
TITLE_BLOCK
  6
CONTINUOUS
 62
     7
100
AcDbVertex
100
AcDb2dVertex
 10
-18.577777
 20
-21.324575
 30
0.0
 70
     8
  0
VERTEX
  5
31B60
330
19D6B
100
AcDbEntity
  8
TITLE_BLOCK
  6
CONTINUOUS
 62
     7
100
AcDbVertex
100
AcDb2dVertex
 10
-18.375609
 20
-21.194965
 30
0.0
 70
     8
  0
VERTEX
  5
31B61
330
19D6B
100
AcDbEntity
  8
TITLE_BLOCK
  6
CONTINUOUS
 62
     7
100
AcDbVertex
100
AcDb2dVertex
 10
-18.143262
 20
-21.021166
 30
0.0
 70
     8
  0
VERTEX
  5
31B62
330
19D6B
100
AcDbEntity
  8
TITLE_BLOCK
  6
CONTINUOUS
 62
     7
100
AcDbVertex
100
AcDb2dVertex
 10
-17.921909
 20
-20.834892
 30
0.0
 70
     8
  0
VERTEX
  5
31B63
330
19D6B
100
AcDbEntity
  8
TITLE_BLOCK
  6
CONTINUOUS
 62
     7
100
AcDbVertex
100
AcDb2dVertex
 10
-17.709611
 20
-20.638446
 30
0.0
 70
     8
  0
VERTEX
  5
31B64
330
19D6B
100
AcDbEntity
  8
TITLE_BLOCK
  6
CONTINUOUS
 62
     7
100
AcDbVertex
100
AcDb2dVertex
 10
-17.504427
 20
-20.434128
 30
0.0
 70
     8
  0
VERTEX
  5
31B65
330
19D6B
100
AcDbEntity
  8
TITLE_BLOCK
  6
CONTINUOUS
 62
     7
100
AcDbVertex
100
AcDb2dVertex
 10
-17.107644
 20
-20.011087
 30
0.0
 70
     8
  0
VERTEX
  5
31B66
330
19D6B
100
AcDbEntity
  8
TITLE_BLOCK
  6
CONTINUOUS
 62
     7
100
AcDbVertex
100
AcDb2dVertex
 10
-16.716039
 20
-19.584184
 30
0.0
 70
     8
  0
VERTEX
  5
31B67
330
19D6B
100
AcDbEntity
  8
TITLE_BLOCK
  6
CONTINUOUS
 62
     7
100
AcDbVertex
100
AcDb2dVertex
 10
-16.558968
 20
-19.408181
 30
0.0
 70
     8
  0
VERTEX
  5
31B68
330
19D6B
100
AcDbEntity
  8
TITLE_BLOCK
  6
CONTINUOUS
 62
     7
100
AcDbVertex
100
AcDb2dVertex
 10
-16.473417
 20
-19.328238
 30
0.0
 70
     8
  0
VERTEX
  5
31B69
330
19D6B
100
AcDbEntity
  8
TITLE_BLOCK
  6
CONTINUOUS
 62
     7
100
AcDbVertex
100
AcDb2dVertex
 10
-16.42549
 20
-19.29504
 30
0.0
 70
     8
  0
VERTEX
  5
31B6A
330
19D6B
100
AcDbEntity
  8
TITLE_BLOCK
  6
CONTINUOUS
 62
     7
100
AcDbVertex
100
AcDb2dVertex
 10
-16.372836
 20
-19.268168
 30
0.0
 70
     8
  0
VERTEX
  5
31B6B
330
19D6B
100
AcDbEntity
  8
TITLE_BLOCK
  6
CONTINUOUS
 62
     7
100
AcDbVertex
100
AcDb2dVertex
 10
-16.457629
 20
-19.406504
 30
0.0
 70
     8
  0
VERTEX
  5
31B6C
330
19D6B
100
AcDbEntity
  8
TITLE_BLOCK
  6
CONTINUOUS
 62
     7
100
AcDbVertex
100
AcDb2dVertex
 10
-16.550362
 20
-19.539132
 30
0.0
 70
     8
  0
VERTEX
  5
31B6D
330
19D6B
100
AcDbEntity
  8
TITLE_BLOCK
  6
CONTINUOUS
 62
     7
100
AcDbVertex
100
AcDb2dVertex
 10
-16.752684
 20
-19.792172
 30
0.0
 70
     8
  0
VERTEX
  5
31B6E
330
19D6B
100
AcDbEntity
  8
TITLE_BLOCK
  6
CONTINUOUS
 62
     7
100
AcDbVertex
100
AcDb2dVertex
 10
-17.176039
 20
-20.283774
 30
0.0
 70
     8
  0
VERTEX
  5
31B6F
330
19D6B
100
AcDbEntity
  8
TITLE_BLOCK
  6
CONTINUOUS
 62
     7
100
AcDbVertex
100
AcDb2dVertex
 10
-17.501809
 20
-20.65216
 30
0.0
 70
     8
  0
VERTEX
  5
31B70
330
19D6B
100
AcDbEntity
  8
TITLE_BLOCK
  6
CONTINUOUS
 62
     7
100
AcDbVertex
100
AcDb2dVertex
 10
-17.839469
 20
-21.011774
 30
0.0
 70
     8
  0
VERTEX
  5
31B71
330
19D6B
100
AcDbEntity
  8
TITLE_BLOCK
  6
CONTINUOUS
 62
     7
100
AcDbVertex
100
AcDb2dVertex
 10
-18.018065
 20
-21.180533
 30
0.0
 70
     8
  0
VERTEX
  5
31B72
330
19D6B
100
AcDbEntity
  8
TITLE_BLOCK
  6
CONTINUOUS
 62
     7
100
AcDbVertex
100
AcDb2dVertex
 10
-18.206004
 20
-21.337788
 30
0.0
 70
     8
  0
VERTEX
  5
31B73
330
19D6B
100
AcDbEntity
  8
TITLE_BLOCK
  6
CONTINUOUS
 62
     7
100
AcDbVertex
100
AcDb2dVertex
 10
-18.405409
 20
-21.480437
 30
0.0
 70
     8
  0
VERTEX
  5
31B74
330
19D6B
100
AcDbEntity
  8
TITLE_BLOCK
  6
CONTINUOUS
 62
     7
100
AcDbVertex
100
AcDb2dVertex
 10
-18.618402
 20
-21.605375
 30
0.0
 70
     8
  0
VERTEX
  5
31B75
330
19D6B
100
AcDbEntity
  8
TITLE_BLOCK
  6
CONTINUOUS
 62
     7
100
AcDbVertex
100
AcDb2dVertex
 10
-18.752947
 20
-21.667499
 30
0.0
 70
     8
  0
VERTEX
  5
31B76
330
19D6B
100
AcDbEntity
  8
TITLE_BLOCK
  6
CONTINUOUS
 62
     7
100
AcDbVertex
100
AcDb2dVertex
 10
-18.893915
 20
-21.713042
 30
0.0
 70
     8
  0
VERTEX
  5
31B77
330
19D6B
100
AcDbEntity
  8
TITLE_BLOCK
  6
CONTINUOUS
 62
     7
100
AcDbVertex
100
AcDb2dVertex
 10
-19.039252
 20
-21.741813
 30
0.0
 70
     8
  0
VERTEX
  5
31B78
330
19D6B
100
AcDbEntity
  8
TITLE_BLOCK
  6
CONTINUOUS
 62
     7
100
AcDbVertex
100
AcDb2dVertex
 10
-19.186905
 20
-21.75362
 30
0.0
 70
     8
  0
VERTEX
  5
31B79
330
19D6B
100
AcDbEntity
  8
TITLE_BLOCK
  6
CONTINUOUS
 62
     7
100
AcDbVertex
100
AcDb2dVertex
 10
-19.334821
 20
-21.748271
 30
0.0
 70
     8
  0
VERTEX
  5
31B7A
330
19D6B
100
AcDbEntity
  8
TITLE_BLOCK
  6
CONTINUOUS
 62
     7
100
AcDbVertex
100
AcDb2dVertex
 10
-19.480947
 20
-21.725574
 30
0.0
 70
     8
  0
VERTEX
  5
31B7B
330
19D6B
100
AcDbEntity
  8
TITLE_BLOCK
  6
CONTINUOUS
 62
     7
100
AcDbVertex
100
AcDb2dVertex
 10
-19.623228
 20
-21.685337
 30
0.0
 70
     8
  0
VERTEX
  5
31B7C
330
19D6B
100
AcDbEntity
  8
TITLE_BLOCK
  6
CONTINUOUS
 62
     7
100
AcDbVertex
100
AcDb2dVertex
 10
-19.759613
 20
-21.627368
 30
0.0
 70
     8
  0
VERTEX
  5
31B7D
330
19D6B
100
AcDbEntity
  8
TITLE_BLOCK
  6
CONTINUOUS
 62
     7
100
AcDbVertex
100
AcDb2dVertex
 10
-19.824761
 20
-21.589695
 30
0.0
 70
     8
  0
VERTEX
  5
31B7E
330
19D6B
100
AcDbEntity
  8
TITLE_BLOCK
  6
CONTINUOUS
 62
     7
100
AcDbVertex
100
AcDb2dVertex
 10
-19.884709
 20
-21.545897
 30
0.0
 70
     8
  0
VERTEX
  5
31B7F
330
19D6B
100
AcDbEntity
  8
TITLE_BLOCK
  6
CONTINUOUS
 62
     7
100
AcDbVertex
100
AcDb2dVertex
 10
-19.988727
 20
-21.44217
 30
0.0
 70
     8
  0
VERTEX
  5
31B80
330
19D6B
100
AcDbEntity
  8
TITLE_BLOCK
  6
CONTINUOUS
 62
     7
100
AcDbVertex
100
AcDb2dVertex
 10
-20.071098
 20
-21.320666
 30
0.0
 70
     8
  0
VERTEX
  5
31B81
330
19D6B
100
AcDbEntity
  8
TITLE_BLOCK
  6
CONTINUOUS
 62
     7
100
AcDbVertex
100
AcDb2dVertex
 10
-20.131256
 20
-21.185869
 30
0.0
 70
     8
  0
VERTEX
  5
31B82
330
19D6B
100
AcDbEntity
  8
TITLE_BLOCK
  6
CONTINUOUS
 62
     7
100
AcDbVertex
100
AcDb2dVertex
 10
-20.168633
 20
-21.042258
 30
0.0
 70
     8
  0
VERTEX
  5
31B83
330
19D6B
100
AcDbEntity
  8
TITLE_BLOCK
  6
CONTINUOUS
 62
     7
100
AcDbVertex
100
AcDb2dVertex
 10
-20.182661
 20
-20.894316
 30
0.0
 70
     8
  0
VERTEX
  5
31B84
330
19D6B
100
AcDbEntity
  8
TITLE_BLOCK
  6
CONTINUOUS
 62
     7
100
AcDbVertex
100
AcDb2dVertex
 10
-20.172773
 20
-20.746524
 30
0.0
 70
     8
  0
VERTEX
  5
31B85
330
19D6B
100
AcDbEntity
  8
TITLE_BLOCK
  6
CONTINUOUS
 62
     7
100
AcDbVertex
100
AcDb2dVertex
 10
-20.138402
 20
-20.603364
 30
0.0
 70
     8
  0
VERTEX
  5
31B86
330
19D6B
100
AcDbEntity
  8
TITLE_BLOCK
  6
CONTINUOUS
 62
     7
100
AcDbVertex
100
AcDb2dVertex
 10
-20.078049
 20
-20.410307
 30
0.0
 70
     8
  0
VERTEX
  5
31B87
330
19D6B
100
AcDbEntity
  8
TITLE_BLOCK
  6
CONTINUOUS
 62
     7
100
AcDbVertex
100
AcDb2dVertex
 10
-19.999578
 20
-20.224918
 30
0.0
 70
     8
  0
VERTEX
  5
31B88
330
19D6B
100
AcDbEntity
  8
TITLE_BLOCK
  6
CONTINUOUS
 62
     7
100
AcDbVertex
100
AcDb2dVertex
 10
-19.904334
 20
-20.04793
 30
0.0
 70
     8
  0
VERTEX
  5
31B89
330
19D6B
100
AcDbEntity
  8
TITLE_BLOCK
  6
CONTINUOUS
 62
     7
100
AcDbVertex
100
AcDb2dVertex
 10
-19.793663
 20
-19.880073
 30
0.0
 70
     8
  0
VERTEX
  5
31B8A
330
19D6B
100
AcDbEntity
  8
TITLE_BLOCK
  6
CONTINUOUS
 62
     7
100
AcDbVertex
100
AcDb2dVertex
 10
-19.66891
 20
-19.722077
 30
0.0
 70
     8
  0
VERTEX
  5
31B8B
330
19D6B
100
AcDbEntity
  8
TITLE_BLOCK
  6
CONTINUOUS
 62
     7
100
AcDbVertex
100
AcDb2dVertex
 10
-19.531421
 20
-19.574675
 30
0.0
 70
     8
  0
VERTEX
  5
31B8C
330
19D6B
100
AcDbEntity
  8
TITLE_BLOCK
  6
CONTINUOUS
 62
     7
100
AcDbVertex
100
AcDb2dVertex
 10
-19.382541
 20
-19.438597
 30
0.0
 70
     8
  0
VERTEX
  5
31B8D
330
19D6B
100
AcDbEntity
  8
TITLE_BLOCK
  6
CONTINUOUS
 62
     7
100
AcDbVertex
100
AcDb2dVertex
 10
-19.223617
 20
-19.314575
 30
0.0
 70
     8
  0
VERTEX
  5
31B8E
330
19D6B
100
AcDbEntity
  8
TITLE_BLOCK
  6
CONTINUOUS
 62
     7
100
AcDbVertex
100
AcDb2dVertex
 10
-19.223617
 20
-19.314575
 30
0.0
 70
     8
  0
VERTEX
  5
31B8F
330
19D6B
100
AcDbEntity
  8
TITLE_BLOCK
  6
CONTINUOUS
 62
     7
100
AcDbVertex
100
AcDb2dVertex
 10
-19.223617
 20
-19.314575
 30
0.0
 70
    16
  0
VERTEX
  5
31B90
330
19D6B
100
AcDbEntity
  8
TITLE_BLOCK
  6
CONTINUOUS
 62
     7
100
AcDbVertex
100
AcDb2dVertex
 10
-18.841214
 20
-19.041782
 30
0.0
 70
    16
  0
VERTEX
  5
31B91
330
19D6B
100
AcDbEntity
  8
TITLE_BLOCK
  6
CONTINUOUS
 62
     7
100
AcDbVertex
100
AcDb2dVertex
 10
-18.421605
 20
-18.781372
 30
0.0
 70
    16
  0
VERTEX
  5
31B92
330
19D6B
100
AcDbEntity
  8
TITLE_BLOCK
  6
CONTINUOUS
 62
     7
100
AcDbVertex
100
AcDb2dVertex
 10
-17.945218
 20
-18.726567
 30
0.0
 70
    16
  0
VERTEX
  5
31B93
330
19D6B
100
AcDbEntity
  8
TITLE_BLOCK
  6
CONTINUOUS
 62
     7
100
AcDbVertex
100
AcDb2dVertex
 10
-17.759242
 20
-18.710981
 30
0.0
 70
    16
  0
VERTEX
  5
31B94
330
19D6B
100
AcDbEntity
  8
TITLE_BLOCK
  6
CONTINUOUS
 62
     7
100
AcDbVertex
100
AcDb2dVertex
 10
-17.56682
 20
-18.680571
 30
0.0
 70
    16
  0
VERTEX
  5
31B95
330
19D6B
100
AcDbEntity
  8
TITLE_BLOCK
  6
CONTINUOUS
 62
     7
100
AcDbVertex
100
AcDb2dVertex
 10
-17.382836
 20
-18.726567
 30
0.0
 70
    16
  0
VERTEX
  5
31B96
330
19D6B
100
AcDbEntity
  8
TITLE_BLOCK
  6
CONTINUOUS
 62
     7
100
AcDbVertex
100
AcDb2dVertex
 10
-17.226429
 20
-18.785375
 30
0.0
 70
    16
  0
VERTEX
  5
31B97
330
19D6B
100
AcDbEntity
  8
TITLE_BLOCK
  6
CONTINUOUS
 62
     7
100
AcDbVertex
100
AcDb2dVertex
 10
-17.13764
 20
-18.964165
 30
0.0
 70
    16
  0
VERTEX
  5
31B98
330
19D6B
100
AcDbEntity
  8
TITLE_BLOCK
  6
CONTINUOUS
 62
     7
100
AcDbVertex
100
AcDb2dVertex
 10
-17.174437
 20
-19.126176
 30
0.0
 70
    16
  0
VERTEX
  5
31B99
330
19D6B
100
AcDbEntity
  8
TITLE_BLOCK
  6
CONTINUOUS
 62
     7
100
AcDbVertex
100
AcDb2dVertex
 10
-17.237211
 20
-19.417368
 30
0.0
 70
    16
  0
VERTEX
  5
31B9A
330
19D6B
100
AcDbEntity
  8
TITLE_BLOCK
  6
CONTINUOUS
 62
     7
100
AcDbVertex
100
AcDb2dVertex
 10
-17.479242
 20
-19.626977
 30
0.0
 70
    16
  0
VERTEX
  5
31B9B
330
19D6B
100
AcDbEntity
  8
TITLE_BLOCK
  6
CONTINUOUS
 62
     7
100
AcDbVertex
100
AcDb2dVertex
 10
-17.724047
 20
-19.773774
 30
0.0
 70
    16
  0
VERTEX
  5
31B9C
330
19D6B
100
AcDbEntity
  8
TITLE_BLOCK
  6
CONTINUOUS
 62
     7
100
AcDbVertex
100
AcDb2dVertex
 10
-18.212836
 20
-20.07018
 30
0.0
 70
    16
  0
VERTEX
  5
31B9D
330
19D6B
100
AcDbEntity
  8
TITLE_BLOCK
  6
CONTINUOUS
 62
     7
100
AcDbVertex
100
AcDb2dVertex
 10
-18.770804
 20
-20.21977
 30
0.0
 70
    16
  0
VERTEX
  5
31B9E
330
19D6B
100
AcDbEntity
  8
TITLE_BLOCK
  6
CONTINUOUS
 62
     7
100
AcDbVertex
100
AcDb2dVertex
 10
-19.3168
 20
-20.371372
 30
0.0
 70
    16
  0
VERTEX
  5
31B9F
330
19D6B
100
AcDbEntity
  8
TITLE_BLOCK
  6
CONTINUOUS
 62
     7
100
AcDbVertex
100
AcDb2dVertex
 10
-19.445218
 20
-20.592582
 30
0.0
 70
    16
  0
VERTEX
  5
31BA0
330
19D6B
100
AcDbEntity
  8
TITLE_BLOCK
  6
CONTINUOUS
 62
     7
100
AcDbVertex
100
AcDb2dVertex
 10
-19.554418
 20
-20.828969
 30
0.0
 70
    16
  0
VERTEX
  5
31BA1
330
19D6B
100
AcDbEntity
  8
TITLE_BLOCK
  6
CONTINUOUS
 62
     7
100
AcDbVertex
100
AcDb2dVertex
 10
-19.607601
 20
-21.080571
 30
0.0
 70
    16
  0
VERTEX
  5
31BA2
330
19D6B
100
AcDbEntity
  8
TITLE_BLOCK
  6
CONTINUOUS
 62
     7
100
AcDbVertex
100
AcDb2dVertex
 10
-19.630004
 20
-21.28018
 30
0.0
 70
    16
  0
VERTEX
  5
31BA3
330
19D6B
100
AcDbEntity
  8
TITLE_BLOCK
  6
CONTINUOUS
 62
     7
100
AcDbVertex
100
AcDb2dVertex
 10
-19.490004
 20
-21.548168
 30
0.0
 70
    16
  0
VERTEX
  5
31BA4
330
19D6B
100
AcDbEntity
  8
TITLE_BLOCK
  6
CONTINUOUS
 62
     7
100
AcDbVertex
100
AcDb2dVertex
 10
-19.261214
 20
-21.526567
 30
0.0
 70
    16
  0
VERTEX
  5
31BA5
330
19D6B
100
AcDbEntity
  8
TITLE_BLOCK
  6
CONTINUOUS
 62
     7
100
AcDbVertex
100
AcDb2dVertex
 10
-18.936019
 20
-21.53018
 30
0.0
 70
    16
  0
VERTEX
  5
31BA6
330
19D6B
100
AcDbEntity
  8
TITLE_BLOCK
  6
CONTINUOUS
 62
     7
100
AcDbVertex
100
AcDb2dVertex
 10
-18.635218
 20
-21.378168
 30
0.0
 70
    16
  0
VERTEX
  5
31BA7
330
19D6B
100
AcDbEntity
  8
TITLE_BLOCK
  6
CONTINUOUS
 62
     7
100
AcDbVertex
100
AcDb2dVertex
 10
-18.375609
 20
-21.194965
 30
0.0
 70
    16
  0
VERTEX
  5
31BA8
330
19D6B
100
AcDbEntity
  8
TITLE_BLOCK
  6
CONTINUOUS
 62
     7
100
AcDbVertex
100
AcDb2dVertex
 10
-17.739632
 20
-20.75018
 30
0.0
 70
    16
  0
VERTEX
  5
31BA9
330
19D6B
100
AcDbEntity
  8
TITLE_BLOCK
  6
CONTINUOUS
 62
     7
100
AcDbVertex
100
AcDb2dVertex
 10
-17.241625
 20
-20.147778
 30
0.0
 70
    16
  0
VERTEX
  5
31BAA
330
19D6B
100
AcDbEntity
  8
TITLE_BLOCK
  6
CONTINUOUS
 62
     7
100
AcDbVertex
100
AcDb2dVertex
 10
-16.716039
 20
-19.584184
 30
0.0
 70
    16
  0
VERTEX
  5
31BAB
330
19D6B
100
AcDbEntity
  8
TITLE_BLOCK
  6
CONTINUOUS
 62
     7
100
AcDbVertex
100
AcDb2dVertex
 10
-16.607211
 20
-19.474184
 30
0.0
 70
    16
  0
VERTEX
  5
31BAC
330
19D6B
100
AcDbEntity
  8
TITLE_BLOCK
  6
CONTINUOUS
 62
     7
100
AcDbVertex
100
AcDb2dVertex
 10
-16.520414
 20
-19.33018
 30
0.0
 70
    16
  0
VERTEX
  5
31BAD
330
19D6B
100
AcDbEntity
  8
TITLE_BLOCK
  6
CONTINUOUS
 62
     7
100
AcDbVertex
100
AcDb2dVertex
 10
-16.372836
 20
-19.268168
 30
0.0
 70
    16
  0
VERTEX
  5
31BAE
330
19D6B
100
AcDbEntity
  8
TITLE_BLOCK
  6
CONTINUOUS
 62
     7
100
AcDbVertex
100
AcDb2dVertex
 10
-16.58682
 20
-19.645766
 30
0.0
 70
    16
  0
VERTEX
  5
31BAF
330
19D6B
100
AcDbEntity
  8
TITLE_BLOCK
  6
CONTINUOUS
 62
     7
100
AcDbVertex
100
AcDb2dVertex
 10
-16.904047
 20
-19.949379
 30
0.0
 70
    16
  0
VERTEX
  5
31BB0
330
19D6B
100
AcDbEntity
  8
TITLE_BLOCK
  6
CONTINUOUS
 62
     7
100
AcDbVertex
100
AcDb2dVertex
 10
-17.176039
 20
-20.283774
 30
0.0
 70
    16
  0
VERTEX
  5
31BB1
330
19D6B
100
AcDbEntity
  8
TITLE_BLOCK
  6
CONTINUOUS
 62
     7
100
AcDbVertex
100
AcDb2dVertex
 10
-17.610023
 20
-20.76977
 30
0.0
 70
    16
  0
VERTEX
  5
31BB2
330
19D6B
100
AcDbEntity
  8
TITLE_BLOCK
  6
CONTINUOUS
 62
     7
100
AcDbVertex
100
AcDb2dVertex
 10
-18.030414
 20
-21.298579
 30
0.0
 70
    16
  0
VERTEX
  5
31BB3
330
19D6B
100
AcDbEntity
  8
TITLE_BLOCK
  6
CONTINUOUS
 62
     7
100
AcDbVertex
100
AcDb2dVertex
 10
-18.618402
 20
-21.605375
 30
0.0
 70
    16
  0
VERTEX
  5
31BB4
330
19D6B
100
AcDbEntity
  8
TITLE_BLOCK
  6
CONTINUOUS
 62
     7
100
AcDbVertex
100
AcDb2dVertex
 10
-18.9668
 20
-21.792973
 30
0.0
 70
    16
  0
VERTEX
  5
31BB5
330
19D6B
100
AcDbEntity
  8
TITLE_BLOCK
  6
CONTINUOUS
 62
     7
100
AcDbVertex
100
AcDb2dVertex
 10
-19.405609
 20
-21.805766
 30
0.0
 70
    16
  0
VERTEX
  5
31BB6
330
19D6B
100
AcDbEntity
  8
TITLE_BLOCK
  6
CONTINUOUS
 62
     7
100
AcDbVertex
100
AcDb2dVertex
 10
-19.759613
 20
-21.627368
 30
0.0
 70
    16
  0
VERTEX
  5
31BB7
330
19D6B
100
AcDbEntity
  8
TITLE_BLOCK
  6
CONTINUOUS
 62
     7
100
AcDbVertex
100
AcDb2dVertex
 10
-20.120804
 20
-21.443774
 30
0.0
 70
    16
  0
VERTEX
  5
31BB8
330
19D6B
100
AcDbEntity
  8
TITLE_BLOCK
  6
CONTINUOUS
 62
     7
100
AcDbVertex
100
AcDb2dVertex
 10
-20.263207
 20
-20.974965
 30
0.0
 70
    16
  0
VERTEX
  5
31BB9
330
19D6B
100
AcDbEntity
  8
TITLE_BLOCK
  6
CONTINUOUS
 62
     7
100
AcDbVertex
100
AcDb2dVertex
 10
-20.138402
 20
-20.603364
 30
0.0
 70
    16
  0
VERTEX
  5
31BBA
330
19D6B
100
AcDbEntity
  8
TITLE_BLOCK
  6
CONTINUOUS
 62
     7
100
AcDbVertex
100
AcDb2dVertex
 10
-20.002816
 20
-20.078969
 30
0.0
 70
    16
  0
VERTEX
  5
31BBB
330
19D6B
100
AcDbEntity
  8
TITLE_BLOCK
  6
CONTINUOUS
 62
     7
100
AcDbVertex
100
AcDb2dVertex
 10
-19.659613
 20
-19.628579
 30
0.0
 70
    16
  0
VERTEX
  5
31BBC
330
19D6B
100
AcDbEntity
  8
TITLE_BLOCK
  6
CONTINUOUS
 62
     7
100
AcDbVertex
100
AcDb2dVertex
 10
-19.223617
 20
-19.314575
 30
0.0
 70
    16
  0
VERTEX
  5
31BBD
330
19D6B
100
AcDbEntity
  8
TITLE_BLOCK
  6
CONTINUOUS
 62
     7
100
AcDbVertex
100
AcDb2dVertex
 10
-19.223617
 20
-19.314575
 30
0.0
 70
    16
  0
VERTEX
  5
31BBE
330
19D6B
100
AcDbEntity
  8
TITLE_BLOCK
  6
CONTINUOUS
 62
     7
100
AcDbVertex
100
AcDb2dVertex
 10
-19.223617
 20
-19.314575
 30
0.0
 70
    16
  0
VERTEX
  5
31BBF
330
19D6B
100
AcDbEntity
  8
TITLE_BLOCK
  6
CONTINUOUS
 62
     7
100
AcDbVertex
100
AcDb2dVertex
 10
-19.223617
 20
-19.314575
 30
0.0
 70
    16
  0
SEQEND
  5
31BC0
330
19D6B
100
AcDbEntity
  8
TITLE_BLOCK
  6
CONTINUOUS
 62
     7
  0
POLYLINE
  5
19DFE
330
31A96
100
AcDbEntity
  8
TITLE_BLOCK
  6
CONTINUOUS
 62
     7
100
AcDb2dPolyline
 66
     1
 10
0.0
 20
0.0
 30
0.0
 70
     5
 75
     5
  0
VERTEX
  5
31BC1
330
19DFE
100
AcDbEntity
  8
TITLE_BLOCK
  6
CONTINUOUS
 62
     7
100
AcDbVertex
100
AcDb2dVertex
 10
-18.366214
 20
-19.303774
 30
0.0
 70
     8
  0
VERTEX
  5
31BC2
330
19DFE
100
AcDbEntity
  8
TITLE_BLOCK
  6
CONTINUOUS
 62
     7
100
AcDbVertex
100
AcDb2dVertex
 10
-18.179884
 20
-19.152389
 30
0.0
 70
     8
  0
VERTEX
  5
31BC3
330
19DFE
100
AcDbEntity
  8
TITLE_BLOCK
  6
CONTINUOUS
 62
     7
100
AcDbVertex
100
AcDb2dVertex
 10
-18.08244
 20
-19.081139
 30
0.0
 70
     8
  0
VERTEX
  5
31BC4
330
19DFE
100
AcDbEntity
  8
TITLE_BLOCK
  6
CONTINUOUS
 62
     7
100
AcDbVertex
100
AcDb2dVertex
 10
-17.981749
 20
-19.014919
 30
0.0
 70
     8
  0
VERTEX
  5
31BC5
330
19DFE
100
AcDbEntity
  8
TITLE_BLOCK
  6
CONTINUOUS
 62
     7
100
AcDbVertex
100
AcDb2dVertex
 10
-17.877516
 20
-18.955281
 30
0.0
 70
     8
  0
VERTEX
  5
31BC6
330
19DFE
100
AcDbEntity
  8
TITLE_BLOCK
  6
CONTINUOUS
 62
     7
100
AcDbVertex
100
AcDb2dVertex
 10
-17.769445
 20
-18.903775
 30
0.0
 70
     8
  0
VERTEX
  5
31BC7
330
19DFE
100
AcDbEntity
  8
TITLE_BLOCK
  6
CONTINUOUS
 62
     7
100
AcDbVertex
100
AcDb2dVertex
 10
-17.657242
 20
-18.861955
 30
0.0
 70
     8
  0
VERTEX
  5
31BC8
330
19DFE
100
AcDbEntity
  8
TITLE_BLOCK
  6
CONTINUOUS
 62
     7
100
AcDbVertex
100
AcDb2dVertex
 10
-17.540609
 20
-18.831372
 30
0.0
 70
     8
  0
VERTEX
  5
31BC9
330
19DFE
100
AcDbEntity
  8
TITLE_BLOCK
  6
CONTINUOUS
 62
     7
100
AcDbVertex
100
AcDb2dVertex
 10
-17.518005
 20
-18.867081
 30
0.0
 70
     8
  0
VERTEX
  5
31BCA
330
19DFE
100
AcDbEntity
  8
TITLE_BLOCK
  6
CONTINUOUS
 62
     7
100
AcDbVertex
100
AcDb2dVertex
 10
-17.501508
 20
-18.903448
 30
0.0
 70
     8
  0
VERTEX
  5
31BCB
330
19DFE
100
AcDbEntity
  8
TITLE_BLOCK
  6
CONTINUOUS
 62
     7
100
AcDbVertex
100
AcDb2dVertex
 10
-17.490697
 20
-18.940306
 30
0.0
 70
     8
  0
VERTEX
  5
31BCC
330
19DFE
100
AcDbEntity
  8
TITLE_BLOCK
  6
CONTINUOUS
 62
     7
100
AcDbVertex
100
AcDb2dVertex
 10
-17.485156
 20
-18.977488
 30
0.0
 70
     8
  0
VERTEX
  5
31BCD
330
19DFE
100
AcDbEntity
  8
TITLE_BLOCK
  6
CONTINUOUS
 62
     7
100
AcDbVertex
100
AcDb2dVertex
 10
-17.484466
 20
-19.014828
 30
0.0
 70
     8
  0
VERTEX
  5
31BCE
330
19DFE
100
AcDbEntity
  8
TITLE_BLOCK
  6
CONTINUOUS
 62
     7
100
AcDbVertex
100
AcDb2dVertex
 10
-17.488208
 20
-19.052157
 30
0.0
 70
     8
  0
VERTEX
  5
31BCF
330
19DFE
100
AcDbEntity
  8
TITLE_BLOCK
  6
CONTINUOUS
 62
     7
100
AcDbVertex
100
AcDb2dVertex
 10
-17.495965
 20
-19.089309
 30
0.0
 70
     8
  0
VERTEX
  5
31BD0
330
19DFE
100
AcDbEntity
  8
TITLE_BLOCK
  6
CONTINUOUS
 62
     7
100
AcDbVertex
100
AcDb2dVertex
 10
-17.507318
 20
-19.126118
 30
0.0
 70
     8
  0
VERTEX
  5
31BD1
330
19DFE
100
AcDbEntity
  8
TITLE_BLOCK
  6
CONTINUOUS
 62
     7
100
AcDbVertex
100
AcDb2dVertex
 10
-17.539139
 20
-19.198035
 30
0.0
 70
     8
  0
VERTEX
  5
31BD2
330
19DFE
100
AcDbEntity
  8
TITLE_BLOCK
  6
CONTINUOUS
 62
     7
100
AcDbVertex
100
AcDb2dVertex
 10
-17.580325
 20
-19.266573
 30
0.0
 70
     8
  0
VERTEX
  5
31BD3
330
19DFE
100
AcDbEntity
  8
TITLE_BLOCK
  6
CONTINUOUS
 62
     7
100
AcDbVertex
100
AcDb2dVertex
 10
-17.627529
 20
-19.330396
 30
0.0
 70
     8
  0
VERTEX
  5
31BD4
330
19DFE
100
AcDbEntity
  8
TITLE_BLOCK
  6
CONTINUOUS
 62
     7
100
AcDbVertex
100
AcDb2dVertex
 10
-17.677406
 20
-19.388168
 30
0.0
 70
     8
  0
VERTEX
  5
31BD5
330
19DFE
100
AcDbEntity
  8
TITLE_BLOCK
  6
CONTINUOUS
 62
     7
100
AcDbVertex
100
AcDb2dVertex
 10
-17.749249
 20
-19.45931
 30
0.0
 70
     8
  0
VERTEX
  5
31BD6
330
19DFE
100
AcDbEntity
  8
TITLE_BLOCK
  6
CONTINUOUS
 62
     7
100
AcDbVertex
100
AcDb2dVertex
 10
-17.823961
 20
-19.526855
 30
0.0
 70
     8
  0
VERTEX
  5
31BD7
330
19DFE
100
AcDbEntity
  8
TITLE_BLOCK
  6
CONTINUOUS
 62
     7
100
AcDbVertex
100
AcDb2dVertex
 10
-17.901364
 20
-19.59091
 30
0.0
 70
     8
  0
VERTEX
  5
31BD8
330
19DFE
100
AcDbEntity
  8
TITLE_BLOCK
  6
CONTINUOUS
 62
     7
100
AcDbVertex
100
AcDb2dVertex
 10
-17.98128
 20
-19.651582
 30
0.0
 70
     8
  0
VERTEX
  5
31BD9
330
19DFE
100
AcDbEntity
  8
TITLE_BLOCK
  6
CONTINUOUS
 62
     7
100
AcDbVertex
100
AcDb2dVertex
 10
-18.063531
 20
-19.708978
 30
0.0
 70
     8
  0
VERTEX
  5
31BDA
330
19DFE
100
AcDbEntity
  8
TITLE_BLOCK
  6
CONTINUOUS
 62
     7
100
AcDbVertex
100
AcDb2dVertex
 10
-18.147938
 20
-19.763204
 30
0.0
 70
     8
  0
VERTEX
  5
31BDB
330
19DFE
100
AcDbEntity
  8
TITLE_BLOCK
  6
CONTINUOUS
 62
     7
100
AcDbVertex
100
AcDb2dVertex
 10
-18.234323
 20
-19.814367
 30
0.0
 70
     8
  0
VERTEX
  5
31BDC
330
19DFE
100
AcDbEntity
  8
TITLE_BLOCK
  6
CONTINUOUS
 62
     7
100
AcDbVertex
100
AcDb2dVertex
 10
-18.322508
 20
-19.862573
 30
0.0
 70
     8
  0
VERTEX
  5
31BDD
330
19DFE
100
AcDbEntity
  8
TITLE_BLOCK
  6
CONTINUOUS
 62
     7
100
AcDbVertex
100
AcDb2dVertex
 10
-18.503566
 20
-19.950541
 30
0.0
 70
     8
  0
VERTEX
  5
31BDE
330
19DFE
100
AcDbEntity
  8
TITLE_BLOCK
  6
CONTINUOUS
 62
     7
100
AcDbVertex
100
AcDb2dVertex
 10
-18.689686
 20
-20.027963
 30
0.0
 70
     8
  0
VERTEX
  5
31BDF
330
19DFE
100
AcDbEntity
  8
TITLE_BLOCK
  6
CONTINUOUS
 62
     7
100
AcDbVertex
100
AcDb2dVertex
 10
-18.879442
 20
-20.09569
 30
0.0
 70
     8
  0
VERTEX
  5
31BE0
330
19DFE
100
AcDbEntity
  8
TITLE_BLOCK
  6
CONTINUOUS
 62
     7
100
AcDbVertex
100
AcDb2dVertex
 10
-19.07141
 20
-20.154575
 30
0.0
 70
     8
  0
VERTEX
  5
31BE1
330
19DFE
100
AcDbEntity
  8
TITLE_BLOCK
  6
CONTINUOUS
 62
     7
100
AcDbVertex
100
AcDb2dVertex
 10
-18.741158
 20
-19.70997
 30
0.0
 70
     8
  0
VERTEX
  5
31BE2
330
19DFE
100
AcDbEntity
  8
TITLE_BLOCK
  6
CONTINUOUS
 62
     7
100
AcDbVertex
100
AcDb2dVertex
 10
-18.654624
 20
-19.602007
 30
0.0
 70
     8
  0
VERTEX
  5
31BE3
330
19DFE
100
AcDbEntity
  8
TITLE_BLOCK
  6
CONTINUOUS
 62
     7
100
AcDbVertex
100
AcDb2dVertex
 10
-18.564091
 20
-19.49757
 30
0.0
 70
     8
  0
VERTEX
  5
31BE4
330
19DFE
100
AcDbEntity
  8
TITLE_BLOCK
  6
CONTINUOUS
 62
     7
100
AcDbVertex
100
AcDb2dVertex
 10
-18.468356
 20
-19.397784
 30
0.0
 70
     8
  0
VERTEX
  5
31BE5
330
19DFE
100
AcDbEntity
  8
TITLE_BLOCK
  6
CONTINUOUS
 62
     7
100
AcDbVertex
100
AcDb2dVertex
 10
-18.366214
 20
-19.303774
 30
0.0
 70
     8
  0
VERTEX
  5
31BE6
330
19DFE
100
AcDbEntity
  8
TITLE_BLOCK
  6
CONTINUOUS
 62
     7
100
AcDbVertex
100
AcDb2dVertex
 10
-18.366214
 20
-19.303774
 30
0.0
 70
     8
  0
VERTEX
  5
31BE7
330
19DFE
100
AcDbEntity
  8
TITLE_BLOCK
  6
CONTINUOUS
 62
     7
100
AcDbVertex
100
AcDb2dVertex
 10
-18.366214
 20
-19.303774
 30
0.0
 70
    16
  0
VERTEX
  5
31BE8
330
19DFE
100
AcDbEntity
  8
TITLE_BLOCK
  6
CONTINUOUS
 62
     7
100
AcDbVertex
100
AcDb2dVertex
 10
-18.124593
 20
-19.098168
 30
0.0
 70
    16
  0
VERTEX
  5
31BE9
330
19DFE
100
AcDbEntity
  8
TITLE_BLOCK
  6
CONTINUOUS
 62
     7
100
AcDbVertex
100
AcDb2dVertex
 10
-17.857797
 20
-18.896567
 30
0.0
 70
    16
  0
VERTEX
  5
31BEA
330
19DFE
100
AcDbEntity
  8
TITLE_BLOCK
  6
CONTINUOUS
 62
     7
100
AcDbVertex
100
AcDb2dVertex
 10
-17.540609
 20
-18.831372
 30
0.0
 70
    16
  0
VERTEX
  5
31BEB
330
19DFE
100
AcDbEntity
  8
TITLE_BLOCK
  6
CONTINUOUS
 62
     7
100
AcDbVertex
100
AcDb2dVertex
 10
-17.403031
 20
-19.01977
 30
0.0
 70
    16
  0
VERTEX
  5
31BEC
330
19DFE
100
AcDbEntity
  8
TITLE_BLOCK
  6
CONTINUOUS
 62
     7
100
AcDbVertex
100
AcDb2dVertex
 10
-17.543812
 20
-19.243364
 30
0.0
 70
    16
  0
VERTEX
  5
31BED
330
19DFE
100
AcDbEntity
  8
TITLE_BLOCK
  6
CONTINUOUS
 62
     7
100
AcDbVertex
100
AcDb2dVertex
 10
-17.677406
 20
-19.388168
 30
0.0
 70
    16
  0
VERTEX
  5
31BEE
330
19DFE
100
AcDbEntity
  8
TITLE_BLOCK
  6
CONTINUOUS
 62
     7
100
AcDbVertex
100
AcDb2dVertex
 10
-18.052601
 20
-19.777368
 30
0.0
 70
    16
  0
VERTEX
  5
31BEF
330
19DFE
100
AcDbEntity
  8
TITLE_BLOCK
  6
CONTINUOUS
 62
     7
100
AcDbVertex
100
AcDb2dVertex
 10
-18.557816
 20
-20.008579
 30
0.0
 70
    16
  0
VERTEX
  5
31BF0
330
19DFE
100
AcDbEntity
  8
TITLE_BLOCK
  6
CONTINUOUS
 62
     7
100
AcDbVertex
100
AcDb2dVertex
 10
-19.07141
 20
-20.154575
 30
0.0
 70
    16
  0
VERTEX
  5
31BF1
330
19DFE
100
AcDbEntity
  8
TITLE_BLOCK
  6
CONTINUOUS
 62
     7
100
AcDbVertex
100
AcDb2dVertex
 10
-18.849007
 20
-19.861372
 30
0.0
 70
    16
  0
VERTEX
  5
31BF2
330
19DFE
100
AcDbEntity
  8
TITLE_BLOCK
  6
CONTINUOUS
 62
     7
100
AcDbVertex
100
AcDb2dVertex
 10
-18.648207
 20
-19.545766
 30
0.0
 70
    16
  0
VERTEX
  5
31BF3
330
19DFE
100
AcDbEntity
  8
TITLE_BLOCK
  6
CONTINUOUS
 62
     7
100
AcDbVertex
100
AcDb2dVertex
 10
-18.366214
 20
-19.303774
 30
0.0
 70
    16
  0
VERTEX
  5
31BF4
330
19DFE
100
AcDbEntity
  8
TITLE_BLOCK
  6
CONTINUOUS
 62
     7
100
AcDbVertex
100
AcDb2dVertex
 10
-18.366214
 20
-19.303774
 30
0.0
 70
    16
  0
VERTEX
  5
31BF5
330
19DFE
100
AcDbEntity
  8
TITLE_BLOCK
  6
CONTINUOUS
 62
     7
100
AcDbVertex
100
AcDb2dVertex
 10
-18.366214
 20
-19.303774
 30
0.0
 70
    16
  0
VERTEX
  5
31BF6
330
19DFE
100
AcDbEntity
  8
TITLE_BLOCK
  6
CONTINUOUS
 62
     7
100
AcDbVertex
100
AcDb2dVertex
 10
-18.366214
 20
-19.303774
 30
0.0
 70
    16
  0
SEQEND
  5
31BF7
330
19DFE
100
AcDbEntity
  8
TITLE_BLOCK
  6
CONTINUOUS
 62
     7
  0
POLYLINE
  5
19E35
330
31A96
100
AcDbEntity
  8
TITLE_BLOCK
  6
CONTINUOUS
 62
     7
100
AcDb2dPolyline
 66
     1
 10
0.0
 20
0.0
 30
0.0
 70
     5
 75
     5
  0
VERTEX
  5
31BF8
330
19E35
100
AcDbEntity
  8
TITLE_BLOCK
  6
CONTINUOUS
 62
     7
100
AcDbVertex
100
AcDb2dVertex
 10
-23.601371
 20
-22.763793
 30
0.0
 70
     8
  0
VERTEX
  5
31BF9
330
19E35
100
AcDbEntity
  8
TITLE_BLOCK
  6
CONTINUOUS
 62
     7
100
AcDbVertex
100
AcDb2dVertex
 10
-23.04057
 20
-22.765356
 30
0.0
 70
     8
  0
VERTEX
  5
31BFA
330
19E35
100
AcDbEntity
  8
TITLE_BLOCK
  6
CONTINUOUS
 62
     7
100
AcDbVertex
100
AcDb2dVertex
 10
-23.041761
 20
-22.927387
 30
0.0
 70
     8
  0
VERTEX
  5
31BFB
330
19E35
100
AcDbEntity
  8
TITLE_BLOCK
  6
CONTINUOUS
 62
     7
100
AcDbVertex
100
AcDb2dVertex
 10
-23.221761
 20
-22.924575
 30
0.0
 70
     8
  0
VERTEX
  5
31BFC
330
19E35
100
AcDbEntity
  8
TITLE_BLOCK
  6
CONTINUOUS
 62
     7
100
AcDbVertex
100
AcDb2dVertex
 10
-23.401761
 20
-22.92059
 30
0.0
 70
     8
  0
VERTEX
  5
31BFD
330
19E35
100
AcDbEntity
  8
TITLE_BLOCK
  6
CONTINUOUS
 62
     7
100
AcDbVertex
100
AcDb2dVertex
 10
-23.404554
 20
-23.004184
 30
0.0
 70
     8
  0
VERTEX
  5
31BFE
330
19E35
100
AcDbEntity
  8
TITLE_BLOCK
  6
CONTINUOUS
 62
     7
100
AcDbVertex
100
AcDb2dVertex
 10
-23.242364
 20
-23.004824
 30
0.0
 70
     8
  0
VERTEX
  5
31BFF
330
19E35
100
AcDbEntity
  8
TITLE_BLOCK
  6
CONTINUOUS
 62
     7
100
AcDbVertex
100
AcDb2dVertex
 10
-23.08016
 20
-23.006957
 30
0.0
 70
     8
  0
VERTEX
  5
31C00
330
19E35
100
AcDbEntity
  8
TITLE_BLOCK
  6
CONTINUOUS
 62
     7
100
AcDbVertex
100
AcDb2dVertex
 10
-23.084554
 20
-23.164965
 30
0.0
 70
     8
  0
VERTEX
  5
31C01
330
19E35
100
AcDbEntity
  8
TITLE_BLOCK
  6
CONTINUOUS
 62
     7
100
AcDbVertex
100
AcDb2dVertex
 10
-23.244767
 20
-23.166123
 30
0.0
 70
     8
  0
VERTEX
  5
31C02
330
19E35
100
AcDbEntity
  8
TITLE_BLOCK
  6
CONTINUOUS
 62
     7
100
AcDbVertex
100
AcDb2dVertex
 10
-23.404964
 20
-23.165786
 30
0.0
 70
     8
  0
VERTEX
  5
31C03
330
19E35
100
AcDbEntity
  8
TITLE_BLOCK
  6
CONTINUOUS
 62
     7
100
AcDbVertex
100
AcDb2dVertex
 10
-23.401761
 20
-23.287387
 30
0.0
 70
     8
  0
VERTEX
  5
31C04
330
19E35
100
AcDbEntity
  8
TITLE_BLOCK
  6
CONTINUOUS
 62
     7
100
AcDbVertex
100
AcDb2dVertex
 10
-23.310624
 20
-23.285281
 30
0.0
 70
     8
  0
VERTEX
  5
31C05
330
19E35
100
AcDbEntity
  8
TITLE_BLOCK
  6
CONTINUOUS
 62
     7
100
AcDbVertex
100
AcDb2dVertex
 10
-23.219564
 20
-23.284721
 30
0.0
 70
     8
  0
VERTEX
  5
31C06
330
19E35
100
AcDbEntity
  8
TITLE_BLOCK
  6
CONTINUOUS
 62
     7
100
AcDbVertex
100
AcDb2dVertex
 10
-23.037367
 20
-23.286567
 30
0.0
 70
     8
  0
VERTEX
  5
31C07
330
19E35
100
AcDbEntity
  8
TITLE_BLOCK
  6
CONTINUOUS
 62
     7
100
AcDbVertex
100
AcDb2dVertex
 10
-23.048558
 20
-23.447387
 30
0.0
 70
     8
  0
VERTEX
  5
31C08
330
19E35
100
AcDbEntity
  8
TITLE_BLOCK
  6
CONTINUOUS
 62
     7
100
AcDbVertex
100
AcDb2dVertex
 10
-23.186201
 20
-23.445124
 30
0.0
 70
     8
  0
VERTEX
  5
31C09
330
19E35
100
AcDbEntity
  8
TITLE_BLOCK
  6
CONTINUOUS
 62
     7
100
AcDbVertex
100
AcDb2dVertex
 10
-23.323763
 20
-23.44437
 30
0.0
 70
     8
  0
VERTEX
  5
31C0A
330
19E35
100
AcDbEntity
  8
TITLE_BLOCK
  6
CONTINUOUS
 62
     7
100
AcDbVertex
100
AcDb2dVertex
 10
-23.461326
 20
-23.445124
 30
0.0
 70
     8
  0
VERTEX
  5
31C0B
330
19E35
100
AcDbEntity
  8
TITLE_BLOCK
  6
CONTINUOUS
 62
     7
100
AcDbVertex
100
AcDb2dVertex
 10
-23.598968
 20
-23.447387
 30
0.0
 70
     8
  0
VERTEX
  5
31C0C
330
19E35
100
AcDbEntity
  8
TITLE_BLOCK
  6
CONTINUOUS
 62
     7
100
AcDbVertex
100
AcDb2dVertex
 10
-23.602939
 20
-23.276388
 30
0.0
 70
     8
  0
VERTEX
  5
31C0D
330
19E35
100
AcDbEntity
  8
TITLE_BLOCK
  6
CONTINUOUS
 62
     7
100
AcDbVertex
100
AcDb2dVertex
 10
-23.603766
 20
-23.105429
 30
0.0
 70
     8
  0
VERTEX
  5
31C0E
330
19E35
100
AcDbEntity
  8
TITLE_BLOCK
  6
CONTINUOUS
 62
     7
100
AcDbVertex
100
AcDb2dVertex
 10
-23.601371
 20
-22.763793
 30
0.0
 70
     8
  0
VERTEX
  5
31C0F
330
19E35
100
AcDbEntity
  8
TITLE_BLOCK
  6
CONTINUOUS
 62
     7
100
AcDbVertex
100
AcDb2dVertex
 10
-23.601371
 20
-22.763793
 30
0.0
 70
     8
  0
VERTEX
  5
31C10
330
19E35
100
AcDbEntity
  8
TITLE_BLOCK
  6
CONTINUOUS
 62
     7
100
AcDbVertex
100
AcDb2dVertex
 10
-23.601371
 20
-22.763793
 30
0.0
 70
    16
  0
VERTEX
  5
31C11
330
19E35
100
AcDbEntity
  8
TITLE_BLOCK
  6
CONTINUOUS
 62
     7
100
AcDbVertex
100
AcDb2dVertex
 10
-23.414164
 20
-22.762973
 30
0.0
 70
    16
  0
VERTEX
  5
31C12
330
19E35
100
AcDbEntity
  8
TITLE_BLOCK
  6
CONTINUOUS
 62
     7
100
AcDbVertex
100
AcDb2dVertex
 10
-23.227367
 20
-22.765786
 30
0.0
 70
    16
  0
VERTEX
  5
31C13
330
19E35
100
AcDbEntity
  8
TITLE_BLOCK
  6
CONTINUOUS
 62
     7
100
AcDbVertex
100
AcDb2dVertex
 10
-23.04057
 20
-22.765356
 30
0.0
 70
    16
  0
VERTEX
  5
31C14
330
19E35
100
AcDbEntity
  8
TITLE_BLOCK
  6
CONTINUOUS
 62
     7
100
AcDbVertex
100
AcDb2dVertex
 10
-23.041371
 20
-22.819379
 30
0.0
 70
    16
  0
VERTEX
  5
31C15
330
19E35
100
AcDbEntity
  8
TITLE_BLOCK
  6
CONTINUOUS
 62
     7
100
AcDbVertex
100
AcDb2dVertex
 10
-23.041761
 20
-22.873364
 30
0.0
 70
    16
  0
VERTEX
  5
31C16
330
19E35
100
AcDbEntity
  8
TITLE_BLOCK
  6
CONTINUOUS
 62
     7
100
AcDbVertex
100
AcDb2dVertex
 10
-23.041761
 20
-22.927387
 30
0.0
 70
    16
  0
VERTEX
  5
31C17
330
19E35
100
AcDbEntity
  8
TITLE_BLOCK
  6
CONTINUOUS
 62
     7
100
AcDbVertex
100
AcDb2dVertex
 10
-23.161761
 20
-22.924965
 30
0.0
 70
    16
  0
VERTEX
  5
31C18
330
19E35
100
AcDbEntity
  8
TITLE_BLOCK
  6
CONTINUOUS
 62
     7
100
AcDbVertex
100
AcDb2dVertex
 10
-23.281761
 20
-22.924575
 30
0.0
 70
    16
  0
VERTEX
  5
31C19
330
19E35
100
AcDbEntity
  8
TITLE_BLOCK
  6
CONTINUOUS
 62
     7
100
AcDbVertex
100
AcDb2dVertex
 10
-23.401761
 20
-22.92059
 30
0.0
 70
    16
  0
VERTEX
  5
31C1A
330
19E35
100
AcDbEntity
  8
TITLE_BLOCK
  6
CONTINUOUS
 62
     7
100
AcDbVertex
100
AcDb2dVertex
 10
-23.402562
 20
-22.941372
 30
0.0
 70
    16
  0
VERTEX
  5
31C1B
330
19E35
100
AcDbEntity
  8
TITLE_BLOCK
  6
CONTINUOUS
 62
     7
100
AcDbVertex
100
AcDb2dVertex
 10
-23.403754
 20
-22.983364
 30
0.0
 70
    16
  0
VERTEX
  5
31C1C
330
19E35
100
AcDbEntity
  8
TITLE_BLOCK
  6
CONTINUOUS
 62
     7
100
AcDbVertex
100
AcDb2dVertex
 10
-23.404554
 20
-23.004184
 30
0.0
 70
    16
  0
VERTEX
  5
31C1D
330
19E35
100
AcDbEntity
  8
TITLE_BLOCK
  6
CONTINUOUS
 62
     7
100
AcDbVertex
100
AcDb2dVertex
 10
-23.296566
 20
-23.004575
 30
0.0
 70
    16
  0
VERTEX
  5
31C1E
330
19E35
100
AcDbEntity
  8
TITLE_BLOCK
  6
CONTINUOUS
 62
     7
100
AcDbVertex
100
AcDb2dVertex
 10
-23.188168
 20
-23.004575
 30
0.0
 70
    16
  0
VERTEX
  5
31C1F
330
19E35
100
AcDbEntity
  8
TITLE_BLOCK
  6
CONTINUOUS
 62
     7
100
AcDbVertex
100
AcDb2dVertex
 10
-23.08016
 20
-23.006957
 30
0.0
 70
    16
  0
VERTEX
  5
31C20
330
19E35
100
AcDbEntity
  8
TITLE_BLOCK
  6
CONTINUOUS
 62
     7
100
AcDbVertex
100
AcDb2dVertex
 10
-23.082172
 20
-23.059379
 30
0.0
 70
    16
  0
VERTEX
  5
31C21
330
19E35
100
AcDbEntity
  8
TITLE_BLOCK
  6
CONTINUOUS
 62
     7
100
AcDbVertex
100
AcDb2dVertex
 10
-23.083363
 20
-23.112192
 30
0.0
 70
    16
  0
VERTEX
  5
31C22
330
19E35
100
AcDbEntity
  8
TITLE_BLOCK
  6
CONTINUOUS
 62
     7
100
AcDbVertex
100
AcDb2dVertex
 10
-23.084554
 20
-23.164965
 30
0.0
 70
    16
  0
VERTEX
  5
31C23
330
19E35
100
AcDbEntity
  8
TITLE_BLOCK
  6
CONTINUOUS
 62
     7
100
AcDbVertex
100
AcDb2dVertex
 10
-23.191371
 20
-23.166176
 30
0.0
 70
    16
  0
VERTEX
  5
31C24
330
19E35
100
AcDbEntity
  8
TITLE_BLOCK
  6
CONTINUOUS
 62
     7
100
AcDbVertex
100
AcDb2dVertex
 10
-23.298168
 20
-23.166567
 30
0.0
 70
    16
  0
VERTEX
  5
31C25
330
19E35
100
AcDbEntity
  8
TITLE_BLOCK
  6
CONTINUOUS
 62
     7
100
AcDbVertex
100
AcDb2dVertex
 10
-23.404964
 20
-23.165786
 30
0.0
 70
    16
  0
VERTEX
  5
31C26
330
19E35
100
AcDbEntity
  8
TITLE_BLOCK
  6
CONTINUOUS
 62
     7
100
AcDbVertex
100
AcDb2dVertex
 10
-23.404164
 20
-23.196176
 30
0.0
 70
    16
  0
VERTEX
  5
31C27
330
19E35
100
AcDbEntity
  8
TITLE_BLOCK
  6
CONTINUOUS
 62
     7
100
AcDbVertex
100
AcDb2dVertex
 10
-23.402562
 20
-23.256957
 30
0.0
 70
    16
  0
VERTEX
  5
31C28
330
19E35
100
AcDbEntity
  8
TITLE_BLOCK
  6
CONTINUOUS
 62
     7
100
AcDbVertex
100
AcDb2dVertex
 10
-23.401761
 20
-23.287387
 30
0.0
 70
    16
  0
VERTEX
  5
31C29
330
19E35
100
AcDbEntity
  8
TITLE_BLOCK
  6
CONTINUOUS
 62
     7
100
AcDbVertex
100
AcDb2dVertex
 10
-23.28016
 20
-23.283364
 30
0.0
 70
    16
  0
VERTEX
  5
31C2A
330
19E35
100
AcDbEntity
  8
TITLE_BLOCK
  6
CONTINUOUS
 62
     7
100
AcDbVertex
100
AcDb2dVertex
 10
-23.158968
 20
-23.284575
 30
0.0
 70
    16
  0
VERTEX
  5
31C2B
330
19E35
100
AcDbEntity
  8
TITLE_BLOCK
  6
CONTINUOUS
 62
     7
100
AcDbVertex
100
AcDb2dVertex
 10
-23.037367
 20
-23.286567
 30
0.0
 70
    16
  0
VERTEX
  5
31C2C
330
19E35
100
AcDbEntity
  8
TITLE_BLOCK
  6
CONTINUOUS
 62
     7
100
AcDbVertex
100
AcDb2dVertex
 10
-23.040961
 20
-23.340161
 30
0.0
 70
    16
  0
VERTEX
  5
31C2D
330
19E35
100
AcDbEntity
  8
TITLE_BLOCK
  6
CONTINUOUS
 62
     7
100
AcDbVertex
100
AcDb2dVertex
 10
-23.044964
 20
-23.393793
 30
0.0
 70
    16
  0
VERTEX
  5
31C2E
330
19E35
100
AcDbEntity
  8
TITLE_BLOCK
  6
CONTINUOUS
 62
     7
100
AcDbVertex
100
AcDb2dVertex
 10
-23.048558
 20
-23.447387
 30
0.0
 70
    16
  0
VERTEX
  5
31C2F
330
19E35
100
AcDbEntity
  8
TITLE_BLOCK
  6
CONTINUOUS
 62
     7
100
AcDbVertex
100
AcDb2dVertex
 10
-23.232172
 20
-23.443364
 30
0.0
 70
    16
  0
VERTEX
  5
31C30
330
19E35
100
AcDbEntity
  8
TITLE_BLOCK
  6
CONTINUOUS
 62
     7
100
AcDbVertex
100
AcDb2dVertex
 10
-23.415355
 20
-23.443364
 30
0.0
 70
    16
  0
VERTEX
  5
31C31
330
19E35
100
AcDbEntity
  8
TITLE_BLOCK
  6
CONTINUOUS
 62
     7
100
AcDbVertex
100
AcDb2dVertex
 10
-23.598968
 20
-23.447387
 30
0.0
 70
    16
  0
VERTEX
  5
31C32
330
19E35
100
AcDbEntity
  8
TITLE_BLOCK
  6
CONTINUOUS
 62
     7
100
AcDbVertex
100
AcDb2dVertex
 10
-23.606957
 20
-23.219379
 30
0.0
 70
    16
  0
VERTEX
  5
31C33
330
19E35
100
AcDbEntity
  8
TITLE_BLOCK
  6
CONTINUOUS
 62
     7
100
AcDbVertex
100
AcDb2dVertex
 10
-23.602972
 20
-22.991372
 30
0.0
 70
    16
  0
VERTEX
  5
31C34
330
19E35
100
AcDbEntity
  8
TITLE_BLOCK
  6
CONTINUOUS
 62
     7
100
AcDbVertex
100
AcDb2dVertex
 10
-23.601371
 20
-22.763793
 30
0.0
 70
    16
  0
VERTEX
  5
31C35
330
19E35
100
AcDbEntity
  8
TITLE_BLOCK
  6
CONTINUOUS
 62
     7
100
AcDbVertex
100
AcDb2dVertex
 10
-23.601371
 20
-22.763793
 30
0.0
 70
    16
  0
VERTEX
  5
31C36
330
19E35
100
AcDbEntity
  8
TITLE_BLOCK
  6
CONTINUOUS
 62
     7
100
AcDbVertex
100
AcDb2dVertex
 10
-23.601371
 20
-22.763793
 30
0.0
 70
    16
  0
VERTEX
  5
31C37
330
19E35
100
AcDbEntity
  8
TITLE_BLOCK
  6
CONTINUOUS
 62
     7
100
AcDbVertex
100
AcDb2dVertex
 10
-23.601371
 20
-22.763793
 30
0.0
 70
    16
  0
SEQEND
  5
31C38
330
19E35
100
AcDbEntity
  8
TITLE_BLOCK
  6
CONTINUOUS
 62
     7
  0
POLYLINE
  5
19E76
330
31A96
100
AcDbEntity
  8
TITLE_BLOCK
  6
CONTINUOUS
 62
     7
100
AcDb2dPolyline
 66
     1
 10
0.0
 20
0.0
 30
0.0
 70
     5
 75
     5
  0
VERTEX
  5
31C39
330
19E76
100
AcDbEntity
  8
TITLE_BLOCK
  6
CONTINUOUS
 62
     7
100
AcDbVertex
100
AcDb2dVertex
 10
-22.842562
 20
-22.843364
 30
0.0
 70
     8
  0
VERTEX
  5
31C3A
330
19E76
100
AcDbEntity
  8
TITLE_BLOCK
  6
CONTINUOUS
 62
     7
100
AcDbVertex
100
AcDb2dVertex
 10
-22.809248
 20
-22.820535
 30
0.0
 70
     8
  0
VERTEX
  5
31C3B
330
19E76
100
AcDbEntity
  8
TITLE_BLOCK
  6
CONTINUOUS
 62
     7
100
AcDbVertex
100
AcDb2dVertex
 10
-22.773393
 20
-22.801701
 30
0.0
 70
     8
  0
VERTEX
  5
31C3C
330
19E76
100
AcDbEntity
  8
TITLE_BLOCK
  6
CONTINUOUS
 62
     7
100
AcDbVertex
100
AcDb2dVertex
 10
-22.735502
 20
-22.786869
 30
0.0
 70
     8
  0
VERTEX
  5
31C3D
330
19E76
100
AcDbEntity
  8
TITLE_BLOCK
  6
CONTINUOUS
 62
     7
100
AcDbVertex
100
AcDb2dVertex
 10
-22.696081
 20
-22.776052
 30
0.0
 70
     8
  0
VERTEX
  5
31C3E
330
19E76
100
AcDbEntity
  8
TITLE_BLOCK
  6
CONTINUOUS
 62
     7
100
AcDbVertex
100
AcDb2dVertex
 10
-22.655636
 20
-22.769258
 30
0.0
 70
     8
  0
VERTEX
  5
31C3F
330
19E76
100
AcDbEntity
  8
TITLE_BLOCK
  6
CONTINUOUS
 62
     7
100
AcDbVertex
100
AcDb2dVertex
 10
-22.614672
 20
-22.766498
 30
0.0
 70
     8
  0
VERTEX
  5
31C40
330
19E76
100
AcDbEntity
  8
TITLE_BLOCK
  6
CONTINUOUS
 62
     7
100
AcDbVertex
100
AcDb2dVertex
 10
-22.573695
 20
-22.767782
 30
0.0
 70
     8
  0
VERTEX
  5
31C41
330
19E76
100
AcDbEntity
  8
TITLE_BLOCK
  6
CONTINUOUS
 62
     7
100
AcDbVertex
100
AcDb2dVertex
 10
-22.533212
 20
-22.77312
 30
0.0
 70
     8
  0
VERTEX
  5
31C42
330
19E76
100
AcDbEntity
  8
TITLE_BLOCK
  6
CONTINUOUS
 62
     7
100
AcDbVertex
100
AcDb2dVertex
 10
-22.493726
 20
-22.782521
 30
0.0
 70
     8
  0
VERTEX
  5
31C43
330
19E76
100
AcDbEntity
  8
TITLE_BLOCK
  6
CONTINUOUS
 62
     7
100
AcDbVertex
100
AcDb2dVertex
 10
-22.455745
 20
-22.795997
 30
0.0
 70
     8
  0
VERTEX
  5
31C44
330
19E76
100
AcDbEntity
  8
TITLE_BLOCK
  6
CONTINUOUS
 62
     7
100
AcDbVertex
100
AcDb2dVertex
 10
-22.419773
 20
-22.813558
 30
0.0
 70
     8
  0
VERTEX
  5
31C45
330
19E76
100
AcDbEntity
  8
TITLE_BLOCK
  6
CONTINUOUS
 62
     7
100
AcDbVertex
100
AcDb2dVertex
 10
-22.386316
 20
-22.835212
 30
0.0
 70
     8
  0
VERTEX
  5
31C46
330
19E76
100
AcDbEntity
  8
TITLE_BLOCK
  6
CONTINUOUS
 62
     7
100
AcDbVertex
100
AcDb2dVertex
 10
-22.355881
 20
-22.860971
 30
0.0
 70
     8
  0
VERTEX
  5
31C47
330
19E76
100
AcDbEntity
  8
TITLE_BLOCK
  6
CONTINUOUS
 62
     7
100
AcDbVertex
100
AcDb2dVertex
 10
-22.328972
 20
-22.890844
 30
0.0
 70
     8
  0
VERTEX
  5
31C48
330
19E76
100
AcDbEntity
  8
TITLE_BLOCK
  6
CONTINUOUS
 62
     7
100
AcDbVertex
100
AcDb2dVertex
 10
-22.306096
 20
-22.924841
 30
0.0
 70
     8
  0
VERTEX
  5
31C49
330
19E76
100
AcDbEntity
  8
TITLE_BLOCK
  6
CONTINUOUS
 62
     7
100
AcDbVertex
100
AcDb2dVertex
 10
-22.296328
 20
-22.94339
 30
0.0
 70
     8
  0
VERTEX
  5
31C4A
330
19E76
100
AcDbEntity
  8
TITLE_BLOCK
  6
CONTINUOUS
 62
     7
100
AcDbVertex
100
AcDb2dVertex
 10
-22.287757
 20
-22.962973
 30
0.0
 70
     8
  0
VERTEX
  5
31C4B
330
19E76
100
AcDbEntity
  8
TITLE_BLOCK
  6
CONTINUOUS
 62
     7
100
AcDbVertex
100
AcDb2dVertex
 10
-22.377062
 20
-22.977275
 30
0.0
 70
     8
  0
VERTEX
  5
31C4C
330
19E76
100
AcDbEntity
  8
TITLE_BLOCK
  6
CONTINUOUS
 62
     7
100
AcDbVertex
100
AcDb2dVertex
 10
-22.465765
 20
-22.993364
 30
0.0
 70
     8
  0
VERTEX
  5
31C4D
330
19E76
100
AcDbEntity
  8
TITLE_BLOCK
  6
CONTINUOUS
 62
     7
100
AcDbVertex
100
AcDb2dVertex
 10
-22.477367
 20
-22.978206
 30
0.0
 70
     8
  0
VERTEX
  5
31C4E
330
19E76
100
AcDbEntity
  8
TITLE_BLOCK
  6
CONTINUOUS
 62
     7
100
AcDbVertex
100
AcDb2dVertex
 10
-22.490325
 20
-22.964949
 30
0.0
 70
     8
  0
VERTEX
  5
31C4F
330
19E76
100
AcDbEntity
  8
TITLE_BLOCK
  6
CONTINUOUS
 62
     7
100
AcDbVertex
100
AcDb2dVertex
 10
-22.504484
 20
-22.953553
 30
0.0
 70
     8
  0
VERTEX
  5
31C50
330
19E76
100
AcDbEntity
  8
TITLE_BLOCK
  6
CONTINUOUS
 62
     7
100
AcDbVertex
100
AcDb2dVertex
 10
-22.51969
 20
-22.943977
 30
0.0
 70
     8
  0
VERTEX
  5
31C51
330
19E76
100
AcDbEntity
  8
TITLE_BLOCK
  6
CONTINUOUS
 62
     7
100
AcDbVertex
100
AcDb2dVertex
 10
-22.53579
 20
-22.936181
 30
0.0
 70
     8
  0
VERTEX
  5
31C52
330
19E76
100
AcDbEntity
  8
TITLE_BLOCK
  6
CONTINUOUS
 62
     7
100
AcDbVertex
100
AcDb2dVertex
 10
-22.552628
 20
-22.930126
 30
0.0
 70
     8
  0
VERTEX
  5
31C53
330
19E76
100
AcDbEntity
  8
TITLE_BLOCK
  6
CONTINUOUS
 62
     7
100
AcDbVertex
100
AcDb2dVertex
 10
-22.570052
 20
-22.925773
 30
0.0
 70
     8
  0
VERTEX
  5
31C54
330
19E76
100
AcDbEntity
  8
TITLE_BLOCK
  6
CONTINUOUS
 62
     7
100
AcDbVertex
100
AcDb2dVertex
 10
-22.587906
 20
-22.923081
 30
0.0
 70
     8
  0
VERTEX
  5
31C55
330
19E76
100
AcDbEntity
  8
TITLE_BLOCK
  6
CONTINUOUS
 62
     7
100
AcDbVertex
100
AcDb2dVertex
 10
-22.624291
 20
-22.92252
 30
0.0
 70
     8
  0
VERTEX
  5
31C56
330
19E76
100
AcDbEntity
  8
TITLE_BLOCK
  6
CONTINUOUS
 62
     7
100
AcDbVertex
100
AcDb2dVertex
 10
-22.66055
 20
-22.928127
 30
0.0
 70
     8
  0
VERTEX
  5
31C57
330
19E76
100
AcDbEntity
  8
TITLE_BLOCK
  6
CONTINUOUS
 62
     7
100
AcDbVertex
100
AcDb2dVertex
 10
-22.69545
 20
-22.939582
 30
0.0
 70
     8
  0
VERTEX
  5
31C58
330
19E76
100
AcDbEntity
  8
TITLE_BLOCK
  6
CONTINUOUS
 62
     7
100
AcDbVertex
100
AcDb2dVertex
 10
-22.727757
 20
-22.956567
 30
0.0
 70
     8
  0
VERTEX
  5
31C59
330
19E76
100
AcDbEntity
  8
TITLE_BLOCK
  6
CONTINUOUS
 62
     7
100
AcDbVertex
100
AcDb2dVertex
 10
-22.742867
 20
-22.979024
 30
0.0
 70
     8
  0
VERTEX
  5
31C5A
330
19E76
100
AcDbEntity
  8
TITLE_BLOCK
  6
CONTINUOUS
 62
     7
100
AcDbVertex
100
AcDb2dVertex
 10
-22.753083
 20
-23.003478
 30
0.0
 70
     8
  0
VERTEX
  5
31C5B
330
19E76
100
AcDbEntity
  8
TITLE_BLOCK
  6
CONTINUOUS
 62
     7
100
AcDbVertex
100
AcDb2dVertex
 10
-22.759288
 20
-23.029451
 30
0.0
 70
     8
  0
VERTEX
  5
31C5C
330
19E76
100
AcDbEntity
  8
TITLE_BLOCK
  6
CONTINUOUS
 62
     7
100
AcDbVertex
100
AcDb2dVertex
 10
-22.762362
 20
-23.056464
 30
0.0
 70
     8
  0
VERTEX
  5
31C5D
330
19E76
100
AcDbEntity
  8
TITLE_BLOCK
  6
CONTINUOUS
 62
     7
100
AcDbVertex
100
AcDb2dVertex
 10
-22.762639
 20
-23.111699
 30
0.0
 70
     8
  0
VERTEX
  5
31C5E
330
19E76
100
AcDbEntity
  8
TITLE_BLOCK
  6
CONTINUOUS
 62
     7
100
AcDbVertex
100
AcDb2dVertex
 10
-22.760961
 20
-23.165356
 30
0.0
 70
     8
  0
VERTEX
  5
31C5F
330
19E76
100
AcDbEntity
  8
TITLE_BLOCK
  6
CONTINUOUS
 62
     7
100
AcDbVertex
100
AcDb2dVertex
 10
-22.759549
 20
-23.194644
 30
0.0
 70
     8
  0
VERTEX
  5
31C60
330
19E76
100
AcDbEntity
  8
TITLE_BLOCK
  6
CONTINUOUS
 62
     7
100
AcDbVertex
100
AcDb2dVertex
 10
-22.75249
 20
-23.219714
 30
0.0
 70
     8
  0
VERTEX
  5
31C61
330
19E76
100
AcDbEntity
  8
TITLE_BLOCK
  6
CONTINUOUS
 62
     7
100
AcDbVertex
100
AcDb2dVertex
 10
-22.740503
 20
-23.240662
 30
0.0
 70
     8
  0
VERTEX
  5
31C62
330
19E76
100
AcDbEntity
  8
TITLE_BLOCK
  6
CONTINUOUS
 62
     7
100
AcDbVertex
100
AcDb2dVertex
 10
-22.724307
 20
-23.257584
 30
0.0
 70
     8
  0
VERTEX
  5
31C63
330
19E76
100
AcDbEntity
  8
TITLE_BLOCK
  6
CONTINUOUS
 62
     7
100
AcDbVertex
100
AcDb2dVertex
 10
-22.704621
 20
-23.270575
 30
0.0
 70
     8
  0
VERTEX
  5
31C64
330
19E76
100
AcDbEntity
  8
TITLE_BLOCK
  6
CONTINUOUS
 62
     7
100
AcDbVertex
100
AcDb2dVertex
 10
-22.682164
 20
-23.27973
 30
0.0
 70
     8
  0
VERTEX
  5
31C65
330
19E76
100
AcDbEntity
  8
TITLE_BLOCK
  6
CONTINUOUS
 62
     7
100
AcDbVertex
100
AcDb2dVertex
 10
-22.657655
 20
-23.285147
 30
0.0
 70
     8
  0
VERTEX
  5
31C66
330
19E76
100
AcDbEntity
  8
TITLE_BLOCK
  6
CONTINUOUS
 62
     7
100
AcDbVertex
100
AcDb2dVertex
 10
-22.631813
 20
-23.286918
 30
0.0
 70
     8
  0
VERTEX
  5
31C67
330
19E76
100
AcDbEntity
  8
TITLE_BLOCK
  6
CONTINUOUS
 62
     7
100
AcDbVertex
100
AcDb2dVertex
 10
-22.605356
 20
-23.285142
 30
0.0
 70
     8
  0
VERTEX
  5
31C68
330
19E76
100
AcDbEntity
  8
TITLE_BLOCK
  6
CONTINUOUS
 62
     7
100
AcDbVertex
100
AcDb2dVertex
 10
-22.579005
 20
-23.279912
 30
0.0
 70
     8
  0
VERTEX
  5
31C69
330
19E76
100
AcDbEntity
  8
TITLE_BLOCK
  6
CONTINUOUS
 62
     7
100
AcDbVertex
100
AcDb2dVertex
 10
-22.553477
 20
-23.271325
 30
0.0
 70
     8
  0
VERTEX
  5
31C6A
330
19E76
100
AcDbEntity
  8
TITLE_BLOCK
  6
CONTINUOUS
 62
     7
100
AcDbVertex
100
AcDb2dVertex
 10
-22.529492
 20
-23.259476
 30
0.0
 70
     8
  0
VERTEX
  5
31C6B
330
19E76
100
AcDbEntity
  8
TITLE_BLOCK
  6
CONTINUOUS
 62
     7
100
AcDbVertex
100
AcDb2dVertex
 10
-22.50777
 20
-23.24446
 30
0.0
 70
     8
  0
VERTEX
  5
31C6C
330
19E76
100
AcDbEntity
  8
TITLE_BLOCK
  6
CONTINUOUS
 62
     7
100
AcDbVertex
100
AcDb2dVertex
 10
-22.489028
 20
-23.226374
 30
0.0
 70
     8
  0
VERTEX
  5
31C6D
330
19E76
100
AcDbEntity
  8
TITLE_BLOCK
  6
CONTINUOUS
 62
     7
100
AcDbVertex
100
AcDb2dVertex
 10
-22.473986
 20
-23.205313
 30
0.0
 70
     8
  0
VERTEX
  5
31C6E
330
19E76
100
AcDbEntity
  8
TITLE_BLOCK
  6
CONTINUOUS
 62
     7
100
AcDbVertex
100
AcDb2dVertex
 10
-22.463363
 20
-23.181372
 30
0.0
 70
     8
  0
VERTEX
  5
31C6F
330
19E76
100
AcDbEntity
  8
TITLE_BLOCK
  6
CONTINUOUS
 62
     7
100
AcDbVertex
100
AcDb2dVertex
 10
-22.29057
 20
-23.211372
 30
0.0
 70
     8
  0
VERTEX
  5
31C70
330
19E76
100
AcDbEntity
  8
TITLE_BLOCK
  6
CONTINUOUS
 62
     7
100
AcDbVertex
100
AcDb2dVertex
 10
-22.294861
 20
-23.235572
 30
0.0
 70
     8
  0
VERTEX
  5
31C71
330
19E76
100
AcDbEntity
  8
TITLE_BLOCK
  6
CONTINUOUS
 62
     7
100
AcDbVertex
100
AcDb2dVertex
 10
-22.301474
 20
-23.258132
 30
0.0
 70
     8
  0
VERTEX
  5
31C72
330
19E76
100
AcDbEntity
  8
TITLE_BLOCK
  6
CONTINUOUS
 62
     7
100
AcDbVertex
100
AcDb2dVertex
 10
-22.310237
 20
-23.279136
 30
0.0
 70
     8
  0
VERTEX
  5
31C73
330
19E76
100
AcDbEntity
  8
TITLE_BLOCK
  6
CONTINUOUS
 62
     7
100
AcDbVertex
100
AcDb2dVertex
 10
-22.320977
 20
-23.298668
 30
0.0
 70
     8
  0
VERTEX
  5
31C74
330
19E76
100
AcDbEntity
  8
TITLE_BLOCK
  6
CONTINUOUS
 62
     7
100
AcDbVertex
100
AcDb2dVertex
 10
-22.333522
 20
-23.316813
 30
0.0
 70
     8
  0
VERTEX
  5
31C75
330
19E76
100
AcDbEntity
  8
TITLE_BLOCK
  6
CONTINUOUS
 62
     7
100
AcDbVertex
100
AcDb2dVertex
 10
-22.3477
 20
-23.333656
 30
0.0
 70
     8
  0
VERTEX
  5
31C76
330
19E76
100
AcDbEntity
  8
TITLE_BLOCK
  6
CONTINUOUS
 62
     7
100
AcDbVertex
100
AcDb2dVertex
 10
-22.363338
 20
-23.349279
 30
0.0
 70
     8
  0
VERTEX
  5
31C77
330
19E76
100
AcDbEntity
  8
TITLE_BLOCK
  6
CONTINUOUS
 62
     7
100
AcDbVertex
100
AcDb2dVertex
 10
-22.380265
 20
-23.363769
 30
0.0
 70
     8
  0
VERTEX
  5
31C78
330
19E76
100
AcDbEntity
  8
TITLE_BLOCK
  6
CONTINUOUS
 62
     7
100
AcDbVertex
100
AcDb2dVertex
 10
-22.417293
 20
-23.389684
 30
0.0
 70
     8
  0
VERTEX
  5
31C79
330
19E76
100
AcDbEntity
  8
TITLE_BLOCK
  6
CONTINUOUS
 62
     7
100
AcDbVertex
100
AcDb2dVertex
 10
-22.457406
 20
-23.412075
 30
0.0
 70
     8
  0
VERTEX
  5
31C7A
330
19E76
100
AcDbEntity
  8
TITLE_BLOCK
  6
CONTINUOUS
 62
     7
100
AcDbVertex
100
AcDb2dVertex
 10
-22.499224
 20
-23.431619
 30
0.0
 70
     8
  0
VERTEX
  5
31C7B
330
19E76
100
AcDbEntity
  8
TITLE_BLOCK
  6
CONTINUOUS
 62
     7
100
AcDbVertex
100
AcDb2dVertex
 10
-22.541371
 20
-23.448989
 30
0.0
 70
     8
  0
VERTEX
  5
31C7C
330
19E76
100
AcDbEntity
  8
TITLE_BLOCK
  6
CONTINUOUS
 62
     7
100
AcDbVertex
100
AcDb2dVertex
 10
-22.633814
 20
-23.439504
 30
0.0
 70
     8
  0
VERTEX
  5
31C7D
330
19E76
100
AcDbEntity
  8
TITLE_BLOCK
  6
CONTINUOUS
 62
     7
100
AcDbVertex
100
AcDb2dVertex
 10
-22.680917
 20
-23.432537
 30
0.0
 70
     8
  0
VERTEX
  5
31C7E
330
19E76
100
AcDbEntity
  8
TITLE_BLOCK
  6
CONTINUOUS
 62
     7
100
AcDbVertex
100
AcDb2dVertex
 10
-22.727159
 20
-23.422416
 30
0.0
 70
     8
  0
VERTEX
  5
31C7F
330
19E76
100
AcDbEntity
  8
TITLE_BLOCK
  6
CONTINUOUS
 62
     7
100
AcDbVertex
100
AcDb2dVertex
 10
-22.771452
 20
-23.407891
 30
0.0
 70
     8
  0
VERTEX
  5
31C80
330
19E76
100
AcDbEntity
  8
TITLE_BLOCK
  6
CONTINUOUS
 62
     7
100
AcDbVertex
100
AcDb2dVertex
 10
-22.792528
 20
-23.398584
 30
0.0
 70
     8
  0
VERTEX
  5
31C81
330
19E76
100
AcDbEntity
  8
TITLE_BLOCK
  6
CONTINUOUS
 62
     7
100
AcDbVertex
100
AcDb2dVertex
 10
-22.812708
 20
-23.387707
 30
0.0
 70
     8
  0
VERTEX
  5
31C82
330
19E76
100
AcDbEntity
  8
TITLE_BLOCK
  6
CONTINUOUS
 62
     7
100
AcDbVertex
100
AcDb2dVertex
 10
-22.831858
 20
-23.375102
 30
0.0
 70
     8
  0
VERTEX
  5
31C83
330
19E76
100
AcDbEntity
  8
TITLE_BLOCK
  6
CONTINUOUS
 62
     7
100
AcDbVertex
100
AcDb2dVertex
 10
-22.849841
 20
-23.360613
 30
0.0
 70
     8
  0
VERTEX
  5
31C84
330
19E76
100
AcDbEntity
  8
TITLE_BLOCK
  6
CONTINUOUS
 62
     7
100
AcDbVertex
100
AcDb2dVertex
 10
-22.86652
 20
-23.344083
 30
0.0
 70
     8
  0
VERTEX
  5
31C85
330
19E76
100
AcDbEntity
  8
TITLE_BLOCK
  6
CONTINUOUS
 62
     7
100
AcDbVertex
100
AcDb2dVertex
 10
-22.881761
 20
-23.325356
 30
0.0
 70
     8
  0
VERTEX
  5
31C86
330
19E76
100
AcDbEntity
  8
TITLE_BLOCK
  6
CONTINUOUS
 62
     7
100
AcDbVertex
100
AcDb2dVertex
 10
-22.901742
 20
-23.298639
 30
0.0
 70
     8
  0
VERTEX
  5
31C87
330
19E76
100
AcDbEntity
  8
TITLE_BLOCK
  6
CONTINUOUS
 62
     7
100
AcDbVertex
100
AcDb2dVertex
 10
-22.918778
 20
-23.269997
 30
0.0
 70
     8
  0
VERTEX
  5
31C88
330
19E76
100
AcDbEntity
  8
TITLE_BLOCK
  6
CONTINUOUS
 62
     7
100
AcDbVertex
100
AcDb2dVertex
 10
-22.932859
 20
-23.239745
 30
0.0
 70
     8
  0
VERTEX
  5
31C89
330
19E76
100
AcDbEntity
  8
TITLE_BLOCK
  6
CONTINUOUS
 62
     7
100
AcDbVertex
100
AcDb2dVertex
 10
-22.943977
 20
-23.208198
 30
0.0
 70
     8
  0
VERTEX
  5
31C8A
330
19E76
100
AcDbEntity
  8
TITLE_BLOCK
  6
CONTINUOUS
 62
     7
100
AcDbVertex
100
AcDb2dVertex
 10
-22.95212
 20
-23.175671
 30
0.0
 70
     8
  0
VERTEX
  5
31C8B
330
19E76
100
AcDbEntity
  8
TITLE_BLOCK
  6
CONTINUOUS
 62
     7
100
AcDbVertex
100
AcDb2dVertex
 10
-22.95728
 20
-23.14248
 30
0.0
 70
     8
  0
VERTEX
  5
31C8C
330
19E76
100
AcDbEntity
  8
TITLE_BLOCK
  6
CONTINUOUS
 62
     7
100
AcDbVertex
100
AcDb2dVertex
 10
-22.959446
 20
-23.10894
 30
0.0
 70
     8
  0
VERTEX
  5
31C8D
330
19E76
100
AcDbEntity
  8
TITLE_BLOCK
  6
CONTINUOUS
 62
     7
100
AcDbVertex
100
AcDb2dVertex
 10
-22.958607
 20
-23.075366
 30
0.0
 70
     8
  0
VERTEX
  5
31C8E
330
19E76
100
AcDbEntity
  8
TITLE_BLOCK
  6
CONTINUOUS
 62
     7
100
AcDbVertex
100
AcDb2dVertex
 10
-22.954755
 20
-23.042072
 30
0.0
 70
     8
  0
VERTEX
  5
31C8F
330
19E76
100
AcDbEntity
  8
TITLE_BLOCK
  6
CONTINUOUS
 62
     7
100
AcDbVertex
100
AcDb2dVertex
 10
-22.947878
 20
-23.009375
 30
0.0
 70
     8
  0
VERTEX
  5
31C90
330
19E76
100
AcDbEntity
  8
TITLE_BLOCK
  6
CONTINUOUS
 62
     7
100
AcDbVertex
100
AcDb2dVertex
 10
-22.937968
 20
-22.97759
 30
0.0
 70
     8
  0
VERTEX
  5
31C91
330
19E76
100
AcDbEntity
  8
TITLE_BLOCK
  6
CONTINUOUS
 62
     7
100
AcDbVertex
100
AcDb2dVertex
 10
-22.925015
 20
-22.947031
 30
0.0
 70
     8
  0
VERTEX
  5
31C92
330
19E76
100
AcDbEntity
  8
TITLE_BLOCK
  6
CONTINUOUS
 62
     7
100
AcDbVertex
100
AcDb2dVertex
 10
-22.909007
 20
-22.918013
 30
0.0
 70
     8
  0
VERTEX
  5
31C93
330
19E76
100
AcDbEntity
  8
TITLE_BLOCK
  6
CONTINUOUS
 62
     7
100
AcDbVertex
100
AcDb2dVertex
 10
-22.889936
 20
-22.890853
 30
0.0
 70
     8
  0
VERTEX
  5
31C94
330
19E76
100
AcDbEntity
  8
TITLE_BLOCK
  6
CONTINUOUS
 62
     7
100
AcDbVertex
100
AcDb2dVertex
 10
-22.867791
 20
-22.865865
 30
0.0
 70
     8
  0
VERTEX
  5
31C95
330
19E76
100
AcDbEntity
  8
TITLE_BLOCK
  6
CONTINUOUS
 62
     7
100
AcDbVertex
100
AcDb2dVertex
 10
-22.842562
 20
-22.843364
 30
0.0
 70
     8
  0
VERTEX
  5
31C96
330
19E76
100
AcDbEntity
  8
TITLE_BLOCK
  6
CONTINUOUS
 62
     7
100
AcDbVertex
100
AcDb2dVertex
 10
-22.842562
 20
-22.843364
 30
0.0
 70
     8
  0
VERTEX
  5
31C97
330
19E76
100
AcDbEntity
  8
TITLE_BLOCK
  6
CONTINUOUS
 62
     7
100
AcDbVertex
100
AcDb2dVertex
 10
-22.842562
 20
-22.843364
 30
0.0
 70
    16
  0
VERTEX
  5
31C98
330
19E76
100
AcDbEntity
  8
TITLE_BLOCK
  6
CONTINUOUS
 62
     7
100
AcDbVertex
100
AcDb2dVertex
 10
-22.672562
 20
-22.710981
 30
0.0
 70
    16
  0
VERTEX
  5
31C99
330
19E76
100
AcDbEntity
  8
TITLE_BLOCK
  6
CONTINUOUS
 62
     7
100
AcDbVertex
100
AcDb2dVertex
 10
-22.372562
 20
-22.748559
 30
0.0
 70
    16
  0
VERTEX
  5
31C9A
330
19E76
100
AcDbEntity
  8
TITLE_BLOCK
  6
CONTINUOUS
 62
     7
100
AcDbVertex
100
AcDb2dVertex
 10
-22.287757
 20
-22.962973
 30
0.0
 70
    16
  0
VERTEX
  5
31C9B
330
19E76
100
AcDbEntity
  8
TITLE_BLOCK
  6
CONTINUOUS
 62
     7
100
AcDbVertex
100
AcDb2dVertex
 10
-22.347367
 20
-22.972192
 30
0.0
 70
    16
  0
VERTEX
  5
31C9C
330
19E76
100
AcDbEntity
  8
TITLE_BLOCK
  6
CONTINUOUS
 62
     7
100
AcDbVertex
100
AcDb2dVertex
 10
-22.406957
 20
-22.981762
 30
0.0
 70
    16
  0
VERTEX
  5
31C9D
330
19E76
100
AcDbEntity
  8
TITLE_BLOCK
  6
CONTINUOUS
 62
     7
100
AcDbVertex
100
AcDb2dVertex
 10
-22.465765
 20
-22.993364
 30
0.0
 70
    16
  0
VERTEX
  5
31C9E
330
19E76
100
AcDbEntity
  8
TITLE_BLOCK
  6
CONTINUOUS
 62
     7
100
AcDbVertex
100
AcDb2dVertex
 10
-22.523754
 20
-22.907387
 30
0.0
 70
    16
  0
VERTEX
  5
31C9F
330
19E76
100
AcDbEntity
  8
TITLE_BLOCK
  6
CONTINUOUS
 62
     7
100
AcDbVertex
100
AcDb2dVertex
 10
-22.646156
 20
-22.904184
 30
0.0
 70
    16
  0
VERTEX
  5
31CA0
330
19E76
100
AcDbEntity
  8
TITLE_BLOCK
  6
CONTINUOUS
 62
     7
100
AcDbVertex
100
AcDb2dVertex
 10
-22.727757
 20
-22.956567
 30
0.0
 70
    16
  0
VERTEX
  5
31CA1
330
19E76
100
AcDbEntity
  8
TITLE_BLOCK
  6
CONTINUOUS
 62
     7
100
AcDbVertex
100
AcDb2dVertex
 10
-22.775355
 20
-23.013364
 30
0.0
 70
    16
  0
VERTEX
  5
31CA2
330
19E76
100
AcDbEntity
  8
TITLE_BLOCK
  6
CONTINUOUS
 62
     7
100
AcDbVertex
100
AcDb2dVertex
 10
-22.761371
 20
-23.096567
 30
0.0
 70
    16
  0
VERTEX
  5
31CA3
330
19E76
100
AcDbEntity
  8
TITLE_BLOCK
  6
CONTINUOUS
 62
     7
100
AcDbVertex
100
AcDb2dVertex
 10
-22.760961
 20
-23.165356
 30
0.0
 70
    16
  0
VERTEX
  5
31CA4
330
19E76
100
AcDbEntity
  8
TITLE_BLOCK
  6
CONTINUOUS
 62
     7
100
AcDbVertex
100
AcDb2dVertex
 10
-22.769769
 20
-23.332973
 30
0.0
 70
    16
  0
VERTEX
  5
31CA5
330
19E76
100
AcDbEntity
  8
TITLE_BLOCK
  6
CONTINUOUS
 62
     7
100
AcDbVertex
100
AcDb2dVertex
 10
-22.506957
 20
-23.316567
 30
0.0
 70
    16
  0
VERTEX
  5
31CA6
330
19E76
100
AcDbEntity
  8
TITLE_BLOCK
  6
CONTINUOUS
 62
     7
100
AcDbVertex
100
AcDb2dVertex
 10
-22.463363
 20
-23.181372
 30
0.0
 70
    16
  0
VERTEX
  5
31CA7
330
19E76
100
AcDbEntity
  8
TITLE_BLOCK
  6
CONTINUOUS
 62
     7
100
AcDbVertex
100
AcDb2dVertex
 10
-22.405765
 20
-23.191762
 30
0.0
 70
    16
  0
VERTEX
  5
31CA8
330
19E76
100
AcDbEntity
  8
TITLE_BLOCK
  6
CONTINUOUS
 62
     7
100
AcDbVertex
100
AcDb2dVertex
 10
-22.348168
 20
-23.201762
 30
0.0
 70
    16
  0
VERTEX
  5
31CA9
330
19E76
100
AcDbEntity
  8
TITLE_BLOCK
  6
CONTINUOUS
 62
     7
100
AcDbVertex
100
AcDb2dVertex
 10
-22.29057
 20
-23.211372
 30
0.0
 70
    16
  0
VERTEX
  5
31CAA
330
19E76
100
AcDbEntity
  8
TITLE_BLOCK
  6
CONTINUOUS
 62
     7
100
AcDbVertex
100
AcDb2dVertex
 10
-22.306957
 20
-23.344965
 30
0.0
 70
    16
  0
VERTEX
  5
31CAB
330
19E76
100
AcDbEntity
  8
TITLE_BLOCK
  6
CONTINUOUS
 62
     7
100
AcDbVertex
100
AcDb2dVertex
 10
-22.429769
 20
-23.404965
 30
0.0
 70
    16
  0
VERTEX
  5
31CAC
330
19E76
100
AcDbEntity
  8
TITLE_BLOCK
  6
CONTINUOUS
 62
     7
100
AcDbVertex
100
AcDb2dVertex
 10
-22.541371
 20
-23.448989
 30
0.0
 70
    16
  0
VERTEX
  5
31CAD
330
19E76
100
AcDbEntity
  8
TITLE_BLOCK
  6
CONTINUOUS
 62
     7
100
AcDbVertex
100
AcDb2dVertex
 10
-22.66016
 20
-23.436957
 30
0.0
 70
    16
  0
VERTEX
  5
31CAE
330
19E76
100
AcDbEntity
  8
TITLE_BLOCK
  6
CONTINUOUS
 62
     7
100
AcDbVertex
100
AcDb2dVertex
 10
-22.804554
 20
-23.431372
 30
0.0
 70
    16
  0
VERTEX
  5
31CAF
330
19E76
100
AcDbEntity
  8
TITLE_BLOCK
  6
CONTINUOUS
 62
     7
100
AcDbVertex
100
AcDb2dVertex
 10
-22.881761
 20
-23.325356
 30
0.0
 70
    16
  0
VERTEX
  5
31CB0
330
19E76
100
AcDbEntity
  8
TITLE_BLOCK
  6
CONTINUOUS
 62
     7
100
AcDbVertex
100
AcDb2dVertex
 10
-22.996156
 20
-23.188559
 30
0.0
 70
    16
  0
VERTEX
  5
31CB1
330
19E76
100
AcDbEntity
  8
TITLE_BLOCK
  6
CONTINUOUS
 62
     7
100
AcDbVertex
100
AcDb2dVertex
 10
-22.985355
 20
-22.956176
 30
0.0
 70
    16
  0
VERTEX
  5
31CB2
330
19E76
100
AcDbEntity
  8
TITLE_BLOCK
  6
CONTINUOUS
 62
     7
100
AcDbVertex
100
AcDb2dVertex
 10
-22.842562
 20
-22.843364
 30
0.0
 70
    16
  0
VERTEX
  5
31CB3
330
19E76
100
AcDbEntity
  8
TITLE_BLOCK
  6
CONTINUOUS
 62
     7
100
AcDbVertex
100
AcDb2dVertex
 10
-22.842562
 20
-22.843364
 30
0.0
 70
    16
  0
VERTEX
  5
31CB4
330
19E76
100
AcDbEntity
  8
TITLE_BLOCK
  6
CONTINUOUS
 62
     7
100
AcDbVertex
100
AcDb2dVertex
 10
-22.842562
 20
-22.843364
 30
0.0
 70
    16
  0
VERTEX
  5
31CB5
330
19E76
100
AcDbEntity
  8
TITLE_BLOCK
  6
CONTINUOUS
 62
     7
100
AcDbVertex
100
AcDb2dVertex
 10
-22.842562
 20
-22.843364
 30
0.0
 70
    16
  0
SEQEND
  5
31CB6
330
19E76
100
AcDbEntity
  8
TITLE_BLOCK
  6
CONTINUOUS
 62
     7
  0
POLYLINE
  5
19EF4
330
31A96
100
AcDbEntity
  8
TITLE_BLOCK
  6
CONTINUOUS
 62
     7
100
AcDb2dPolyline
 66
     1
 10
0.0
 20
0.0
 30
0.0
 70
     5
 75
     5
  0
VERTEX
  5
31CB7
330
19EF4
100
AcDbEntity
  8
TITLE_BLOCK
  6
CONTINUOUS
 62
     7
100
AcDbVertex
100
AcDb2dVertex
 10
-22.161761
 20
-22.764575
 30
0.0
 70
     8
  0
VERTEX
  5
31CB8
330
19EF4
100
AcDbEntity
  8
TITLE_BLOCK
  6
CONTINUOUS
 62
     7
100
AcDbVertex
100
AcDb2dVertex
 10
-21.962953
 20
-22.762192
 30
0.0
 70
     8
  0
VERTEX
  5
31CB9
330
19EF4
100
AcDbEntity
  8
TITLE_BLOCK
  6
CONTINUOUS
 62
     7
100
AcDbVertex
100
AcDb2dVertex
 10
-21.963558
 20
-23.024316
 30
0.0
 70
     8
  0
VERTEX
  5
31CBA
330
19EF4
100
AcDbEntity
  8
TITLE_BLOCK
  6
CONTINUOUS
 62
     7
100
AcDbVertex
100
AcDb2dVertex
 10
-21.962398
 20
-23.155299
 30
0.0
 70
     8
  0
VERTEX
  5
31CBB
330
19EF4
100
AcDbEntity
  8
TITLE_BLOCK
  6
CONTINUOUS
 62
     7
100
AcDbVertex
100
AcDb2dVertex
 10
-21.959359
 20
-23.286176
 30
0.0
 70
     8
  0
VERTEX
  5
31CBC
330
19EF4
100
AcDbEntity
  8
TITLE_BLOCK
  6
CONTINUOUS
 62
     7
100
AcDbVertex
100
AcDb2dVertex
 10
-21.645355
 20
-23.283364
 30
0.0
 70
     8
  0
VERTEX
  5
31CBD
330
19EF4
100
AcDbEntity
  8
TITLE_BLOCK
  6
CONTINUOUS
 62
     7
100
AcDbVertex
100
AcDb2dVertex
 10
-21.638558
 20
-23.443793
 30
0.0
 70
     8
  0
VERTEX
  5
31CBE
330
19EF4
100
AcDbEntity
  8
TITLE_BLOCK
  6
CONTINUOUS
 62
     7
100
AcDbVertex
100
AcDb2dVertex
 10
-21.899759
 20
-23.444326
 30
0.0
 70
     8
  0
VERTEX
  5
31CBF
330
19EF4
100
AcDbEntity
  8
TITLE_BLOCK
  6
CONTINUOUS
 62
     7
100
AcDbVertex
100
AcDb2dVertex
 10
-22.160961
 20
-23.443364
 30
0.0
 70
     8
  0
VERTEX
  5
31CC0
330
19EF4
100
AcDbEntity
  8
TITLE_BLOCK
  6
CONTINUOUS
 62
     7
100
AcDbVertex
100
AcDb2dVertex
 10
-22.163901
 20
-23.273807
 30
0.0
 70
     8
  0
VERTEX
  5
31CC1
330
19EF4
100
AcDbEntity
  8
TITLE_BLOCK
  6
CONTINUOUS
 62
     7
100
AcDbVertex
100
AcDb2dVertex
 10
-22.164064
 20
-23.10413
 30
0.0
 70
     8
  0
VERTEX
  5
31CC2
330
19EF4
100
AcDbEntity
  8
TITLE_BLOCK
  6
CONTINUOUS
 62
     7
100
AcDbVertex
100
AcDb2dVertex
 10
-22.161761
 20
-22.764575
 30
0.0
 70
     8
  0
VERTEX
  5
31CC3
330
19EF4
100
AcDbEntity
  8
TITLE_BLOCK
  6
CONTINUOUS
 62
     7
100
AcDbVertex
100
AcDb2dVertex
 10
-22.161761
 20
-22.764575
 30
0.0
 70
     8
  0
VERTEX
  5
31CC4
330
19EF4
100
AcDbEntity
  8
TITLE_BLOCK
  6
CONTINUOUS
 62
     7
100
AcDbVertex
100
AcDb2dVertex
 10
-22.161761
 20
-22.764575
 30
0.0
 70
    16
  0
VERTEX
  5
31CC5
330
19EF4
100
AcDbEntity
  8
TITLE_BLOCK
  6
CONTINUOUS
 62
     7
100
AcDbVertex
100
AcDb2dVertex
 10
-22.095355
 20
-22.763793
 30
0.0
 70
    16
  0
VERTEX
  5
31CC6
330
19EF4
100
AcDbEntity
  8
TITLE_BLOCK
  6
CONTINUOUS
 62
     7
100
AcDbVertex
100
AcDb2dVertex
 10
-22.029359
 20
-22.763364
 30
0.0
 70
    16
  0
VERTEX
  5
31CC7
330
19EF4
100
AcDbEntity
  8
TITLE_BLOCK
  6
CONTINUOUS
 62
     7
100
AcDbVertex
100
AcDb2dVertex
 10
-21.962953
 20
-22.762192
 30
0.0
 70
    16
  0
VERTEX
  5
31CC8
330
19EF4
100
AcDbEntity
  8
TITLE_BLOCK
  6
CONTINUOUS
 62
     7
100
AcDbVertex
100
AcDb2dVertex
 10
-21.963754
 20
-22.936957
 30
0.0
 70
    16
  0
VERTEX
  5
31CC9
330
19EF4
100
AcDbEntity
  8
TITLE_BLOCK
  6
CONTINUOUS
 62
     7
100
AcDbVertex
100
AcDb2dVertex
 10
-21.964964
 20
-23.111762
 30
0.0
 70
    16
  0
VERTEX
  5
31CCA
330
19EF4
100
AcDbEntity
  8
TITLE_BLOCK
  6
CONTINUOUS
 62
     7
100
AcDbVertex
100
AcDb2dVertex
 10
-21.959359
 20
-23.286176
 30
0.0
 70
    16
  0
VERTEX
  5
31CCB
330
19EF4
100
AcDbEntity
  8
TITLE_BLOCK
  6
CONTINUOUS
 62
     7
100
AcDbVertex
100
AcDb2dVertex
 10
-21.854964
 20
-23.283793
 30
0.0
 70
    16
  0
VERTEX
  5
31CCC
330
19EF4
100
AcDbEntity
  8
TITLE_BLOCK
  6
CONTINUOUS
 62
     7
100
AcDbVertex
100
AcDb2dVertex
 10
-21.75016
 20
-23.284184
 30
0.0
 70
    16
  0
VERTEX
  5
31CCD
330
19EF4
100
AcDbEntity
  8
TITLE_BLOCK
  6
CONTINUOUS
 62
     7
100
AcDbVertex
100
AcDb2dVertex
 10
-21.645355
 20
-23.283364
 30
0.0
 70
    16
  0
VERTEX
  5
31CCE
330
19EF4
100
AcDbEntity
  8
TITLE_BLOCK
  6
CONTINUOUS
 62
     7
100
AcDbVertex
100
AcDb2dVertex
 10
-21.642953
 20
-23.336957
 30
0.0
 70
    16
  0
VERTEX
  5
31CCF
330
19EF4
100
AcDbEntity
  8
TITLE_BLOCK
  6
CONTINUOUS
 62
     7
100
AcDbVertex
100
AcDb2dVertex
 10
-21.640961
 20
-23.390161
 30
0.0
 70
    16
  0
VERTEX
  5
31CD0
330
19EF4
100
AcDbEntity
  8
TITLE_BLOCK
  6
CONTINUOUS
 62
     7
100
AcDbVertex
100
AcDb2dVertex
 10
-21.638558
 20
-23.443793
 30
0.0
 70
    16
  0
VERTEX
  5
31CD1
330
19EF4
100
AcDbEntity
  8
TITLE_BLOCK
  6
CONTINUOUS
 62
     7
100
AcDbVertex
100
AcDb2dVertex
 10
-21.812562
 20
-23.446176
 30
0.0
 70
    16
  0
VERTEX
  5
31CD2
330
19EF4
100
AcDbEntity
  8
TITLE_BLOCK
  6
CONTINUOUS
 62
     7
100
AcDbVertex
100
AcDb2dVertex
 10
-21.986957
 20
-23.442973
 30
0.0
 70
    16
  0
VERTEX
  5
31CD3
330
19EF4
100
AcDbEntity
  8
TITLE_BLOCK
  6
CONTINUOUS
 62
     7
100
AcDbVertex
100
AcDb2dVertex
 10
-22.160961
 20
-23.443364
 30
0.0
 70
    16
  0
VERTEX
  5
31CD4
330
19EF4
100
AcDbEntity
  8
TITLE_BLOCK
  6
CONTINUOUS
 62
     7
100
AcDbVertex
100
AcDb2dVertex
 10
-22.167367
 20
-23.217387
 30
0.0
 70
    16
  0
VERTEX
  5
31CD5
330
19EF4
100
AcDbEntity
  8
TITLE_BLOCK
  6
CONTINUOUS
 62
     7
100
AcDbVertex
100
AcDb2dVertex
 10
-22.162562
 20
-22.990981
 30
0.0
 70
    16
  0
VERTEX
  5
31CD6
330
19EF4
100
AcDbEntity
  8
TITLE_BLOCK
  6
CONTINUOUS
 62
     7
100
AcDbVertex
100
AcDb2dVertex
 10
-22.161761
 20
-22.764575
 30
0.0
 70
    16
  0
VERTEX
  5
31CD7
330
19EF4
100
AcDbEntity
  8
TITLE_BLOCK
  6
CONTINUOUS
 62
     7
100
AcDbVertex
100
AcDb2dVertex
 10
-22.161761
 20
-22.764575
 30
0.0
 70
    16
  0
VERTEX
  5
31CD8
330
19EF4
100
AcDbEntity
  8
TITLE_BLOCK
  6
CONTINUOUS
 62
     7
100
AcDbVertex
100
AcDb2dVertex
 10
-22.161761
 20
-22.764575
 30
0.0
 70
    16
  0
VERTEX
  5
31CD9
330
19EF4
100
AcDbEntity
  8
TITLE_BLOCK
  6
CONTINUOUS
 62
     7
100
AcDbVertex
100
AcDb2dVertex
 10
-22.161761
 20
-22.764575
 30
0.0
 70
    16
  0
SEQEND
  5
31CDA
330
19EF4
100
AcDbEntity
  8
TITLE_BLOCK
  6
CONTINUOUS
 62
     7
  0
POLYLINE
  5
19F18
330
31A96
100
AcDbEntity
  8
TITLE_BLOCK
  6
CONTINUOUS
 62
     7
100
AcDb2dPolyline
 66
     1
 10
0.0
 20
0.0
 30
0.0
 70
     5
 75
     5
  0
VERTEX
  5
31CDB
330
19F18
100
AcDbEntity
  8
TITLE_BLOCK
  6
CONTINUOUS
 62
     7
100
AcDbVertex
100
AcDb2dVertex
 10
-21.521761
 20
-22.764575
 30
0.0
 70
     8
  0
VERTEX
  5
31CDC
330
19F18
100
AcDbEntity
  8
TITLE_BLOCK
  6
CONTINUOUS
 62
     7
100
AcDbVertex
100
AcDb2dVertex
 10
-21.322953
 20
-22.762192
 30
0.0
 70
     8
  0
VERTEX
  5
31CDD
330
19F18
100
AcDbEntity
  8
TITLE_BLOCK
  6
CONTINUOUS
 62
     7
100
AcDbVertex
100
AcDb2dVertex
 10
-21.322953
 20
-23.443793
 30
0.0
 70
     8
  0
VERTEX
  5
31CDE
330
19F18
100
AcDbEntity
  8
TITLE_BLOCK
  6
CONTINUOUS
 62
     7
100
AcDbVertex
100
AcDb2dVertex
 10
-21.523754
 20
-23.443364
 30
0.0
 70
     8
  0
VERTEX
  5
31CDF
330
19F18
100
AcDbEntity
  8
TITLE_BLOCK
  6
CONTINUOUS
 62
     7
100
AcDbVertex
100
AcDb2dVertex
 10
-21.521761
 20
-22.764575
 30
0.0
 70
     8
  0
VERTEX
  5
31CE0
330
19F18
100
AcDbEntity
  8
TITLE_BLOCK
  6
CONTINUOUS
 62
     7
100
AcDbVertex
100
AcDb2dVertex
 10
-21.521761
 20
-22.764575
 30
0.0
 70
     8
  0
VERTEX
  5
31CE1
330
19F18
100
AcDbEntity
  8
TITLE_BLOCK
  6
CONTINUOUS
 62
     7
100
AcDbVertex
100
AcDb2dVertex
 10
-21.521761
 20
-22.764575
 30
0.0
 70
    16
  0
VERTEX
  5
31CE2
330
19F18
100
AcDbEntity
  8
TITLE_BLOCK
  6
CONTINUOUS
 62
     7
100
AcDbVertex
100
AcDb2dVertex
 10
-21.455355
 20
-22.763793
 30
0.0
 70
    16
  0
VERTEX
  5
31CE3
330
19F18
100
AcDbEntity
  8
TITLE_BLOCK
  6
CONTINUOUS
 62
     7
100
AcDbVertex
100
AcDb2dVertex
 10
-21.389359
 20
-22.763364
 30
0.0
 70
    16
  0
VERTEX
  5
31CE4
330
19F18
100
AcDbEntity
  8
TITLE_BLOCK
  6
CONTINUOUS
 62
     7
100
AcDbVertex
100
AcDb2dVertex
 10
-21.322953
 20
-22.762192
 30
0.0
 70
    16
  0
VERTEX
  5
31CE5
330
19F18
100
AcDbEntity
  8
TITLE_BLOCK
  6
CONTINUOUS
 62
     7
100
AcDbVertex
100
AcDb2dVertex
 10
-21.324164
 20
-22.989379
 30
0.0
 70
    16
  0
VERTEX
  5
31CE6
330
19F18
100
AcDbEntity
  8
TITLE_BLOCK
  6
CONTINUOUS
 62
     7
100
AcDbVertex
100
AcDb2dVertex
 10
-21.322172
 20
-23.216567
 30
0.0
 70
    16
  0
VERTEX
  5
31CE7
330
19F18
100
AcDbEntity
  8
TITLE_BLOCK
  6
CONTINUOUS
 62
     7
100
AcDbVertex
100
AcDb2dVertex
 10
-21.322953
 20
-23.443793
 30
0.0
 70
    16
  0
VERTEX
  5
31CE8
330
19F18
100
AcDbEntity
  8
TITLE_BLOCK
  6
CONTINUOUS
 62
     7
100
AcDbVertex
100
AcDb2dVertex
 10
-21.39016
 20
-23.443364
 30
0.0
 70
    16
  0
VERTEX
  5
31CE9
330
19F18
100
AcDbEntity
  8
TITLE_BLOCK
  6
CONTINUOUS
 62
     7
100
AcDbVertex
100
AcDb2dVertex
 10
-21.456957
 20
-23.443364
 30
0.0
 70
    16
  0
VERTEX
  5
31CEA
330
19F18
100
AcDbEntity
  8
TITLE_BLOCK
  6
CONTINUOUS
 62
     7
100
AcDbVertex
100
AcDb2dVertex
 10
-21.523754
 20
-23.443364
 30
0.0
 70
    16
  0
VERTEX
  5
31CEB
330
19F18
100
AcDbEntity
  8
TITLE_BLOCK
  6
CONTINUOUS
 62
     7
100
AcDbVertex
100
AcDb2dVertex
 10
-21.520961
 20
-23.216957
 30
0.0
 70
    16
  0
VERTEX
  5
31CEC
330
19F18
100
AcDbEntity
  8
TITLE_BLOCK
  6
CONTINUOUS
 62
     7
100
AcDbVertex
100
AcDb2dVertex
 10
-21.524554
 20
-22.990981
 30
0.0
 70
    16
  0
VERTEX
  5
31CED
330
19F18
100
AcDbEntity
  8
TITLE_BLOCK
  6
CONTINUOUS
 62
     7
100
AcDbVertex
100
AcDb2dVertex
 10
-21.521761
 20
-22.764575
 30
0.0
 70
    16
  0
VERTEX
  5
31CEE
330
19F18
100
AcDbEntity
  8
TITLE_BLOCK
  6
CONTINUOUS
 62
     7
100
AcDbVertex
100
AcDb2dVertex
 10
-21.521761
 20
-22.764575
 30
0.0
 70
    16
  0
VERTEX
  5
31CEF
330
19F18
100
AcDbEntity
  8
TITLE_BLOCK
  6
CONTINUOUS
 62
     7
100
AcDbVertex
100
AcDb2dVertex
 10
-21.521761
 20
-22.764575
 30
0.0
 70
    16
  0
VERTEX
  5
31CF0
330
19F18
100
AcDbEntity
  8
TITLE_BLOCK
  6
CONTINUOUS
 62
     7
100
AcDbVertex
100
AcDb2dVertex
 10
-21.521761
 20
-22.764575
 30
0.0
 70
    16
  0
SEQEND
  5
31CF1
330
19F18
100
AcDbEntity
  8
TITLE_BLOCK
  6
CONTINUOUS
 62
     7
  0
POLYLINE
  5
19F2F
330
31A96
100
AcDbEntity
  8
TITLE_BLOCK
  6
CONTINUOUS
 62
     7
100
AcDb2dPolyline
 66
     1
 10
0.0
 20
0.0
 30
0.0
 70
     5
 75
     5
  0
VERTEX
  5
31CF2
330
19F2F
100
AcDbEntity
  8
TITLE_BLOCK
  6
CONTINUOUS
 62
     7
100
AcDbVertex
100
AcDb2dVertex
 10
-21.165765
 20
-22.762973
 30
0.0
 70
     8
  0
VERTEX
  5
31CF3
330
19F2F
100
AcDbEntity
  8
TITLE_BLOCK
  6
CONTINUOUS
 62
     7
100
AcDbVertex
100
AcDb2dVertex
 10
-21.104838
 20
-22.765725
 30
0.0
 70
     8
  0
VERTEX
  5
31CF4
330
19F2F
100
AcDbEntity
  8
TITLE_BLOCK
  6
CONTINUOUS
 62
     7
100
AcDbVertex
100
AcDb2dVertex
 10
-21.042997
 20
-22.764714
 30
0.0
 70
     8
  0
VERTEX
  5
31CF5
330
19F2F
100
AcDbEntity
  8
TITLE_BLOCK
  6
CONTINUOUS
 62
     7
100
AcDbVertex
100
AcDb2dVertex
 10
-20.918617
 20
-22.760673
 30
0.0
 70
     8
  0
VERTEX
  5
31CF6
330
19F2F
100
AcDbEntity
  8
TITLE_BLOCK
  6
CONTINUOUS
 62
     7
100
AcDbVertex
100
AcDb2dVertex
 10
-20.8571
 20
-22.762276
 30
0.0
 70
     8
  0
VERTEX
  5
31CF7
330
19F2F
100
AcDbEntity
  8
TITLE_BLOCK
  6
CONTINUOUS
 62
     7
100
AcDbVertex
100
AcDb2dVertex
 10
-20.826733
 20
-22.764997
 30
0.0
 70
     8
  0
VERTEX
  5
31CF8
330
19F2F
100
AcDbEntity
  8
TITLE_BLOCK
  6
CONTINUOUS
 62
     7
100
AcDbVertex
100
AcDb2dVertex
 10
-20.796713
 20
-22.769384
 30
0.0
 70
     8
  0
VERTEX
  5
31CF9
330
19F2F
100
AcDbEntity
  8
TITLE_BLOCK
  6
CONTINUOUS
 62
     7
100
AcDbVertex
100
AcDb2dVertex
 10
-20.767102
 20
-22.775726
 30
0.0
 70
     8
  0
VERTEX
  5
31CFA
330
19F2F
100
AcDbEntity
  8
TITLE_BLOCK
  6
CONTINUOUS
 62
     7
100
AcDbVertex
100
AcDb2dVertex
 10
-20.737966
 20
-22.784312
 30
0.0
 70
     8
  0
VERTEX
  5
31CFB
330
19F2F
100
AcDbEntity
  8
TITLE_BLOCK
  6
CONTINUOUS
 62
     7
100
AcDbVertex
100
AcDb2dVertex
 10
-20.709367
 20
-22.795434
 30
0.0
 70
     8
  0
VERTEX
  5
31CFC
330
19F2F
100
AcDbEntity
  8
TITLE_BLOCK
  6
CONTINUOUS
 62
     7
100
AcDbVertex
100
AcDb2dVertex
 10
-20.681371
 20
-22.809379
 30
0.0
 70
     8
  0
VERTEX
  5
31CFD
330
19F2F
100
AcDbEntity
  8
TITLE_BLOCK
  6
CONTINUOUS
 62
     7
100
AcDbVertex
100
AcDb2dVertex
 10
-20.667146
 20
-22.825541
 30
0.0
 70
     8
  0
VERTEX
  5
31CFE
330
19F2F
100
AcDbEntity
  8
TITLE_BLOCK
  6
CONTINUOUS
 62
     7
100
AcDbVertex
100
AcDb2dVertex
 10
-20.654341
 20
-22.842749
 30
0.0
 70
     8
  0
VERTEX
  5
31CFF
330
19F2F
100
AcDbEntity
  8
TITLE_BLOCK
  6
CONTINUOUS
 62
     7
100
AcDbVertex
100
AcDb2dVertex
 10
-20.642978
 20
-22.860885
 30
0.0
 70
     8
  0
VERTEX
  5
31D00
330
19F2F
100
AcDbEntity
  8
TITLE_BLOCK
  6
CONTINUOUS
 62
     7
100
AcDbVertex
100
AcDb2dVertex
 10
-20.633078
 20
-22.879833
 30
0.0
 70
     8
  0
VERTEX
  5
31D01
330
19F2F
100
AcDbEntity
  8
TITLE_BLOCK
  6
CONTINUOUS
 62
     7
100
AcDbVertex
100
AcDb2dVertex
 10
-20.624664
 20
-22.899478
 30
0.0
 70
     8
  0
VERTEX
  5
31D02
330
19F2F
100
AcDbEntity
  8
TITLE_BLOCK
  6
CONTINUOUS
 62
     7
100
AcDbVertex
100
AcDb2dVertex
 10
-20.617759
 20
-22.919701
 30
0.0
 70
     8
  0
VERTEX
  5
31D03
330
19F2F
100
AcDbEntity
  8
TITLE_BLOCK
  6
CONTINUOUS
 62
     7
100
AcDbVertex
100
AcDb2dVertex
 10
-20.612385
 20
-22.940388
 30
0.0
 70
     8
  0
VERTEX
  5
31D04
330
19F2F
100
AcDbEntity
  8
TITLE_BLOCK
  6
CONTINUOUS
 62
     7
100
AcDbVertex
100
AcDb2dVertex
 10
-20.608563
 20
-22.96142
 30
0.0
 70
     8
  0
VERTEX
  5
31D05
330
19F2F
100
AcDbEntity
  8
TITLE_BLOCK
  6
CONTINUOUS
 62
     7
100
AcDbVertex
100
AcDb2dVertex
 10
-20.606317
 20
-22.982683
 30
0.0
 70
     8
  0
VERTEX
  5
31D06
330
19F2F
100
AcDbEntity
  8
TITLE_BLOCK
  6
CONTINUOUS
 62
     7
100
AcDbVertex
100
AcDb2dVertex
 10
-20.605668
 20
-23.004059
 30
0.0
 70
     8
  0
VERTEX
  5
31D07
330
19F2F
100
AcDbEntity
  8
TITLE_BLOCK
  6
CONTINUOUS
 62
     7
100
AcDbVertex
100
AcDb2dVertex
 10
-20.606638
 20
-23.025431
 30
0.0
 70
     8
  0
VERTEX
  5
31D08
330
19F2F
100
AcDbEntity
  8
TITLE_BLOCK
  6
CONTINUOUS
 62
     7
100
AcDbVertex
100
AcDb2dVertex
 10
-20.609251
 20
-23.046684
 30
0.0
 70
     8
  0
VERTEX
  5
31D09
330
19F2F
100
AcDbEntity
  8
TITLE_BLOCK
  6
CONTINUOUS
 62
     7
100
AcDbVertex
100
AcDb2dVertex
 10
-20.613528
 20
-23.067701
 30
0.0
 70
     8
  0
VERTEX
  5
31D0A
330
19F2F
100
AcDbEntity
  8
TITLE_BLOCK
  6
CONTINUOUS
 62
     7
100
AcDbVertex
100
AcDb2dVertex
 10
-20.619491
 20
-23.088365
 30
0.0
 70
     8
  0
VERTEX
  5
31D0B
330
19F2F
100
AcDbEntity
  8
TITLE_BLOCK
  6
CONTINUOUS
 62
     7
100
AcDbVertex
100
AcDb2dVertex
 10
-20.627163
 20
-23.108559
 30
0.0
 70
     8
  0
VERTEX
  5
31D0C
330
19F2F
100
AcDbEntity
  8
TITLE_BLOCK
  6
CONTINUOUS
 62
     7
100
AcDbVertex
100
AcDb2dVertex
 10
-20.636566
 20
-23.128168
 30
0.0
 70
     8
  0
VERTEX
  5
31D0D
330
19F2F
100
AcDbEntity
  8
TITLE_BLOCK
  6
CONTINUOUS
 62
     7
100
AcDbVertex
100
AcDb2dVertex
 10
-20.64816
 20
-23.14971
 30
0.0
 70
     8
  0
VERTEX
  5
31D0E
330
19F2F
100
AcDbEntity
  8
TITLE_BLOCK
  6
CONTINUOUS
 62
     7
100
AcDbVertex
100
AcDb2dVertex
 10
-20.661945
 20
-23.168294
 30
0.0
 70
     8
  0
VERTEX
  5
31D0F
330
19F2F
100
AcDbEntity
  8
TITLE_BLOCK
  6
CONTINUOUS
 62
     7
100
AcDbVertex
100
AcDb2dVertex
 10
-20.677702
 20
-23.184159
 30
0.0
 70
     8
  0
VERTEX
  5
31D10
330
19F2F
100
AcDbEntity
  8
TITLE_BLOCK
  6
CONTINUOUS
 62
     7
100
AcDbVertex
100
AcDb2dVertex
 10
-20.695213
 20
-23.197545
 30
0.0
 70
     8
  0
VERTEX
  5
31D11
330
19F2F
100
AcDbEntity
  8
TITLE_BLOCK
  6
CONTINUOUS
 62
     7
100
AcDbVertex
100
AcDb2dVertex
 10
-20.714258
 20
-23.208689
 30
0.0
 70
     8
  0
VERTEX
  5
31D12
330
19F2F
100
AcDbEntity
  8
TITLE_BLOCK
  6
CONTINUOUS
 62
     7
100
AcDbVertex
100
AcDb2dVertex
 10
-20.73462
 20
-23.217832
 30
0.0
 70
     8
  0
VERTEX
  5
31D13
330
19F2F
100
AcDbEntity
  8
TITLE_BLOCK
  6
CONTINUOUS
 62
     7
100
AcDbVertex
100
AcDb2dVertex
 10
-20.75608
 20
-23.225212
 30
0.0
 70
     8
  0
VERTEX
  5
31D14
330
19F2F
100
AcDbEntity
  8
TITLE_BLOCK
  6
CONTINUOUS
 62
     7
100
AcDbVertex
100
AcDb2dVertex
 10
-20.778419
 20
-23.231069
 30
0.0
 70
     8
  0
VERTEX
  5
31D15
330
19F2F
100
AcDbEntity
  8
TITLE_BLOCK
  6
CONTINUOUS
 62
     7
100
AcDbVertex
100
AcDb2dVertex
 10
-20.824861
 20
-23.239168
 30
0.0
 70
     8
  0
VERTEX
  5
31D16
330
19F2F
100
AcDbEntity
  8
TITLE_BLOCK
  6
CONTINUOUS
 62
     7
100
AcDbVertex
100
AcDb2dVertex
 10
-20.872198
 20
-23.244041
 30
0.0
 70
     8
  0
VERTEX
  5
31D17
330
19F2F
100
AcDbEntity
  8
TITLE_BLOCK
  6
CONTINUOUS
 62
     7
100
AcDbVertex
100
AcDb2dVertex
 10
-20.962562
 20
-23.251762
 30
0.0
 70
     8
  0
VERTEX
  5
31D18
330
19F2F
100
AcDbEntity
  8
TITLE_BLOCK
  6
CONTINUOUS
 62
     7
100
AcDbVertex
100
AcDb2dVertex
 10
-20.960961
 20
-23.442582
 30
0.0
 70
     8
  0
VERTEX
  5
31D19
330
19F2F
100
AcDbEntity
  8
TITLE_BLOCK
  6
CONTINUOUS
 62
     7
100
AcDbVertex
100
AcDb2dVertex
 10
-21.161371
 20
-23.447387
 30
0.0
 70
     8
  0
VERTEX
  5
31D1A
330
19F2F
100
AcDbEntity
  8
TITLE_BLOCK
  6
CONTINUOUS
 62
     7
100
AcDbVertex
100
AcDb2dVertex
 10
-21.163063
 20
-23.27632
 30
0.0
 70
     8
  0
VERTEX
  5
31D1B
330
19F2F
100
AcDbEntity
  8
TITLE_BLOCK
  6
CONTINUOUS
 62
     7
100
AcDbVertex
100
AcDb2dVertex
 10
-21.16266
 20
-23.10518
 30
0.0
 70
     8
  0
VERTEX
  5
31D1C
330
19F2F
100
AcDbEntity
  8
TITLE_BLOCK
  6
CONTINUOUS
 62
     7
100
AcDbVertex
100
AcDb2dVertex
 10
-21.162711
 20
-22.93404
 30
0.0
 70
     8
  0
VERTEX
  5
31D1D
330
19F2F
100
AcDbEntity
  8
TITLE_BLOCK
  6
CONTINUOUS
 62
     7
100
AcDbVertex
100
AcDb2dVertex
 10
-21.165765
 20
-22.762973
 30
0.0
 70
     8
  0
VERTEX
  5
31D1E
330
19F2F
100
AcDbEntity
  8
TITLE_BLOCK
  6
CONTINUOUS
 62
     7
100
AcDbVertex
100
AcDb2dVertex
 10
-21.165765
 20
-22.762973
 30
0.0
 70
     8
  0
VERTEX
  5
31D1F
330
19F2F
100
AcDbEntity
  8
TITLE_BLOCK
  6
CONTINUOUS
 62
     7
100
AcDbVertex
100
AcDb2dVertex
 10
-21.165765
 20
-22.762973
 30
0.0
 70
    16
  0
VERTEX
  5
31D20
330
19F2F
100
AcDbEntity
  8
TITLE_BLOCK
  6
CONTINUOUS
 62
     7
100
AcDbVertex
100
AcDb2dVertex
 10
-21.004964
 20
-22.777387
 30
0.0
 70
    16
  0
VERTEX
  5
31D21
330
19F2F
100
AcDbEntity
  8
TITLE_BLOCK
  6
CONTINUOUS
 62
     7
100
AcDbVertex
100
AcDb2dVertex
 10
-20.828968
 20
-22.726957
 30
0.0
 70
    16
  0
VERTEX
  5
31D22
330
19F2F
100
AcDbEntity
  8
TITLE_BLOCK
  6
CONTINUOUS
 62
     7
100
AcDbVertex
100
AcDb2dVertex
 10
-20.681371
 20
-22.809379
 30
0.0
 70
    16
  0
VERTEX
  5
31D23
330
19F2F
100
AcDbEntity
  8
TITLE_BLOCK
  6
CONTINUOUS
 62
     7
100
AcDbVertex
100
AcDb2dVertex
 10
-20.601761
 20
-22.892582
 30
0.0
 70
    16
  0
VERTEX
  5
31D24
330
19F2F
100
AcDbEntity
  8
TITLE_BLOCK
  6
CONTINUOUS
 62
     7
100
AcDbVertex
100
AcDb2dVertex
 10
-20.581761
 20
-23.025356
 30
0.0
 70
    16
  0
VERTEX
  5
31D25
330
19F2F
100
AcDbEntity
  8
TITLE_BLOCK
  6
CONTINUOUS
 62
     7
100
AcDbVertex
100
AcDb2dVertex
 10
-20.636566
 20
-23.128168
 30
0.0
 70
    16
  0
VERTEX
  5
31D26
330
19F2F
100
AcDbEntity
  8
TITLE_BLOCK
  6
CONTINUOUS
 62
     7
100
AcDbVertex
100
AcDb2dVertex
 10
-20.692172
 20
-23.251372
 30
0.0
 70
    16
  0
VERTEX
  5
31D27
330
19F2F
100
AcDbEntity
  8
TITLE_BLOCK
  6
CONTINUOUS
 62
     7
100
AcDbVertex
100
AcDb2dVertex
 10
-20.85057
 20
-23.238168
 30
0.0
 70
    16
  0
VERTEX
  5
31D28
330
19F2F
100
AcDbEntity
  8
TITLE_BLOCK
  6
CONTINUOUS
 62
     7
100
AcDbVertex
100
AcDb2dVertex
 10
-20.962562
 20
-23.251762
 30
0.0
 70
    16
  0
VERTEX
  5
31D29
330
19F2F
100
AcDbEntity
  8
TITLE_BLOCK
  6
CONTINUOUS
 62
     7
100
AcDbVertex
100
AcDb2dVertex
 10
-20.962172
 20
-23.315356
 30
0.0
 70
    16
  0
VERTEX
  5
31D2A
330
19F2F
100
AcDbEntity
  8
TITLE_BLOCK
  6
CONTINUOUS
 62
     7
100
AcDbVertex
100
AcDb2dVertex
 10
-20.961371
 20
-23.378989
 30
0.0
 70
    16
  0
VERTEX
  5
31D2B
330
19F2F
100
AcDbEntity
  8
TITLE_BLOCK
  6
CONTINUOUS
 62
     7
100
AcDbVertex
100
AcDb2dVertex
 10
-20.960961
 20
-23.442582
 30
0.0
 70
    16
  0
VERTEX
  5
31D2C
330
19F2F
100
AcDbEntity
  8
TITLE_BLOCK
  6
CONTINUOUS
 62
     7
100
AcDbVertex
100
AcDb2dVertex
 10
-21.027757
 20
-23.443793
 30
0.0
 70
    16
  0
VERTEX
  5
31D2D
330
19F2F
100
AcDbEntity
  8
TITLE_BLOCK
  6
CONTINUOUS
 62
     7
100
AcDbVertex
100
AcDb2dVertex
 10
-21.094554
 20
-23.445356
 30
0.0
 70
    16
  0
VERTEX
  5
31D2E
330
19F2F
100
AcDbEntity
  8
TITLE_BLOCK
  6
CONTINUOUS
 62
     7
100
AcDbVertex
100
AcDb2dVertex
 10
-21.161371
 20
-23.447387
 30
0.0
 70
    16
  0
VERTEX
  5
31D2F
330
19F2F
100
AcDbEntity
  8
TITLE_BLOCK
  6
CONTINUOUS
 62
     7
100
AcDbVertex
100
AcDb2dVertex
 10
-21.166156
 20
-23.219379
 30
0.0
 70
    16
  0
VERTEX
  5
31D30
330
19F2F
100
AcDbEntity
  8
TITLE_BLOCK
  6
CONTINUOUS
 62
     7
100
AcDbVertex
100
AcDb2dVertex
 10
-21.158558
 20
-22.990981
 30
0.0
 70
    16
  0
VERTEX
  5
31D31
330
19F2F
100
AcDbEntity
  8
TITLE_BLOCK
  6
CONTINUOUS
 62
     7
100
AcDbVertex
100
AcDb2dVertex
 10
-21.165765
 20
-22.762973
 30
0.0
 70
    16
  0
VERTEX
  5
31D32
330
19F2F
100
AcDbEntity
  8
TITLE_BLOCK
  6
CONTINUOUS
 62
     7
100
AcDbVertex
100
AcDb2dVertex
 10
-21.165765
 20
-22.762973
 30
0.0
 70
    16
  0
VERTEX
  5
31D33
330
19F2F
100
AcDbEntity
  8
TITLE_BLOCK
  6
CONTINUOUS
 62
     7
100
AcDbVertex
100
AcDb2dVertex
 10
-21.165765
 20
-22.762973
 30
0.0
 70
    16
  0
VERTEX
  5
31D34
330
19F2F
100
AcDbEntity
  8
TITLE_BLOCK
  6
CONTINUOUS
 62
     7
100
AcDbVertex
100
AcDb2dVertex
 10
-21.165765
 20
-22.762973
 30
0.0
 70
    16
  0
SEQEND
  5
31D35
330
19F2F
100
AcDbEntity
  8
TITLE_BLOCK
  6
CONTINUOUS
 62
     7
  0
POLYLINE
  5
19F73
330
31A96
100
AcDbEntity
  8
TITLE_BLOCK
  6
CONTINUOUS
 62
     7
100
AcDb2dPolyline
 66
     1
 10
0.0
 20
0.0
 30
0.0
 70
     5
 75
     5
  0
VERTEX
  5
31D36
330
19F73
100
AcDbEntity
  8
TITLE_BLOCK
  6
CONTINUOUS
 62
     7
100
AcDbVertex
100
AcDb2dVertex
 10
-20.298968
 20
-22.764184
 30
0.0
 70
     8
  0
VERTEX
  5
31D37
330
19F73
100
AcDbEntity
  8
TITLE_BLOCK
  6
CONTINUOUS
 62
     7
100
AcDbVertex
100
AcDb2dVertex
 10
-20.23593
 20
-22.768387
 30
0.0
 70
     8
  0
VERTEX
  5
31D38
330
19F73
100
AcDbEntity
  8
TITLE_BLOCK
  6
CONTINUOUS
 62
     7
100
AcDbVertex
100
AcDb2dVertex
 10
-20.173309
 20
-22.776831
 30
0.0
 70
     8
  0
VERTEX
  5
31D39
330
19F73
100
AcDbEntity
  8
TITLE_BLOCK
  6
CONTINUOUS
 62
     7
100
AcDbVertex
100
AcDb2dVertex
 10
-20.048558
 20
-22.799379
 30
0.0
 70
     8
  0
VERTEX
  5
31D3A
330
19F73
100
AcDbEntity
  8
TITLE_BLOCK
  6
CONTINUOUS
 62
     7
100
AcDbVertex
100
AcDb2dVertex
 10
-20.002909
 20
-22.880073
 30
0.0
 70
     8
  0
VERTEX
  5
31D3B
330
19F73
100
AcDbEntity
  8
TITLE_BLOCK
  6
CONTINUOUS
 62
     7
100
AcDbVertex
100
AcDb2dVertex
 10
-19.96057
 20
-22.962582
 30
0.0
 70
     8
  0
VERTEX
  5
31D3C
330
19F73
100
AcDbEntity
  8
TITLE_BLOCK
  6
CONTINUOUS
 62
     7
100
AcDbVertex
100
AcDb2dVertex
 10
-20.021101
 20
-22.965157
 30
0.0
 70
     8
  0
VERTEX
  5
31D3D
330
19F73
100
AcDbEntity
  8
TITLE_BLOCK
  6
CONTINUOUS
 62
     7
100
AcDbVertex
100
AcDb2dVertex
 10
-20.081859
 20
-22.966127
 30
0.0
 70
     8
  0
VERTEX
  5
31D3E
330
19F73
100
AcDbEntity
  8
TITLE_BLOCK
  6
CONTINUOUS
 62
     7
100
AcDbVertex
100
AcDb2dVertex
 10
-20.111643
 20
-22.963395
 30
0.0
 70
     8
  0
VERTEX
  5
31D3F
330
19F73
100
AcDbEntity
  8
TITLE_BLOCK
  6
CONTINUOUS
 62
     7
100
AcDbVertex
100
AcDb2dVertex
 10
-20.140669
 20
-22.957122
 30
0.0
 70
     8
  0
VERTEX
  5
31D40
330
19F73
100
AcDbEntity
  8
TITLE_BLOCK
  6
CONTINUOUS
 62
     7
100
AcDbVertex
100
AcDb2dVertex
 10
-20.168663
 20
-22.946263
 30
0.0
 70
     8
  0
VERTEX
  5
31D41
330
19F73
100
AcDbEntity
  8
TITLE_BLOCK
  6
CONTINUOUS
 62
     7
100
AcDbVertex
100
AcDb2dVertex
 10
-20.195355
 20
-22.92977
 30
0.0
 70
     8
  0
VERTEX
  5
31D42
330
19F73
100
AcDbEntity
  8
TITLE_BLOCK
  6
CONTINUOUS
 62
     7
100
AcDbVertex
100
AcDb2dVertex
 10
-20.333754
 20
-22.926957
 30
0.0
 70
     8
  0
VERTEX
  5
31D43
330
19F73
100
AcDbEntity
  8
TITLE_BLOCK
  6
CONTINUOUS
 62
     7
100
AcDbVertex
100
AcDb2dVertex
 10
-20.330629
 20
-22.947832
 30
0.0
 70
     8
  0
VERTEX
  5
31D44
330
19F73
100
AcDbEntity
  8
TITLE_BLOCK
  6
CONTINUOUS
 62
     7
100
AcDbVertex
100
AcDb2dVertex
 10
-20.324601
 20
-22.965502
 30
0.0
 70
     8
  0
VERTEX
  5
31D45
330
19F73
100
AcDbEntity
  8
TITLE_BLOCK
  6
CONTINUOUS
 62
     7
100
AcDbVertex
100
AcDb2dVertex
 10
-20.31596
 20
-22.98028
 30
0.0
 70
     8
  0
VERTEX
  5
31D46
330
19F73
100
AcDbEntity
  8
TITLE_BLOCK
  6
CONTINUOUS
 62
     7
100
AcDbVertex
100
AcDb2dVertex
 10
-20.305
 20
-22.992479
 30
0.0
 70
     8
  0
VERTEX
  5
31D47
330
19F73
100
AcDbEntity
  8
TITLE_BLOCK
  6
CONTINUOUS
 62
     7
100
AcDbVertex
100
AcDb2dVertex
 10
-20.292013
 20
-23.002411
 30
0.0
 70
     8
  0
VERTEX
  5
31D48
330
19F73
100
AcDbEntity
  8
TITLE_BLOCK
  6
CONTINUOUS
 62
     7
100
AcDbVertex
100
AcDb2dVertex
 10
-20.277291
 20
-23.010388
 30
0.0
 70
     8
  0
VERTEX
  5
31D49
330
19F73
100
AcDbEntity
  8
TITLE_BLOCK
  6
CONTINUOUS
 62
     7
100
AcDbVertex
100
AcDb2dVertex
 10
-20.243812
 20
-23.021728
 30
0.0
 70
     8
  0
VERTEX
  5
31D4A
330
19F73
100
AcDbEntity
  8
TITLE_BLOCK
  6
CONTINUOUS
 62
     7
100
AcDbVertex
100
AcDb2dVertex
 10
-20.206902
 20
-23.028997
 30
0.0
 70
     8
  0
VERTEX
  5
31D4B
330
19F73
100
AcDbEntity
  8
TITLE_BLOCK
  6
CONTINUOUS
 62
     7
100
AcDbVertex
100
AcDb2dVertex
 10
-20.168898
 20
-23.034695
 30
0.0
 70
     8
  0
VERTEX
  5
31D4C
330
19F73
100
AcDbEntity
  8
TITLE_BLOCK
  6
CONTINUOUS
 62
     7
100
AcDbVertex
100
AcDb2dVertex
 10
-20.132141
 20
-23.04132
 30
0.0
 70
     8
  0
VERTEX
  5
31D4D
330
19F73
100
AcDbEntity
  8
TITLE_BLOCK
  6
CONTINUOUS
 62
     7
100
AcDbVertex
100
AcDb2dVertex
 10
-20.098968
 20
-23.051372
 30
0.0
 70
     8
  0
VERTEX
  5
31D4E
330
19F73
100
AcDbEntity
  8
TITLE_BLOCK
  6
CONTINUOUS
 62
     7
100
AcDbVertex
100
AcDb2dVertex
 10
-20.075645
 20
-23.05566
 30
0.0
 70
     8
  0
VERTEX
  5
31D4F
330
19F73
100
AcDbEntity
  8
TITLE_BLOCK
  6
CONTINUOUS
 62
     7
100
AcDbVertex
100
AcDb2dVertex
 10
-20.053101
 20
-23.062943
 30
0.0
 70
     8
  0
VERTEX
  5
31D50
330
19F73
100
AcDbEntity
  8
TITLE_BLOCK
  6
CONTINUOUS
 62
     7
100
AcDbVertex
100
AcDb2dVertex
 10
-20.031588
 20
-23.072951
 30
0.0
 70
     8
  0
VERTEX
  5
31D51
330
19F73
100
AcDbEntity
  8
TITLE_BLOCK
  6
CONTINUOUS
 62
     7
100
AcDbVertex
100
AcDb2dVertex
 10
-20.01136
 20
-23.085416
 30
0.0
 70
     8
  0
VERTEX
  5
31D52
330
19F73
100
AcDbEntity
  8
TITLE_BLOCK
  6
CONTINUOUS
 62
     7
100
AcDbVertex
100
AcDb2dVertex
 10
-19.99267
 20
-23.10007
 30
0.0
 70
     8
  0
VERTEX
  5
31D53
330
19F73
100
AcDbEntity
  8
TITLE_BLOCK
  6
CONTINUOUS
 62
     7
100
AcDbVertex
100
AcDb2dVertex
 10
-19.975771
 20
-23.116645
 30
0.0
 70
     8
  0
VERTEX
  5
31D54
330
19F73
100
AcDbEntity
  8
TITLE_BLOCK
  6
CONTINUOUS
 62
     7
100
AcDbVertex
100
AcDb2dVertex
 10
-19.960916
 20
-23.134871
 30
0.0
 70
     8
  0
VERTEX
  5
31D55
330
19F73
100
AcDbEntity
  8
TITLE_BLOCK
  6
CONTINUOUS
 62
     7
100
AcDbVertex
100
AcDb2dVertex
 10
-19.948358
 20
-23.154482
 30
0.0
 70
     8
  0
VERTEX
  5
31D56
330
19F73
100
AcDbEntity
  8
TITLE_BLOCK
  6
CONTINUOUS
 62
     7
100
AcDbVertex
100
AcDb2dVertex
 10
-19.93835
 20
-23.175208
 30
0.0
 70
     8
  0
VERTEX
  5
31D57
330
19F73
100
AcDbEntity
  8
TITLE_BLOCK
  6
CONTINUOUS
 62
     7
100
AcDbVertex
100
AcDb2dVertex
 10
-19.931146
 20
-23.196781
 30
0.0
 70
     8
  0
VERTEX
  5
31D58
330
19F73
100
AcDbEntity
  8
TITLE_BLOCK
  6
CONTINUOUS
 62
     7
100
AcDbVertex
100
AcDb2dVertex
 10
-19.926998
 20
-23.218934
 30
0.0
 70
     8
  0
VERTEX
  5
31D59
330
19F73
100
AcDbEntity
  8
TITLE_BLOCK
  6
CONTINUOUS
 62
     7
100
AcDbVertex
100
AcDb2dVertex
 10
-19.926159
 20
-23.241397
 30
0.0
 70
     8
  0
VERTEX
  5
31D5A
330
19F73
100
AcDbEntity
  8
TITLE_BLOCK
  6
CONTINUOUS
 62
     7
100
AcDbVertex
100
AcDb2dVertex
 10
-19.928883
 20
-23.263902
 30
0.0
 70
     8
  0
VERTEX
  5
31D5B
330
19F73
100
AcDbEntity
  8
TITLE_BLOCK
  6
CONTINUOUS
 62
     7
100
AcDbVertex
100
AcDb2dVertex
 10
-19.935422
 20
-23.286181
 30
0.0
 70
     8
  0
VERTEX
  5
31D5C
330
19F73
100
AcDbEntity
  8
TITLE_BLOCK
  6
CONTINUOUS
 62
     7
100
AcDbVertex
100
AcDb2dVertex
 10
-19.946031
 20
-23.307966
 30
0.0
 70
     8
  0
VERTEX
  5
31D5D
330
19F73
100
AcDbEntity
  8
TITLE_BLOCK
  6
CONTINUOUS
 62
     7
100
AcDbVertex
100
AcDb2dVertex
 10
-19.960961
 20
-23.328989
 30
0.0
 70
     8
  0
VERTEX
  5
31D5E
330
19F73
100
AcDbEntity
  8
TITLE_BLOCK
  6
CONTINUOUS
 62
     7
100
AcDbVertex
100
AcDb2dVertex
 10
-19.976654
 20
-23.345186
 30
0.0
 70
     8
  0
VERTEX
  5
31D5F
330
19F73
100
AcDbEntity
  8
TITLE_BLOCK
  6
CONTINUOUS
 62
     7
100
AcDbVertex
100
AcDb2dVertex
 10
-19.993449
 20
-23.36018
 30
0.0
 70
     8
  0
VERTEX
  5
31D60
330
19F73
100
AcDbEntity
  8
TITLE_BLOCK
  6
CONTINUOUS
 62
     7
100
AcDbVertex
100
AcDb2dVertex
 10
-20.011256
 20
-23.373966
 30
0.0
 70
     8
  0
VERTEX
  5
31D61
330
19F73
100
AcDbEntity
  8
TITLE_BLOCK
  6
CONTINUOUS
 62
     7
100
AcDbVertex
100
AcDb2dVertex
 10
-20.029984
 20
-23.386541
 30
0.0
 70
     8
  0
VERTEX
  5
31D62
330
19F73
100
AcDbEntity
  8
TITLE_BLOCK
  6
CONTINUOUS
 62
     7
100
AcDbVertex
100
AcDb2dVertex
 10
-20.069849
 20
-23.408041
 30
0.0
 70
     8
  0
VERTEX
  5
31D63
330
19F73
100
AcDbEntity
  8
TITLE_BLOCK
  6
CONTINUOUS
 62
     7
100
AcDbVertex
100
AcDb2dVertex
 10
-20.112328
 20
-23.424648
 30
0.0
 70
     8
  0
VERTEX
  5
31D64
330
19F73
100
AcDbEntity
  8
TITLE_BLOCK
  6
CONTINUOUS
 62
     7
100
AcDbVertex
100
AcDb2dVertex
 10
-20.156706
 20
-23.436331
 30
0.0
 70
     8
  0
VERTEX
  5
31D65
330
19F73
100
AcDbEntity
  8
TITLE_BLOCK
  6
CONTINUOUS
 62
     7
100
AcDbVertex
100
AcDb2dVertex
 10
-20.202265
 20
-23.44306
 30
0.0
 70
     8
  0
VERTEX
  5
31D66
330
19F73
100
AcDbEntity
  8
TITLE_BLOCK
  6
CONTINUOUS
 62
     7
100
AcDbVertex
100
AcDb2dVertex
 10
-20.24829
 20
-23.444802
 30
0.0
 70
     8
  0
VERTEX
  5
31D67
330
19F73
100
AcDbEntity
  8
TITLE_BLOCK
  6
CONTINUOUS
 62
     7
100
AcDbVertex
100
AcDb2dVertex
 10
-20.294066
 20
-23.441528
 30
0.0
 70
     8
  0
VERTEX
  5
31D68
330
19F73
100
AcDbEntity
  8
TITLE_BLOCK
  6
CONTINUOUS
 62
     7
100
AcDbVertex
100
AcDb2dVertex
 10
-20.338876
 20
-23.433205
 30
0.0
 70
     8
  0
VERTEX
  5
31D69
330
19F73
100
AcDbEntity
  8
TITLE_BLOCK
  6
CONTINUOUS
 62
     7
100
AcDbVertex
100
AcDb2dVertex
 10
-20.382004
 20
-23.419803
 30
0.0
 70
     8
  0
VERTEX
  5
31D6A
330
19F73
100
AcDbEntity
  8
TITLE_BLOCK
  6
CONTINUOUS
 62
     7
100
AcDbVertex
100
AcDb2dVertex
 10
-20.422734
 20
-23.40129
 30
0.0
 70
     8
  0
VERTEX
  5
31D6B
330
19F73
100
AcDbEntity
  8
TITLE_BLOCK
  6
CONTINUOUS
 62
     7
100
AcDbVertex
100
AcDb2dVertex
 10
-20.441976
 20
-23.390108
 30
0.0
 70
     8
  0
VERTEX
  5
31D6C
330
19F73
100
AcDbEntity
  8
TITLE_BLOCK
  6
CONTINUOUS
 62
     7
100
AcDbVertex
100
AcDb2dVertex
 10
-20.46035
 20
-23.377636
 30
0.0
 70
     8
  0
VERTEX
  5
31D6D
330
19F73
100
AcDbEntity
  8
TITLE_BLOCK
  6
CONTINUOUS
 62
     7
100
AcDbVertex
100
AcDb2dVertex
 10
-20.477766
 20
-23.363871
 30
0.0
 70
     8
  0
VERTEX
  5
31D6E
330
19F73
100
AcDbEntity
  8
TITLE_BLOCK
  6
CONTINUOUS
 62
     7
100
AcDbVertex
100
AcDb2dVertex
 10
-20.494136
 20
-23.348809
 30
0.0
 70
     8
  0
VERTEX
  5
31D6F
330
19F73
100
AcDbEntity
  8
TITLE_BLOCK
  6
CONTINUOUS
 62
     7
100
AcDbVertex
100
AcDb2dVertex
 10
-20.509369
 20
-23.332446
 30
0.0
 70
     8
  0
VERTEX
  5
31D70
330
19F73
100
AcDbEntity
  8
TITLE_BLOCK
  6
CONTINUOUS
 62
     7
100
AcDbVertex
100
AcDb2dVertex
 10
-20.523376
 20
-23.314779
 30
0.0
 70
     8
  0
VERTEX
  5
31D71
330
19F73
100
AcDbEntity
  8
TITLE_BLOCK
  6
CONTINUOUS
 62
     7
100
AcDbVertex
100
AcDb2dVertex
 10
-20.536068
 20
-23.295802
 30
0.0
 70
     8
  0
VERTEX
  5
31D72
330
19F73
100
AcDbEntity
  8
TITLE_BLOCK
  6
CONTINUOUS
 62
     7
100
AcDbVertex
100
AcDb2dVertex
 10
-20.547355
 20
-23.275513
 30
0.0
 70
     8
  0
VERTEX
  5
31D73
330
19F73
100
AcDbEntity
  8
TITLE_BLOCK
  6
CONTINUOUS
 62
     7
100
AcDbVertex
100
AcDb2dVertex
 10
-20.557147
 20
-23.253907
 30
0.0
 70
     8
  0
VERTEX
  5
31D74
330
19F73
100
AcDbEntity
  8
TITLE_BLOCK
  6
CONTINUOUS
 62
     7
100
AcDbVertex
100
AcDb2dVertex
 10
-20.565355
 20
-23.230981
 30
0.0
 70
     8
  0
VERTEX
  5
31D75
330
19F73
100
AcDbEntity
  8
TITLE_BLOCK
  6
CONTINUOUS
 62
     7
100
AcDbVertex
100
AcDb2dVertex
 10
-20.474359
 20
-23.217675
 30
0.0
 70
     8
  0
VERTEX
  5
31D76
330
19F73
100
AcDbEntity
  8
TITLE_BLOCK
  6
CONTINUOUS
 62
     7
100
AcDbVertex
100
AcDb2dVertex
 10
-20.383363
 20
-23.202582
 30
0.0
 70
     8
  0
VERTEX
  5
31D77
330
19F73
100
AcDbEntity
  8
TITLE_BLOCK
  6
CONTINUOUS
 62
     7
100
AcDbVertex
100
AcDb2dVertex
 10
-20.373893
 20
-23.222032
 30
0.0
 70
     8
  0
VERTEX
  5
31D78
330
19F73
100
AcDbEntity
  8
TITLE_BLOCK
  6
CONTINUOUS
 62
     7
100
AcDbVertex
100
AcDb2dVertex
 10
-20.362697
 20
-23.238261
 30
0.0
 70
     8
  0
VERTEX
  5
31D79
330
19F73
100
AcDbEntity
  8
TITLE_BLOCK
  6
CONTINUOUS
 62
     7
100
AcDbVertex
100
AcDb2dVertex
 10
-20.349941
 20
-23.251527
 30
0.0
 70
     8
  0
VERTEX
  5
31D7A
330
19F73
100
AcDbEntity
  8
TITLE_BLOCK
  6
CONTINUOUS
 62
     7
100
AcDbVertex
100
AcDb2dVertex
 10
-20.335793
 20
-23.262088
 30
0.0
 70
     8
  0
VERTEX
  5
31D7B
330
19F73
100
AcDbEntity
  8
TITLE_BLOCK
  6
CONTINUOUS
 62
     7
100
AcDbVertex
100
AcDb2dVertex
 10
-20.320419
 20
-23.2702
 30
0.0
 70
     8
  0
VERTEX
  5
31D7C
330
19F73
100
AcDbEntity
  8
TITLE_BLOCK
  6
CONTINUOUS
 62
     7
100
AcDbVertex
100
AcDb2dVertex
 10
-20.303987
 20
-23.276121
 30
0.0
 70
     8
  0
VERTEX
  5
31D7D
330
19F73
100
AcDbEntity
  8
TITLE_BLOCK
  6
CONTINUOUS
 62
     7
100
AcDbVertex
100
AcDb2dVertex
 10
-20.286663
 20
-23.280107
 30
0.0
 70
     8
  0
VERTEX
  5
31D7E
330
19F73
100
AcDbEntity
  8
TITLE_BLOCK
  6
CONTINUOUS
 62
     7
100
AcDbVertex
100
AcDb2dVertex
 10
-20.268614
 20
-23.282416
 30
0.0
 70
     8
  0
VERTEX
  5
31D7F
330
19F73
100
AcDbEntity
  8
TITLE_BLOCK
  6
CONTINUOUS
 62
     7
100
AcDbVertex
100
AcDb2dVertex
 10
-20.231011
 20
-23.283032
 30
0.0
 70
     8
  0
VERTEX
  5
31D80
330
19F73
100
AcDbEntity
  8
TITLE_BLOCK
  6
CONTINUOUS
 62
     7
100
AcDbVertex
100
AcDb2dVertex
 10
-20.192511
 20
-23.280025
 30
0.0
 70
     8
  0
VERTEX
  5
31D81
330
19F73
100
AcDbEntity
  8
TITLE_BLOCK
  6
CONTINUOUS
 62
     7
100
AcDbVertex
100
AcDb2dVertex
 10
-20.118168
 20
-23.271372
 30
0.0
 70
     8
  0
VERTEX
  5
31D82
330
19F73
100
AcDbEntity
  8
TITLE_BLOCK
  6
CONTINUOUS
 62
     7
100
AcDbVertex
100
AcDb2dVertex
 10
-20.13057
 20
-23.183793
 30
0.0
 70
     8
  0
VERTEX
  5
31D83
330
19F73
100
AcDbEntity
  8
TITLE_BLOCK
  6
CONTINUOUS
 62
     7
100
AcDbVertex
100
AcDb2dVertex
 10
-20.251894
 20
-23.156127
 30
0.0
 70
     8
  0
VERTEX
  5
31D84
330
19F73
100
AcDbEntity
  8
TITLE_BLOCK
  6
CONTINUOUS
 62
     7
100
AcDbVertex
100
AcDb2dVertex
 10
-20.313367
 20
-23.139816
 30
0.0
 70
     8
  0
VERTEX
  5
31D85
330
19F73
100
AcDbEntity
  8
TITLE_BLOCK
  6
CONTINUOUS
 62
     7
100
AcDbVertex
100
AcDb2dVertex
 10
-20.343266
 20
-23.130064
 30
0.0
 70
     8
  0
VERTEX
  5
31D86
330
19F73
100
AcDbEntity
  8
TITLE_BLOCK
  6
CONTINUOUS
 62
     7
100
AcDbVertex
100
AcDb2dVertex
 10
-20.372211
 20
-23.118876
 30
0.0
 70
     8
  0
VERTEX
  5
31D87
330
19F73
100
AcDbEntity
  8
TITLE_BLOCK
  6
CONTINUOUS
 62
     7
100
AcDbVertex
100
AcDb2dVertex
 10
-20.399904
 20
-23.105973
 30
0.0
 70
     8
  0
VERTEX
  5
31D88
330
19F73
100
AcDbEntity
  8
TITLE_BLOCK
  6
CONTINUOUS
 62
     7
100
AcDbVertex
100
AcDb2dVertex
 10
-20.426048
 20
-23.091076
 30
0.0
 70
     8
  0
VERTEX
  5
31D89
330
19F73
100
AcDbEntity
  8
TITLE_BLOCK
  6
CONTINUOUS
 62
     7
100
AcDbVertex
100
AcDb2dVertex
 10
-20.450347
 20
-23.073905
 30
0.0
 70
     8
  0
VERTEX
  5
31D8A
330
19F73
100
AcDbEntity
  8
TITLE_BLOCK
  6
CONTINUOUS
 62
     7
100
AcDbVertex
100
AcDb2dVertex
 10
-20.472503
 20
-23.054182
 30
0.0
 70
     8
  0
VERTEX
  5
31D8B
330
19F73
100
AcDbEntity
  8
TITLE_BLOCK
  6
CONTINUOUS
 62
     7
100
AcDbVertex
100
AcDb2dVertex
 10
-20.492219
 20
-23.031628
 30
0.0
 70
     8
  0
VERTEX
  5
31D8C
330
19F73
100
AcDbEntity
  8
TITLE_BLOCK
  6
CONTINUOUS
 62
     7
100
AcDbVertex
100
AcDb2dVertex
 10
-20.509197
 20
-23.005962
 30
0.0
 70
     8
  0
VERTEX
  5
31D8D
330
19F73
100
AcDbEntity
  8
TITLE_BLOCK
  6
CONTINUOUS
 62
     7
100
AcDbVertex
100
AcDb2dVertex
 10
-20.523141
 20
-22.976908
 30
0.0
 70
     8
  0
VERTEX
  5
31D8E
330
19F73
100
AcDbEntity
  8
TITLE_BLOCK
  6
CONTINUOUS
 62
     7
100
AcDbVertex
100
AcDb2dVertex
 10
-20.533754
 20
-22.944184
 30
0.0
 70
     8
  0
VERTEX
  5
31D8F
330
19F73
100
AcDbEntity
  8
TITLE_BLOCK
  6
CONTINUOUS
 62
     7
100
AcDbVertex
100
AcDb2dVertex
 10
-20.484466
 20
-22.874384
 30
0.0
 70
     8
  0
VERTEX
  5
31D90
330
19F73
100
AcDbEntity
  8
TITLE_BLOCK
  6
CONTINUOUS
 62
     7
100
AcDbVertex
100
AcDb2dVertex
 10
-20.433363
 20
-22.805786
 30
0.0
 70
     8
  0
VERTEX
  5
31D91
330
19F73
100
AcDbEntity
  8
TITLE_BLOCK
  6
CONTINUOUS
 62
     7
100
AcDbVertex
100
AcDb2dVertex
 10
-20.365865
 20
-22.786332
 30
0.0
 70
     8
  0
VERTEX
  5
31D92
330
19F73
100
AcDbEntity
  8
TITLE_BLOCK
  6
CONTINUOUS
 62
     7
100
AcDbVertex
100
AcDb2dVertex
 10
-20.298968
 20
-22.764184
 30
0.0
 70
     8
  0
VERTEX
  5
31D93
330
19F73
100
AcDbEntity
  8
TITLE_BLOCK
  6
CONTINUOUS
 62
     7
100
AcDbVertex
100
AcDb2dVertex
 10
-20.298968
 20
-22.764184
 30
0.0
 70
     8
  0
VERTEX
  5
31D94
330
19F73
100
AcDbEntity
  8
TITLE_BLOCK
  6
CONTINUOUS
 62
     7
100
AcDbVertex
100
AcDb2dVertex
 10
-20.298968
 20
-22.764184
 30
0.0
 70
    16
  0
VERTEX
  5
31D95
330
19F73
100
AcDbEntity
  8
TITLE_BLOCK
  6
CONTINUOUS
 62
     7
100
AcDbVertex
100
AcDb2dVertex
 10
-20.214554
 20
-22.766176
 30
0.0
 70
    16
  0
VERTEX
  5
31D96
330
19F73
100
AcDbEntity
  8
TITLE_BLOCK
  6
CONTINUOUS
 62
     7
100
AcDbVertex
100
AcDb2dVertex
 10
-20.131761
 20
-22.784184
 30
0.0
 70
    16
  0
VERTEX
  5
31D97
330
19F73
100
AcDbEntity
  8
TITLE_BLOCK
  6
CONTINUOUS
 62
     7
100
AcDbVertex
100
AcDb2dVertex
 10
-20.048558
 20
-22.799379
 30
0.0
 70
    16
  0
VERTEX
  5
31D98
330
19F73
100
AcDbEntity
  8
TITLE_BLOCK
  6
CONTINUOUS
 62
     7
100
AcDbVertex
100
AcDb2dVertex
 10
-20.016957
 20
-22.852582
 30
0.0
 70
    16
  0
VERTEX
  5
31D99
330
19F73
100
AcDbEntity
  8
TITLE_BLOCK
  6
CONTINUOUS
 62
     7
100
AcDbVertex
100
AcDb2dVertex
 10
-19.987757
 20
-22.906957
 30
0.0
 70
    16
  0
VERTEX
  5
31D9A
330
19F73
100
AcDbEntity
  8
TITLE_BLOCK
  6
CONTINUOUS
 62
     7
100
AcDbVertex
100
AcDb2dVertex
 10
-19.96057
 20
-22.962582
 30
0.0
 70
    16
  0
VERTEX
  5
31D9B
330
19F73
100
AcDbEntity
  8
TITLE_BLOCK
  6
CONTINUOUS
 62
     7
100
AcDbVertex
100
AcDb2dVertex
 10
-20.04016
 20
-22.963364
 30
0.0
 70
    16
  0
VERTEX
  5
31D9C
330
19F73
100
AcDbEntity
  8
TITLE_BLOCK
  6
CONTINUOUS
 62
     7
100
AcDbVertex
100
AcDb2dVertex
 10
-20.126156
 20
-22.982192
 30
0.0
 70
    16
  0
VERTEX
  5
31D9D
330
19F73
100
AcDbEntity
  8
TITLE_BLOCK
  6
CONTINUOUS
 62
     7
100
AcDbVertex
100
AcDb2dVertex
 10
-20.195355
 20
-22.92977
 30
0.0
 70
    16
  0
VERTEX
  5
31D9E
330
19F73
100
AcDbEntity
  8
TITLE_BLOCK
  6
CONTINUOUS
 62
     7
100
AcDbVertex
100
AcDb2dVertex
 10
-20.241371
 20
-22.928168
 30
0.0
 70
    16
  0
VERTEX
  5
31D9F
330
19F73
100
AcDbEntity
  8
TITLE_BLOCK
  6
CONTINUOUS
 62
     7
100
AcDbVertex
100
AcDb2dVertex
 10
-20.287757
 20
-22.927387
 30
0.0
 70
    16
  0
VERTEX
  5
31DA0
330
19F73
100
AcDbEntity
  8
TITLE_BLOCK
  6
CONTINUOUS
 62
     7
100
AcDbVertex
100
AcDb2dVertex
 10
-20.333754
 20
-22.926957
 30
0.0
 70
    16
  0
VERTEX
  5
31DA1
330
19F73
100
AcDbEntity
  8
TITLE_BLOCK
  6
CONTINUOUS
 62
     7
100
AcDbVertex
100
AcDb2dVertex
 10
-20.325355
 20
-23.047387
 30
0.0
 70
    16
  0
VERTEX
  5
31DA2
330
19F73
100
AcDbEntity
  8
TITLE_BLOCK
  6
CONTINUOUS
 62
     7
100
AcDbVertex
100
AcDb2dVertex
 10
-20.18057
 20
-23.017778
 30
0.0
 70
    16
  0
VERTEX
  5
31DA3
330
19F73
100
AcDbEntity
  8
TITLE_BLOCK
  6
CONTINUOUS
 62
     7
100
AcDbVertex
100
AcDb2dVertex
 10
-20.098968
 20
-23.051372
 30
0.0
 70
    16
  0
VERTEX
  5
31DA4
330
19F73
100
AcDbEntity
  8
TITLE_BLOCK
  6
CONTINUOUS
 62
     7
100
AcDbVertex
100
AcDb2dVertex
 10
-19.972953
 20
-23.065786
 30
0.0
 70
    16
  0
VERTEX
  5
31DA5
330
19F73
100
AcDbEntity
  8
TITLE_BLOCK
  6
CONTINUOUS
 62
     7
100
AcDbVertex
100
AcDb2dVertex
 10
-19.869359
 20
-23.219379
 30
0.0
 70
    16
  0
VERTEX
  5
31DA6
330
19F73
100
AcDbEntity
  8
TITLE_BLOCK
  6
CONTINUOUS
 62
     7
100
AcDbVertex
100
AcDb2dVertex
 10
-19.960961
 20
-23.328989
 30
0.0
 70
    16
  0
VERTEX
  5
31DA7
330
19F73
100
AcDbEntity
  8
TITLE_BLOCK
  6
CONTINUOUS
 62
     7
100
AcDbVertex
100
AcDb2dVertex
 10
-20.122172
 20
-23.508168
 30
0.0
 70
    16
  0
VERTEX
  5
31DA8
330
19F73
100
AcDbEntity
  8
TITLE_BLOCK
  6
CONTINUOUS
 62
     7
100
AcDbVertex
100
AcDb2dVertex
 10
-20.486566
 20
-23.482582
 30
0.0
 70
    16
  0
VERTEX
  5
31DA9
330
19F73
100
AcDbEntity
  8
TITLE_BLOCK
  6
CONTINUOUS
 62
     7
100
AcDbVertex
100
AcDb2dVertex
 10
-20.565355
 20
-23.230981
 30
0.0
 70
    16
  0
VERTEX
  5
31DAA
330
19F73
100
AcDbEntity
  8
TITLE_BLOCK
  6
CONTINUOUS
 62
     7
100
AcDbVertex
100
AcDb2dVertex
 10
-20.504554
 20
-23.222973
 30
0.0
 70
    16
  0
VERTEX
  5
31DAB
330
19F73
100
AcDbEntity
  8
TITLE_BLOCK
  6
CONTINUOUS
 62
     7
100
AcDbVertex
100
AcDb2dVertex
 10
-20.444164
 20
-23.212973
 30
0.0
 70
    16
  0
VERTEX
  5
31DAC
330
19F73
100
AcDbEntity
  8
TITLE_BLOCK
  6
CONTINUOUS
 62
     7
100
AcDbVertex
100
AcDb2dVertex
 10
-20.383363
 20
-23.202582
 30
0.0
 70
    16
  0
VERTEX
  5
31DAD
330
19F73
100
AcDbEntity
  8
TITLE_BLOCK
  6
CONTINUOUS
 62
     7
100
AcDbVertex
100
AcDb2dVertex
 10
-20.337757
 20
-23.315356
 30
0.0
 70
    16
  0
VERTEX
  5
31DAE
330
19F73
100
AcDbEntity
  8
TITLE_BLOCK
  6
CONTINUOUS
 62
     7
100
AcDbVertex
100
AcDb2dVertex
 10
-20.211371
 20
-23.27977
 30
0.0
 70
    16
  0
VERTEX
  5
31DAF
330
19F73
100
AcDbEntity
  8
TITLE_BLOCK
  6
CONTINUOUS
 62
     7
100
AcDbVertex
100
AcDb2dVertex
 10
-20.118168
 20
-23.271372
 30
0.0
 70
    16
  0
VERTEX
  5
31DB0
330
19F73
100
AcDbEntity
  8
TITLE_BLOCK
  6
CONTINUOUS
 62
     7
100
AcDbVertex
100
AcDb2dVertex
 10
-20.121371
 20
-23.24977
 30
0.0
 70
    16
  0
VERTEX
  5
31DB1
330
19F73
100
AcDbEntity
  8
TITLE_BLOCK
  6
CONTINUOUS
 62
     7
100
AcDbVertex
100
AcDb2dVertex
 10
-20.127367
 20
-23.205786
 30
0.0
 70
    16
  0
VERTEX
  5
31DB2
330
19F73
100
AcDbEntity
  8
TITLE_BLOCK
  6
CONTINUOUS
 62
     7
100
AcDbVertex
100
AcDb2dVertex
 10
-20.13057
 20
-23.183793
 30
0.0
 70
    16
  0
VERTEX
  5
31DB3
330
19F73
100
AcDbEntity
  8
TITLE_BLOCK
  6
CONTINUOUS
 62
     7
100
AcDbVertex
100
AcDb2dVertex
 10
-20.284554
 20
-23.145356
 30
0.0
 70
    16
  0
VERTEX
  5
31DB4
330
19F73
100
AcDbEntity
  8
TITLE_BLOCK
  6
CONTINUOUS
 62
     7
100
AcDbVertex
100
AcDb2dVertex
 10
-20.486566
 20
-23.128989
 30
0.0
 70
    16
  0
VERTEX
  5
31DB5
330
19F73
100
AcDbEntity
  8
TITLE_BLOCK
  6
CONTINUOUS
 62
     7
100
AcDbVertex
100
AcDb2dVertex
 10
-20.533754
 20
-22.944184
 30
0.0
 70
    16
  0
VERTEX
  5
31DB6
330
19F73
100
AcDbEntity
  8
TITLE_BLOCK
  6
CONTINUOUS
 62
     7
100
AcDbVertex
100
AcDb2dVertex
 10
-20.501371
 20
-22.897387
 30
0.0
 70
    16
  0
VERTEX
  5
31DB7
330
19F73
100
AcDbEntity
  8
TITLE_BLOCK
  6
CONTINUOUS
 62
     7
100
AcDbVertex
100
AcDb2dVertex
 10
-20.468168
 20
-22.850981
 30
0.0
 70
    16
  0
VERTEX
  5
31DB8
330
19F73
100
AcDbEntity
  8
TITLE_BLOCK
  6
CONTINUOUS
 62
     7
100
AcDbVertex
100
AcDb2dVertex
 10
-20.433363
 20
-22.805786
 30
0.0
 70
    16
  0
VERTEX
  5
31DB9
330
19F73
100
AcDbEntity
  8
TITLE_BLOCK
  6
CONTINUOUS
 62
     7
100
AcDbVertex
100
AcDb2dVertex
 10
-20.388168
 20
-22.793793
 30
0.0
 70
    16
  0
VERTEX
  5
31DBA
330
19F73
100
AcDbEntity
  8
TITLE_BLOCK
  6
CONTINUOUS
 62
     7
100
AcDbVertex
100
AcDb2dVertex
 10
-20.343363
 20
-22.77977
 30
0.0
 70
    16
  0
VERTEX
  5
31DBB
330
19F73
100
AcDbEntity
  8
TITLE_BLOCK
  6
CONTINUOUS
 62
     7
100
AcDbVertex
100
AcDb2dVertex
 10
-20.298968
 20
-22.764184
 30
0.0
 70
    16
  0
VERTEX
  5
31DBC
330
19F73
100
AcDbEntity
  8
TITLE_BLOCK
  6
CONTINUOUS
 62
     7
100
AcDbVertex
100
AcDb2dVertex
 10
-20.298968
 20
-22.764184
 30
0.0
 70
    16
  0
VERTEX
  5
31DBD
330
19F73
100
AcDbEntity
  8
TITLE_BLOCK
  6
CONTINUOUS
 62
     7
100
AcDbVertex
100
AcDb2dVertex
 10
-20.298968
 20
-22.764184
 30
0.0
 70
    16
  0
VERTEX
  5
31DBE
330
19F73
100
AcDbEntity
  8
TITLE_BLOCK
  6
CONTINUOUS
 62
     7
100
AcDbVertex
100
AcDb2dVertex
 10
-20.298968
 20
-22.764184
 30
0.0
 70
    16
  0
SEQEND
  5
31DBF
330
19F73
100
AcDbEntity
  8
TITLE_BLOCK
  6
CONTINUOUS
 62
     7
  0
POLYLINE
  5
19FFD
330
31A96
100
AcDbEntity
  8
TITLE_BLOCK
  6
CONTINUOUS
 62
     7
100
AcDb2dPolyline
 66
     1
 10
0.0
 20
0.0
 30
0.0
 70
     5
 75
     5
  0
VERTEX
  5
31DC0
330
19FFD
100
AcDbEntity
  8
TITLE_BLOCK
  6
CONTINUOUS
 62
     7
100
AcDbVertex
100
AcDb2dVertex
 10
-19.800961
 20
-22.763364
 30
0.0
 70
     8
  0
VERTEX
  5
31DC1
330
19FFD
100
AcDbEntity
  8
TITLE_BLOCK
  6
CONTINUOUS
 62
     7
100
AcDbVertex
100
AcDb2dVertex
 10
-19.522511
 20
-22.765024
 30
0.0
 70
     8
  0
VERTEX
  5
31DC2
330
19FFD
100
AcDbEntity
  8
TITLE_BLOCK
  6
CONTINUOUS
 62
     7
100
AcDbVertex
100
AcDb2dVertex
 10
-19.243754
 20
-22.764575
 30
0.0
 70
     8
  0
VERTEX
  5
31DC3
330
19FFD
100
AcDbEntity
  8
TITLE_BLOCK
  6
CONTINUOUS
 62
     7
100
AcDbVertex
100
AcDb2dVertex
 10
-19.243754
 20
-22.923364
 30
0.0
 70
     8
  0
VERTEX
  5
31DC4
330
19FFD
100
AcDbEntity
  8
TITLE_BLOCK
  6
CONTINUOUS
 62
     7
100
AcDbVertex
100
AcDb2dVertex
 10
-19.605355
 20
-22.924184
 30
0.0
 70
     8
  0
VERTEX
  5
31DC5
330
19FFD
100
AcDbEntity
  8
TITLE_BLOCK
  6
CONTINUOUS
 62
     7
100
AcDbVertex
100
AcDb2dVertex
 10
-19.601761
 20
-23.004965
 30
0.0
 70
     8
  0
VERTEX
  5
31DC6
330
19FFD
100
AcDbEntity
  8
TITLE_BLOCK
  6
CONTINUOUS
 62
     7
100
AcDbVertex
100
AcDb2dVertex
 10
-19.440961
 20
-23.005678
 30
0.0
 70
     8
  0
VERTEX
  5
31DC7
330
19FFD
100
AcDbEntity
  8
TITLE_BLOCK
  6
CONTINUOUS
 62
     7
100
AcDbVertex
100
AcDb2dVertex
 10
-19.28016
 20
-23.004575
 30
0.0
 70
     8
  0
VERTEX
  5
31DC8
330
19FFD
100
AcDbEntity
  8
TITLE_BLOCK
  6
CONTINUOUS
 62
     7
100
AcDbVertex
100
AcDb2dVertex
 10
-19.28057
 20
-23.168559
 30
0.0
 70
     8
  0
VERTEX
  5
31DC9
330
19FFD
100
AcDbEntity
  8
TITLE_BLOCK
  6
CONTINUOUS
 62
     7
100
AcDbVertex
100
AcDb2dVertex
 10
-19.441517
 20
-23.164565
 30
0.0
 70
     8
  0
VERTEX
  5
31DCA
330
19FFD
100
AcDbEntity
  8
TITLE_BLOCK
  6
CONTINUOUS
 62
     7
100
AcDbVertex
100
AcDb2dVertex
 10
-19.602172
 20
-23.162973
 30
0.0
 70
     8
  0
VERTEX
  5
31DCB
330
19FFD
100
AcDbEntity
  8
TITLE_BLOCK
  6
CONTINUOUS
 62
     7
100
AcDbVertex
100
AcDb2dVertex
 10
-19.602562
 20
-23.285786
 30
0.0
 70
     8
  0
VERTEX
  5
31DCC
330
19FFD
100
AcDbEntity
  8
TITLE_BLOCK
  6
CONTINUOUS
 62
     7
100
AcDbVertex
100
AcDb2dVertex
 10
-19.243363
 20
-23.28059
 30
0.0
 70
     8
  0
VERTEX
  5
31DCD
330
19FFD
100
AcDbEntity
  8
TITLE_BLOCK
  6
CONTINUOUS
 62
     7
100
AcDbVertex
100
AcDb2dVertex
 10
-19.243363
 20
-23.443364
 30
0.0
 70
     8
  0
VERTEX
  5
31DCE
330
19FFD
100
AcDbEntity
  8
TITLE_BLOCK
  6
CONTINUOUS
 62
     7
100
AcDbVertex
100
AcDb2dVertex
 10
-19.524366
 20
-23.44476
 30
0.0
 70
     8
  0
VERTEX
  5
31DCF
330
19FFD
100
AcDbEntity
  8
TITLE_BLOCK
  6
CONTINUOUS
 62
     7
100
AcDbVertex
100
AcDb2dVertex
 10
-19.805355
 20
-23.442582
 30
0.0
 70
     8
  0
VERTEX
  5
31DD0
330
19FFD
100
AcDbEntity
  8
TITLE_BLOCK
  6
CONTINUOUS
 62
     7
100
AcDbVertex
100
AcDb2dVertex
 10
-19.803207
 20
-23.272778
 30
0.0
 70
     8
  0
VERTEX
  5
31DD1
330
19FFD
100
AcDbEntity
  8
TITLE_BLOCK
  6
CONTINUOUS
 62
     7
100
AcDbVertex
100
AcDb2dVertex
 10
-19.803158
 20
-23.102973
 30
0.0
 70
     8
  0
VERTEX
  5
31DD2
330
19FFD
100
AcDbEntity
  8
TITLE_BLOCK
  6
CONTINUOUS
 62
     7
100
AcDbVertex
100
AcDb2dVertex
 10
-19.803108
 20
-22.933168
 30
0.0
 70
     8
  0
VERTEX
  5
31DD3
330
19FFD
100
AcDbEntity
  8
TITLE_BLOCK
  6
CONTINUOUS
 62
     7
100
AcDbVertex
100
AcDb2dVertex
 10
-19.800961
 20
-22.763364
 30
0.0
 70
     8
  0
VERTEX
  5
31DD4
330
19FFD
100
AcDbEntity
  8
TITLE_BLOCK
  6
CONTINUOUS
 62
     7
100
AcDbVertex
100
AcDb2dVertex
 10
-19.800961
 20
-22.763364
 30
0.0
 70
     8
  0
VERTEX
  5
31DD5
330
19FFD
100
AcDbEntity
  8
TITLE_BLOCK
  6
CONTINUOUS
 62
     7
100
AcDbVertex
100
AcDb2dVertex
 10
-19.800961
 20
-22.763364
 30
0.0
 70
    16
  0
VERTEX
  5
31DD6
330
19FFD
100
AcDbEntity
  8
TITLE_BLOCK
  6
CONTINUOUS
 62
     7
100
AcDbVertex
100
AcDb2dVertex
 10
-19.615355
 20
-22.766176
 30
0.0
 70
    16
  0
VERTEX
  5
31DD7
330
19FFD
100
AcDbEntity
  8
TITLE_BLOCK
  6
CONTINUOUS
 62
     7
100
AcDbVertex
100
AcDb2dVertex
 10
-19.429769
 20
-22.764575
 30
0.0
 70
    16
  0
VERTEX
  5
31DD8
330
19FFD
100
AcDbEntity
  8
TITLE_BLOCK
  6
CONTINUOUS
 62
     7
100
AcDbVertex
100
AcDb2dVertex
 10
-19.243754
 20
-22.764575
 30
0.0
 70
    16
  0
VERTEX
  5
31DD9
330
19FFD
100
AcDbEntity
  8
TITLE_BLOCK
  6
CONTINUOUS
 62
     7
100
AcDbVertex
100
AcDb2dVertex
 10
-19.244164
 20
-22.817387
 30
0.0
 70
    16
  0
VERTEX
  5
31DDA
330
19FFD
100
AcDbEntity
  8
TITLE_BLOCK
  6
CONTINUOUS
 62
     7
100
AcDbVertex
100
AcDb2dVertex
 10
-19.244164
 20
-22.870161
 30
0.0
 70
    16
  0
VERTEX
  5
31DDB
330
19FFD
100
AcDbEntity
  8
TITLE_BLOCK
  6
CONTINUOUS
 62
     7
100
AcDbVertex
100
AcDb2dVertex
 10
-19.243754
 20
-22.923364
 30
0.0
 70
    16
  0
VERTEX
  5
31DDC
330
19FFD
100
AcDbEntity
  8
TITLE_BLOCK
  6
CONTINUOUS
 62
     7
100
AcDbVertex
100
AcDb2dVertex
 10
-19.364554
 20
-22.923364
 30
0.0
 70
    16
  0
VERTEX
  5
31DDD
330
19FFD
100
AcDbEntity
  8
TITLE_BLOCK
  6
CONTINUOUS
 62
     7
100
AcDbVertex
100
AcDb2dVertex
 10
-19.484964
 20
-22.923364
 30
0.0
 70
    16
  0
VERTEX
  5
31DDE
330
19FFD
100
AcDbEntity
  8
TITLE_BLOCK
  6
CONTINUOUS
 62
     7
100
AcDbVertex
100
AcDb2dVertex
 10
-19.605355
 20
-22.924184
 30
0.0
 70
    16
  0
VERTEX
  5
31DDF
330
19FFD
100
AcDbEntity
  8
TITLE_BLOCK
  6
CONTINUOUS
 62
     7
100
AcDbVertex
100
AcDb2dVertex
 10
-19.604554
 20
-22.944184
 30
0.0
 70
    16
  0
VERTEX
  5
31DE0
330
19FFD
100
AcDbEntity
  8
TITLE_BLOCK
  6
CONTINUOUS
 62
     7
100
AcDbVertex
100
AcDb2dVertex
 10
-19.602562
 20
-22.984575
 30
0.0
 70
    16
  0
VERTEX
  5
31DE1
330
19FFD
100
AcDbEntity
  8
TITLE_BLOCK
  6
CONTINUOUS
 62
     7
100
AcDbVertex
100
AcDb2dVertex
 10
-19.601761
 20
-23.004965
 30
0.0
 70
    16
  0
VERTEX
  5
31DE2
330
19FFD
100
AcDbEntity
  8
TITLE_BLOCK
  6
CONTINUOUS
 62
     7
100
AcDbVertex
100
AcDb2dVertex
 10
-19.494554
 20
-23.006176
 30
0.0
 70
    16
  0
VERTEX
  5
31DE3
330
19FFD
100
AcDbEntity
  8
TITLE_BLOCK
  6
CONTINUOUS
 62
     7
100
AcDbVertex
100
AcDb2dVertex
 10
-19.387367
 20
-23.005786
 30
0.0
 70
    16
  0
VERTEX
  5
31DE4
330
19FFD
100
AcDbEntity
  8
TITLE_BLOCK
  6
CONTINUOUS
 62
     7
100
AcDbVertex
100
AcDb2dVertex
 10
-19.28016
 20
-23.004575
 30
0.0
 70
    16
  0
VERTEX
  5
31DE5
330
19FFD
100
AcDbEntity
  8
TITLE_BLOCK
  6
CONTINUOUS
 62
     7
100
AcDbVertex
100
AcDb2dVertex
 10
-19.280961
 20
-23.058989
 30
0.0
 70
    16
  0
VERTEX
  5
31DE6
330
19FFD
100
AcDbEntity
  8
TITLE_BLOCK
  6
CONTINUOUS
 62
     7
100
AcDbVertex
100
AcDb2dVertex
 10
-19.280961
 20
-23.113793
 30
0.0
 70
    16
  0
VERTEX
  5
31DE7
330
19FFD
100
AcDbEntity
  8
TITLE_BLOCK
  6
CONTINUOUS
 62
     7
100
AcDbVertex
100
AcDb2dVertex
 10
-19.28057
 20
-23.168559
 30
0.0
 70
    16
  0
VERTEX
  5
31DE8
330
19FFD
100
AcDbEntity
  8
TITLE_BLOCK
  6
CONTINUOUS
 62
     7
100
AcDbVertex
100
AcDb2dVertex
 10
-19.388168
 20
-23.164965
 30
0.0
 70
    16
  0
VERTEX
  5
31DE9
330
19FFD
100
AcDbEntity
  8
TITLE_BLOCK
  6
CONTINUOUS
 62
     7
100
AcDbVertex
100
AcDb2dVertex
 10
-19.494964
 20
-23.163364
 30
0.0
 70
    16
  0
VERTEX
  5
31DEA
330
19FFD
100
AcDbEntity
  8
TITLE_BLOCK
  6
CONTINUOUS
 62
     7
100
AcDbVertex
100
AcDb2dVertex
 10
-19.602172
 20
-23.162973
 30
0.0
 70
    16
  0
VERTEX
  5
31DEB
330
19FFD
100
AcDbEntity
  8
TITLE_BLOCK
  6
CONTINUOUS
 62
     7
100
AcDbVertex
100
AcDb2dVertex
 10
-19.602172
 20
-23.193793
 30
0.0
 70
    16
  0
VERTEX
  5
31DEC
330
19FFD
100
AcDbEntity
  8
TITLE_BLOCK
  6
CONTINUOUS
 62
     7
100
AcDbVertex
100
AcDb2dVertex
 10
-19.602172
 20
-23.254965
 30
0.0
 70
    16
  0
VERTEX
  5
31DED
330
19FFD
100
AcDbEntity
  8
TITLE_BLOCK
  6
CONTINUOUS
 62
     7
100
AcDbVertex
100
AcDb2dVertex
 10
-19.602562
 20
-23.285786
 30
0.0
 70
    16
  0
VERTEX
  5
31DEE
330
19FFD
100
AcDbEntity
  8
TITLE_BLOCK
  6
CONTINUOUS
 62
     7
100
AcDbVertex
100
AcDb2dVertex
 10
-19.482562
 20
-23.282582
 30
0.0
 70
    16
  0
VERTEX
  5
31DEF
330
19FFD
100
AcDbEntity
  8
TITLE_BLOCK
  6
CONTINUOUS
 62
     7
100
AcDbVertex
100
AcDb2dVertex
 10
-19.362953
 20
-23.284184
 30
0.0
 70
    16
  0
VERTEX
  5
31DF0
330
19FFD
100
AcDbEntity
  8
TITLE_BLOCK
  6
CONTINUOUS
 62
     7
100
AcDbVertex
100
AcDb2dVertex
 10
-19.243363
 20
-23.28059
 30
0.0
 70
    16
  0
VERTEX
  5
31DF1
330
19FFD
100
AcDbEntity
  8
TITLE_BLOCK
  6
CONTINUOUS
 62
     7
100
AcDbVertex
100
AcDb2dVertex
 10
-19.243363
 20
-23.334965
 30
0.0
 70
    16
  0
VERTEX
  5
31DF2
330
19FFD
100
AcDbEntity
  8
TITLE_BLOCK
  6
CONTINUOUS
 62
     7
100
AcDbVertex
100
AcDb2dVertex
 10
-19.243363
 20
-23.388989
 30
0.0
 70
    16
  0
VERTEX
  5
31DF3
330
19FFD
100
AcDbEntity
  8
TITLE_BLOCK
  6
CONTINUOUS
 62
     7
100
AcDbVertex
100
AcDb2dVertex
 10
-19.243363
 20
-23.443364
 30
0.0
 70
    16
  0
VERTEX
  5
31DF4
330
19FFD
100
AcDbEntity
  8
TITLE_BLOCK
  6
CONTINUOUS
 62
     7
100
AcDbVertex
100
AcDb2dVertex
 10
-19.43057
 20
-23.445356
 30
0.0
 70
    16
  0
VERTEX
  5
31DF5
330
19FFD
100
AcDbEntity
  8
TITLE_BLOCK
  6
CONTINUOUS
 62
     7
100
AcDbVertex
100
AcDb2dVertex
 10
-19.618168
 20
-23.445356
 30
0.0
 70
    16
  0
VERTEX
  5
31DF6
330
19FFD
100
AcDbEntity
  8
TITLE_BLOCK
  6
CONTINUOUS
 62
     7
100
AcDbVertex
100
AcDb2dVertex
 10
-19.805355
 20
-23.442582
 30
0.0
 70
    16
  0
VERTEX
  5
31DF7
330
19FFD
100
AcDbEntity
  8
TITLE_BLOCK
  6
CONTINUOUS
 62
     7
100
AcDbVertex
100
AcDb2dVertex
 10
-19.80016
 20
-23.216176
 30
0.0
 70
    16
  0
VERTEX
  5
31DF8
330
19FFD
100
AcDbEntity
  8
TITLE_BLOCK
  6
CONTINUOUS
 62
     7
100
AcDbVertex
100
AcDb2dVertex
 10
-19.806156
 20
-22.98977
 30
0.0
 70
    16
  0
VERTEX
  5
31DF9
330
19FFD
100
AcDbEntity
  8
TITLE_BLOCK
  6
CONTINUOUS
 62
     7
100
AcDbVertex
100
AcDb2dVertex
 10
-19.800961
 20
-22.763364
 30
0.0
 70
    16
  0
VERTEX
  5
31DFA
330
19FFD
100
AcDbEntity
  8
TITLE_BLOCK
  6
CONTINUOUS
 62
     7
100
AcDbVertex
100
AcDb2dVertex
 10
-19.800961
 20
-22.763364
 30
0.0
 70
    16
  0
VERTEX
  5
31DFB
330
19FFD
100
AcDbEntity
  8
TITLE_BLOCK
  6
CONTINUOUS
 62
     7
100
AcDbVertex
100
AcDb2dVertex
 10
-19.800961
 20
-22.763364
 30
0.0
 70
    16
  0
VERTEX
  5
31DFC
330
19FFD
100
AcDbEntity
  8
TITLE_BLOCK
  6
CONTINUOUS
 62
     7
100
AcDbVertex
100
AcDb2dVertex
 10
-19.800961
 20
-22.763364
 30
0.0
 70
    16
  0
SEQEND
  5
31DFD
330
19FFD
100
AcDbEntity
  8
TITLE_BLOCK
  6
CONTINUOUS
 62
     7
  0
POLYLINE
  5
1A03B
330
31A96
100
AcDbEntity
  8
TITLE_BLOCK
  6
CONTINUOUS
 62
     7
100
AcDb2dPolyline
 66
     1
 10
0.0
 20
0.0
 30
0.0
 70
     5
 75
     5
  0
VERTEX
  5
31DFE
330
1A03B
100
AcDbEntity
  8
TITLE_BLOCK
  6
CONTINUOUS
 62
     7
100
AcDbVertex
100
AcDb2dVertex
 10
-18.842172
 20
-22.953793
 30
0.0
 70
     8
  0
VERTEX
  5
31DFF
330
1A03B
100
AcDbEntity
  8
TITLE_BLOCK
  6
CONTINUOUS
 62
     7
100
AcDbVertex
100
AcDb2dVertex
 10
-18.834579
 20
-22.922704
 30
0.0
 70
     8
  0
VERTEX
  5
31E00
330
1A03B
100
AcDbEntity
  8
TITLE_BLOCK
  6
CONTINUOUS
 62
     7
100
AcDbVertex
100
AcDb2dVertex
 10
-18.823143
 20
-22.89477
 30
0.0
 70
     8
  0
VERTEX
  5
31E01
330
1A03B
100
AcDbEntity
  8
TITLE_BLOCK
  6
CONTINUOUS
 62
     7
100
AcDbVertex
100
AcDb2dVertex
 10
-18.808219
 20
-22.869883
 30
0.0
 70
     8
  0
VERTEX
  5
31E02
330
1A03B
100
AcDbEntity
  8
TITLE_BLOCK
  6
CONTINUOUS
 62
     7
100
AcDbVertex
100
AcDb2dVertex
 10
-18.790162
 20
-22.847936
 30
0.0
 70
     8
  0
VERTEX
  5
31E03
330
1A03B
100
AcDbEntity
  8
TITLE_BLOCK
  6
CONTINUOUS
 62
     7
100
AcDbVertex
100
AcDb2dVertex
 10
-18.769328
 20
-22.82882
 30
0.0
 70
     8
  0
VERTEX
  5
31E04
330
1A03B
100
AcDbEntity
  8
TITLE_BLOCK
  6
CONTINUOUS
 62
     7
100
AcDbVertex
100
AcDb2dVertex
 10
-18.746072
 20
-22.812428
 30
0.0
 70
     8
  0
VERTEX
  5
31E05
330
1A03B
100
AcDbEntity
  8
TITLE_BLOCK
  6
CONTINUOUS
 62
     7
100
AcDbVertex
100
AcDb2dVertex
 10
-18.720751
 20
-22.798651
 30
0.0
 70
     8
  0
VERTEX
  5
31E06
330
1A03B
100
AcDbEntity
  8
TITLE_BLOCK
  6
CONTINUOUS
 62
     7
100
AcDbVertex
100
AcDb2dVertex
 10
-18.693719
 20
-22.787382
 30
0.0
 70
     8
  0
VERTEX
  5
31E07
330
1A03B
100
AcDbEntity
  8
TITLE_BLOCK
  6
CONTINUOUS
 62
     7
100
AcDbVertex
100
AcDb2dVertex
 10
-18.665333
 20
-22.778514
 30
0.0
 70
     8
  0
VERTEX
  5
31E08
330
1A03B
100
AcDbEntity
  8
TITLE_BLOCK
  6
CONTINUOUS
 62
     7
100
AcDbVertex
100
AcDb2dVertex
 10
-18.635949
 20
-22.771937
 30
0.0
 70
     8
  0
VERTEX
  5
31E09
330
1A03B
100
AcDbEntity
  8
TITLE_BLOCK
  6
CONTINUOUS
 62
     7
100
AcDbVertex
100
AcDb2dVertex
 10
-18.60592
 20
-22.767545
 30
0.0
 70
     8
  0
VERTEX
  5
31E0A
330
1A03B
100
AcDbEntity
  8
TITLE_BLOCK
  6
CONTINUOUS
 62
     7
100
AcDbVertex
100
AcDb2dVertex
 10
-18.575605
 20
-22.76523
 30
0.0
 70
     8
  0
VERTEX
  5
31E0B
330
1A03B
100
AcDbEntity
  8
TITLE_BLOCK
  6
CONTINUOUS
 62
     7
100
AcDbVertex
100
AcDb2dVertex
 10
-18.545357
 20
-22.764883
 30
0.0
 70
     8
  0
VERTEX
  5
31E0C
330
1A03B
100
AcDbEntity
  8
TITLE_BLOCK
  6
CONTINUOUS
 62
     7
100
AcDbVertex
100
AcDb2dVertex
 10
-18.515533
 20
-22.766396
 30
0.0
 70
     8
  0
VERTEX
  5
31E0D
330
1A03B
100
AcDbEntity
  8
TITLE_BLOCK
  6
CONTINUOUS
 62
     7
100
AcDbVertex
100
AcDb2dVertex
 10
-18.486488
 20
-22.769663
 30
0.0
 70
     8
  0
VERTEX
  5
31E0E
330
1A03B
100
AcDbEntity
  8
TITLE_BLOCK
  6
CONTINUOUS
 62
     7
100
AcDbVertex
100
AcDb2dVertex
 10
-18.458578
 20
-22.774575
 30
0.0
 70
     8
  0
VERTEX
  5
31E0F
330
1A03B
100
AcDbEntity
  8
TITLE_BLOCK
  6
CONTINUOUS
 62
     7
100
AcDbVertex
100
AcDb2dVertex
 10
-18.424956
 20
-22.785803
 30
0.0
 70
     8
  0
VERTEX
  5
31E10
330
1A03B
100
AcDbEntity
  8
TITLE_BLOCK
  6
CONTINUOUS
 62
     7
100
AcDbVertex
100
AcDb2dVertex
 10
-18.394418
 20
-22.80128
 30
0.0
 70
     8
  0
VERTEX
  5
31E11
330
1A03B
100
AcDbEntity
  8
TITLE_BLOCK
  6
CONTINUOUS
 62
     7
100
AcDbVertex
100
AcDb2dVertex
 10
-18.367117
 20
-22.820677
 30
0.0
 70
     8
  0
VERTEX
  5
31E12
330
1A03B
100
AcDbEntity
  8
TITLE_BLOCK
  6
CONTINUOUS
 62
     7
100
AcDbVertex
100
AcDb2dVertex
 10
-18.343207
 20
-22.843666
 30
0.0
 70
     8
  0
VERTEX
  5
31E13
330
1A03B
100
AcDbEntity
  8
TITLE_BLOCK
  6
CONTINUOUS
 62
     7
100
AcDbVertex
100
AcDb2dVertex
 10
-18.322842
 20
-22.869918
 30
0.0
 70
     8
  0
VERTEX
  5
31E14
330
1A03B
100
AcDbEntity
  8
TITLE_BLOCK
  6
CONTINUOUS
 62
     7
100
AcDbVertex
100
AcDb2dVertex
 10
-18.306175
 20
-22.899105
 30
0.0
 70
     8
  0
VERTEX
  5
31E15
330
1A03B
100
AcDbEntity
  8
TITLE_BLOCK
  6
CONTINUOUS
 62
     7
100
AcDbVertex
100
AcDb2dVertex
 10
-18.293362
 20
-22.930897
 30
0.0
 70
     8
  0
VERTEX
  5
31E16
330
1A03B
100
AcDbEntity
  8
TITLE_BLOCK
  6
CONTINUOUS
 62
     7
100
AcDbVertex
100
AcDb2dVertex
 10
-18.284554
 20
-22.964965
 30
0.0
 70
     8
  0
VERTEX
  5
31E17
330
1A03B
100
AcDbEntity
  8
TITLE_BLOCK
  6
CONTINUOUS
 62
     7
100
AcDbVertex
100
AcDb2dVertex
 10
-18.331625
 20
-22.96655
 30
0.0
 70
     8
  0
VERTEX
  5
31E18
330
1A03B
100
AcDbEntity
  8
TITLE_BLOCK
  6
CONTINUOUS
 62
     7
100
AcDbVertex
100
AcDb2dVertex
 10
-18.378128
 20
-22.963879
 30
0.0
 70
     8
  0
VERTEX
  5
31E19
330
1A03B
100
AcDbEntity
  8
TITLE_BLOCK
  6
CONTINUOUS
 62
     7
100
AcDbVertex
100
AcDb2dVertex
 10
-18.424209
 20
-22.957991
 30
0.0
 70
     8
  0
VERTEX
  5
31E1A
330
1A03B
100
AcDbEntity
  8
TITLE_BLOCK
  6
CONTINUOUS
 62
     7
100
AcDbVertex
100
AcDb2dVertex
 10
-18.470013
 20
-22.949921
 30
0.0
 70
     8
  0
VERTEX
  5
31E1B
330
1A03B
100
AcDbEntity
  8
TITLE_BLOCK
  6
CONTINUOUS
 62
     7
100
AcDbVertex
100
AcDb2dVertex
 10
-18.561371
 20
-22.931386
 30
0.0
 70
     8
  0
VERTEX
  5
31E1C
330
1A03B
100
AcDbEntity
  8
TITLE_BLOCK
  6
CONTINUOUS
 62
     7
100
AcDbVertex
100
AcDb2dVertex
 10
-18.607215
 20
-22.922993
 30
0.0
 70
     8
  0
VERTEX
  5
31E1D
330
1A03B
100
AcDbEntity
  8
TITLE_BLOCK
  6
CONTINUOUS
 62
     7
100
AcDbVertex
100
AcDb2dVertex
 10
-18.653363
 20
-22.916567
 30
0.0
 70
     8
  0
VERTEX
  5
31E1E
330
1A03B
100
AcDbEntity
  8
TITLE_BLOCK
  6
CONTINUOUS
 62
     7
100
AcDbVertex
100
AcDb2dVertex
 10
-18.653996
 20
-22.934868
 30
0.0
 70
     8
  0
VERTEX
  5
31E1F
330
1A03B
100
AcDbEntity
  8
TITLE_BLOCK
  6
CONTINUOUS
 62
     7
100
AcDbVertex
100
AcDb2dVertex
 10
-18.652136
 20
-22.950883
 30
0.0
 70
     8
  0
VERTEX
  5
31E20
330
1A03B
100
AcDbEntity
  8
TITLE_BLOCK
  6
CONTINUOUS
 62
     7
100
AcDbVertex
100
AcDb2dVertex
 10
-18.648
 20
-22.964791
 30
0.0
 70
     8
  0
VERTEX
  5
31E21
330
1A03B
100
AcDbEntity
  8
TITLE_BLOCK
  6
CONTINUOUS
 62
     7
100
AcDbVertex
100
AcDb2dVertex
 10
-18.641804
 20
-22.976773
 30
0.0
 70
     8
  0
VERTEX
  5
31E22
330
1A03B
100
AcDbEntity
  8
TITLE_BLOCK
  6
CONTINUOUS
 62
     7
100
AcDbVertex
100
AcDb2dVertex
 10
-18.633766
 20
-22.987008
 30
0.0
 70
     8
  0
VERTEX
  5
31E23
330
1A03B
100
AcDbEntity
  8
TITLE_BLOCK
  6
CONTINUOUS
 62
     7
100
AcDbVertex
100
AcDb2dVertex
 10
-18.624102
 20
-22.995676
 30
0.0
 70
     8
  0
VERTEX
  5
31E24
330
1A03B
100
AcDbEntity
  8
TITLE_BLOCK
  6
CONTINUOUS
 62
     7
100
AcDbVertex
100
AcDb2dVertex
 10
-18.600765
 20
-23.009033
 30
0.0
 70
     8
  0
VERTEX
  5
31E25
330
1A03B
100
AcDbEntity
  8
TITLE_BLOCK
  6
CONTINUOUS
 62
     7
100
AcDbVertex
100
AcDb2dVertex
 10
-18.573528
 20
-23.018282
 30
0.0
 70
     8
  0
VERTEX
  5
31E26
330
1A03B
100
AcDbEntity
  8
TITLE_BLOCK
  6
CONTINUOUS
 62
     7
100
AcDbVertex
100
AcDb2dVertex
 10
-18.544126
 20
-23.024865
 30
0.0
 70
     8
  0
VERTEX
  5
31E27
330
1A03B
100
AcDbEntity
  8
TITLE_BLOCK
  6
CONTINUOUS
 62
     7
100
AcDbVertex
100
AcDb2dVertex
 10
-18.485765
 20
-23.035786
 30
0.0
 70
     8
  0
VERTEX
  5
31E28
330
1A03B
100
AcDbEntity
  8
TITLE_BLOCK
  6
CONTINUOUS
 62
     7
100
AcDbVertex
100
AcDb2dVertex
 10
-18.45674
 20
-23.040491
 30
0.0
 70
     8
  0
VERTEX
  5
31E29
330
1A03B
100
AcDbEntity
  8
TITLE_BLOCK
  6
CONTINUOUS
 62
     7
100
AcDbVertex
100
AcDb2dVertex
 10
-18.428667
 20
-23.04801
 30
0.0
 70
     8
  0
VERTEX
  5
31E2A
330
1A03B
100
AcDbEntity
  8
TITLE_BLOCK
  6
CONTINUOUS
 62
     7
100
AcDbVertex
100
AcDb2dVertex
 10
-18.401418
 20
-23.05789
 30
0.0
 70
     8
  0
VERTEX
  5
31E2B
330
1A03B
100
AcDbEntity
  8
TITLE_BLOCK
  6
CONTINUOUS
 62
     7
100
AcDbVertex
100
AcDb2dVertex
 10
-18.374862
 20
-23.069682
 30
0.0
 70
     8
  0
VERTEX
  5
31E2C
330
1A03B
100
AcDbEntity
  8
TITLE_BLOCK
  6
CONTINUOUS
 62
     7
100
AcDbVertex
100
AcDb2dVertex
 10
-18.323305
 20
-23.097199
 30
0.0
 70
     8
  0
VERTEX
  5
31E2D
330
1A03B
100
AcDbEntity
  8
TITLE_BLOCK
  6
CONTINUOUS
 62
     7
100
AcDbVertex
100
AcDb2dVertex
 10
-18.272953
 20
-23.126957
 30
0.0
 70
     8
  0
VERTEX
  5
31E2E
330
1A03B
100
AcDbEntity
  8
TITLE_BLOCK
  6
CONTINUOUS
 62
     7
100
AcDbVertex
100
AcDb2dVertex
 10
-18.237757
 20
-23.23059
 30
0.0
 70
     8
  0
VERTEX
  5
31E2F
330
1A03B
100
AcDbEntity
  8
TITLE_BLOCK
  6
CONTINUOUS
 62
     7
100
AcDbVertex
100
AcDb2dVertex
 10
-18.243831
 20
-23.251367
 30
0.0
 70
     8
  0
VERTEX
  5
31E30
330
1A03B
100
AcDbEntity
  8
TITLE_BLOCK
  6
CONTINUOUS
 62
     7
100
AcDbVertex
100
AcDb2dVertex
 10
-18.251136
 20
-23.270893
 30
0.0
 70
     8
  0
VERTEX
  5
31E31
330
1A03B
100
AcDbEntity
  8
TITLE_BLOCK
  6
CONTINUOUS
 62
     7
100
AcDbVertex
100
AcDb2dVertex
 10
-18.259616
 20
-23.289194
 30
0.0
 70
     8
  0
VERTEX
  5
31E32
330
1A03B
100
AcDbEntity
  8
TITLE_BLOCK
  6
CONTINUOUS
 62
     7
100
AcDbVertex
100
AcDb2dVertex
 10
-18.269213
 20
-23.306298
 30
0.0
 70
     8
  0
VERTEX
  5
31E33
330
1A03B
100
AcDbEntity
  8
TITLE_BLOCK
  6
CONTINUOUS
 62
     7
100
AcDbVertex
100
AcDb2dVertex
 10
-18.291533
 20
-23.33703
 30
0.0
 70
     8
  0
VERTEX
  5
31E34
330
1A03B
100
AcDbEntity
  8
TITLE_BLOCK
  6
CONTINUOUS
 62
     7
100
AcDbVertex
100
AcDb2dVertex
 10
-18.317638
 20
-23.363308
 30
0.0
 70
     8
  0
VERTEX
  5
31E35
330
1A03B
100
AcDbEntity
  8
TITLE_BLOCK
  6
CONTINUOUS
 62
     7
100
AcDbVertex
100
AcDb2dVertex
 10
-18.347071
 20
-23.385356
 30
0.0
 70
     8
  0
VERTEX
  5
31E36
330
1A03B
100
AcDbEntity
  8
TITLE_BLOCK
  6
CONTINUOUS
 62
     7
100
AcDbVertex
100
AcDb2dVertex
 10
-18.379375
 20
-23.403396
 30
0.0
 70
     8
  0
VERTEX
  5
31E37
330
1A03B
100
AcDbEntity
  8
TITLE_BLOCK
  6
CONTINUOUS
 62
     7
100
AcDbVertex
100
AcDb2dVertex
 10
-18.414093
 20
-23.41765
 30
0.0
 70
     8
  0
VERTEX
  5
31E38
330
1A03B
100
AcDbEntity
  8
TITLE_BLOCK
  6
CONTINUOUS
 62
     7
100
AcDbVertex
100
AcDb2dVertex
 10
-18.450768
 20
-23.428339
 30
0.0
 70
     8
  0
VERTEX
  5
31E39
330
1A03B
100
AcDbEntity
  8
TITLE_BLOCK
  6
CONTINUOUS
 62
     7
100
AcDbVertex
100
AcDb2dVertex
 10
-18.488942
 20
-23.435687
 30
0.0
 70
     8
  0
VERTEX
  5
31E3A
330
1A03B
100
AcDbEntity
  8
TITLE_BLOCK
  6
CONTINUOUS
 62
     7
100
AcDbVertex
100
AcDb2dVertex
 10
-18.52816
 20
-23.439914
 30
0.0
 70
     8
  0
VERTEX
  5
31E3B
330
1A03B
100
AcDbEntity
  8
TITLE_BLOCK
  6
CONTINUOUS
 62
     7
100
AcDbVertex
100
AcDb2dVertex
 10
-18.567963
 20
-23.441243
 30
0.0
 70
     8
  0
VERTEX
  5
31E3C
330
1A03B
100
AcDbEntity
  8
TITLE_BLOCK
  6
CONTINUOUS
 62
     7
100
AcDbVertex
100
AcDb2dVertex
 10
-18.607895
 20
-23.439896
 30
0.0
 70
     8
  0
VERTEX
  5
31E3D
330
1A03B
100
AcDbEntity
  8
TITLE_BLOCK
  6
CONTINUOUS
 62
     7
100
AcDbVertex
100
AcDb2dVertex
 10
-18.647499
 20
-23.436096
 30
0.0
 70
     8
  0
VERTEX
  5
31E3E
330
1A03B
100
AcDbEntity
  8
TITLE_BLOCK
  6
CONTINUOUS
 62
     7
100
AcDbVertex
100
AcDb2dVertex
 10
-18.686317
 20
-23.430063
 30
0.0
 70
     8
  0
VERTEX
  5
31E3F
330
1A03B
100
AcDbEntity
  8
TITLE_BLOCK
  6
CONTINUOUS
 62
     7
100
AcDbVertex
100
AcDb2dVertex
 10
-18.723893
 20
-23.422021
 30
0.0
 70
     8
  0
VERTEX
  5
31E40
330
1A03B
100
AcDbEntity
  8
TITLE_BLOCK
  6
CONTINUOUS
 62
     7
100
AcDbVertex
100
AcDb2dVertex
 10
-18.759769
 20
-23.412192
 30
0.0
 70
     8
  0
VERTEX
  5
31E41
330
1A03B
100
AcDbEntity
  8
TITLE_BLOCK
  6
CONTINUOUS
 62
     7
100
AcDbVertex
100
AcDb2dVertex
 10
-18.779665
 20
-23.391643
 30
0.0
 70
     8
  0
VERTEX
  5
31E42
330
1A03B
100
AcDbEntity
  8
TITLE_BLOCK
  6
CONTINUOUS
 62
     7
100
AcDbVertex
100
AcDb2dVertex
 10
-18.798047
 20
-23.369983
 30
0.0
 70
     8
  0
VERTEX
  5
31E43
330
1A03B
100
AcDbEntity
  8
TITLE_BLOCK
  6
CONTINUOUS
 62
     7
100
AcDbVertex
100
AcDb2dVertex
 10
-18.815052
 20
-23.347339
 30
0.0
 70
     8
  0
VERTEX
  5
31E44
330
1A03B
100
AcDbEntity
  8
TITLE_BLOCK
  6
CONTINUOUS
 62
     7
100
AcDbVertex
100
AcDb2dVertex
 10
-18.830814
 20
-23.323837
 30
0.0
 70
     8
  0
VERTEX
  5
31E45
330
1A03B
100
AcDbEntity
  8
TITLE_BLOCK
  6
CONTINUOUS
 62
     7
100
AcDbVertex
100
AcDb2dVertex
 10
-18.859157
 20
-23.274769
 30
0.0
 70
     8
  0
VERTEX
  5
31E46
330
1A03B
100
AcDbEntity
  8
TITLE_BLOCK
  6
CONTINUOUS
 62
     7
100
AcDbVertex
100
AcDb2dVertex
 10
-18.884164
 20
-23.223793
 30
0.0
 70
     8
  0
VERTEX
  5
31E47
330
1A03B
100
AcDbEntity
  8
TITLE_BLOCK
  6
CONTINUOUS
 62
     7
100
AcDbVertex
100
AcDb2dVertex
 10
-18.858059
 20
-23.224125
 30
0.0
 70
     8
  0
VERTEX
  5
31E48
330
1A03B
100
AcDbEntity
  8
TITLE_BLOCK
  6
CONTINUOUS
 62
     7
100
AcDbVertex
100
AcDb2dVertex
 10
-18.830586
 20
-23.220793
 30
0.0
 70
     8
  0
VERTEX
  5
31E49
330
1A03B
100
AcDbEntity
  8
TITLE_BLOCK
  6
CONTINUOUS
 62
     7
100
AcDbVertex
100
AcDb2dVertex
 10
-18.774164
 20
-23.211274
 30
0.0
 70
     8
  0
VERTEX
  5
31E4A
330
1A03B
100
AcDbEntity
  8
TITLE_BLOCK
  6
CONTINUOUS
 62
     7
100
AcDbVertex
100
AcDb2dVertex
 10
-18.746525
 20
-23.209156
 30
0.0
 70
     8
  0
VERTEX
  5
31E4B
330
1A03B
100
AcDbEntity
  8
TITLE_BLOCK
  6
CONTINUOUS
 62
     7
100
AcDbVertex
100
AcDb2dVertex
 10
-18.720143
 20
-23.211511
 30
0.0
 70
     8
  0
VERTEX
  5
31E4C
330
1A03B
100
AcDbEntity
  8
TITLE_BLOCK
  6
CONTINUOUS
 62
     7
100
AcDbVertex
100
AcDb2dVertex
 10
-18.695674
 20
-23.220373
 30
0.0
 70
     8
  0
VERTEX
  5
31E4D
330
1A03B
100
AcDbEntity
  8
TITLE_BLOCK
  6
CONTINUOUS
 62
     7
100
AcDbVertex
100
AcDb2dVertex
 10
-18.684361
 20
-23.227881
 30
0.0
 70
     8
  0
VERTEX
  5
31E4E
330
1A03B
100
AcDbEntity
  8
TITLE_BLOCK
  6
CONTINUOUS
 62
     7
100
AcDbVertex
100
AcDb2dVertex
 10
-18.673773
 20
-23.237778
 30
0.0
 70
     8
  0
VERTEX
  5
31E4F
330
1A03B
100
AcDbEntity
  8
TITLE_BLOCK
  6
CONTINUOUS
 62
     7
100
AcDbVertex
100
AcDb2dVertex
 10
-18.651039
 20
-23.258427
 30
0.0
 70
     8
  0
VERTEX
  5
31E50
330
1A03B
100
AcDbEntity
  8
TITLE_BLOCK
  6
CONTINUOUS
 62
     7
100
AcDbVertex
100
AcDb2dVertex
 10
-18.625808
 20
-23.272051
 30
0.0
 70
     8
  0
VERTEX
  5
31E51
330
1A03B
100
AcDbEntity
  8
TITLE_BLOCK
  6
CONTINUOUS
 62
     7
100
AcDbVertex
100
AcDb2dVertex
 10
-18.598619
 20
-23.279948
 30
0.0
 70
     8
  0
VERTEX
  5
31E52
330
1A03B
100
AcDbEntity
  8
TITLE_BLOCK
  6
CONTINUOUS
 62
     7
100
AcDbVertex
100
AcDb2dVertex
 10
-18.570011
 20
-23.283417
 30
0.0
 70
     8
  0
VERTEX
  5
31E53
330
1A03B
100
AcDbEntity
  8
TITLE_BLOCK
  6
CONTINUOUS
 62
     7
100
AcDbVertex
100
AcDb2dVertex
 10
-18.540523
 20
-23.283757
 30
0.0
 70
     8
  0
VERTEX
  5
31E54
330
1A03B
100
AcDbEntity
  8
TITLE_BLOCK
  6
CONTINUOUS
 62
     7
100
AcDbVertex
100
AcDb2dVertex
 10
-18.510695
 20
-23.282267
 30
0.0
 70
     8
  0
VERTEX
  5
31E55
330
1A03B
100
AcDbEntity
  8
TITLE_BLOCK
  6
CONTINUOUS
 62
     7
100
AcDbVertex
100
AcDb2dVertex
 10
-18.452172
 20
-23.278989
 30
0.0
 70
     8
  0
VERTEX
  5
31E56
330
1A03B
100
AcDbEntity
  8
TITLE_BLOCK
  6
CONTINUOUS
 62
     7
100
AcDbVertex
100
AcDb2dVertex
 10
-18.43975
 20
-23.186176
 30
0.0
 70
     8
  0
VERTEX
  5
31E57
330
1A03B
100
AcDbEntity
  8
TITLE_BLOCK
  6
CONTINUOUS
 62
     7
100
AcDbVertex
100
AcDb2dVertex
 10
-18.497517
 20
-23.170789
 30
0.0
 70
     8
  0
VERTEX
  5
31E58
330
1A03B
100
AcDbEntity
  8
TITLE_BLOCK
  6
CONTINUOUS
 62
     7
100
AcDbVertex
100
AcDb2dVertex
 10
-18.559499
 20
-23.157227
 30
0.0
 70
     8
  0
VERTEX
  5
31E59
330
1A03B
100
AcDbEntity
  8
TITLE_BLOCK
  6
CONTINUOUS
 62
     7
100
AcDbVertex
100
AcDb2dVertex
 10
-18.622522
 20
-23.142628
 30
0.0
 70
     8
  0
VERTEX
  5
31E5A
330
1A03B
100
AcDbEntity
  8
TITLE_BLOCK
  6
CONTINUOUS
 62
     7
100
AcDbVertex
100
AcDb2dVertex
 10
-18.653432
 20
-23.134044
 30
0.0
 70
     8
  0
VERTEX
  5
31E5B
330
1A03B
100
AcDbEntity
  8
TITLE_BLOCK
  6
CONTINUOUS
 62
     7
100
AcDbVertex
100
AcDb2dVertex
 10
-18.683412
 20
-23.124125
 30
0.0
 70
     8
  0
VERTEX
  5
31E5C
330
1A03B
100
AcDbEntity
  8
TITLE_BLOCK
  6
CONTINUOUS
 62
     7
100
AcDbVertex
100
AcDb2dVertex
 10
-18.712065
 20
-23.112515
 30
0.0
 70
     8
  0
VERTEX
  5
31E5D
330
1A03B
100
AcDbEntity
  8
TITLE_BLOCK
  6
CONTINUOUS
 62
     7
100
AcDbVertex
100
AcDb2dVertex
 10
-18.738995
 20
-23.098856
 30
0.0
 70
     8
  0
VERTEX
  5
31E5E
330
1A03B
100
AcDbEntity
  8
TITLE_BLOCK
  6
CONTINUOUS
 62
     7
100
AcDbVertex
100
AcDb2dVertex
 10
-18.763806
 20
-23.082788
 30
0.0
 70
     8
  0
VERTEX
  5
31E5F
330
1A03B
100
AcDbEntity
  8
TITLE_BLOCK
  6
CONTINUOUS
 62
     7
100
AcDbVertex
100
AcDb2dVertex
 10
-18.786099
 20
-23.063953
 30
0.0
 70
     8
  0
VERTEX
  5
31E60
330
1A03B
100
AcDbEntity
  8
TITLE_BLOCK
  6
CONTINUOUS
 62
     7
100
AcDbVertex
100
AcDb2dVertex
 10
-18.805479
 20
-23.041995
 30
0.0
 70
     8
  0
VERTEX
  5
31E61
330
1A03B
100
AcDbEntity
  8
TITLE_BLOCK
  6
CONTINUOUS
 62
     7
100
AcDbVertex
100
AcDb2dVertex
 10
-18.821549
 20
-23.016554
 30
0.0
 70
     8
  0
VERTEX
  5
31E62
330
1A03B
100
AcDbEntity
  8
TITLE_BLOCK
  6
CONTINUOUS
 62
     7
100
AcDbVertex
100
AcDb2dVertex
 10
-18.833912
 20
-22.987273
 30
0.0
 70
     8
  0
VERTEX
  5
31E63
330
1A03B
100
AcDbEntity
  8
TITLE_BLOCK
  6
CONTINUOUS
 62
     7
100
AcDbVertex
100
AcDb2dVertex
 10
-18.842172
 20
-22.953793
 30
0.0
 70
     8
  0
VERTEX
  5
31E64
330
1A03B
100
AcDbEntity
  8
TITLE_BLOCK
  6
CONTINUOUS
 62
     7
100
AcDbVertex
100
AcDb2dVertex
 10
-18.842172
 20
-22.953793
 30
0.0
 70
     8
  0
VERTEX
  5
31E65
330
1A03B
100
AcDbEntity
  8
TITLE_BLOCK
  6
CONTINUOUS
 62
     7
100
AcDbVertex
100
AcDb2dVertex
 10
-18.842172
 20
-22.953793
 30
0.0
 70
    16
  0
VERTEX
  5
31E66
330
1A03B
100
AcDbEntity
  8
TITLE_BLOCK
  6
CONTINUOUS
 62
     7
100
AcDbVertex
100
AcDb2dVertex
 10
-18.812562
 20
-22.779379
 30
0.0
 70
    16
  0
VERTEX
  5
31E67
330
1A03B
100
AcDbEntity
  8
TITLE_BLOCK
  6
CONTINUOUS
 62
     7
100
AcDbVertex
100
AcDb2dVertex
 10
-18.603773
 20
-22.744184
 30
0.0
 70
    16
  0
VERTEX
  5
31E68
330
1A03B
100
AcDbEntity
  8
TITLE_BLOCK
  6
CONTINUOUS
 62
     7
100
AcDbVertex
100
AcDb2dVertex
 10
-18.458578
 20
-22.774575
 30
0.0
 70
    16
  0
VERTEX
  5
31E69
330
1A03B
100
AcDbEntity
  8
TITLE_BLOCK
  6
CONTINUOUS
 62
     7
100
AcDbVertex
100
AcDb2dVertex
 10
-18.364945
 20
-22.798559
 30
0.0
 70
    16
  0
VERTEX
  5
31E6A
330
1A03B
100
AcDbEntity
  8
TITLE_BLOCK
  6
CONTINUOUS
 62
     7
100
AcDbVertex
100
AcDb2dVertex
 10
-18.302562
 20
-22.871372
 30
0.0
 70
    16
  0
VERTEX
  5
31E6B
330
1A03B
100
AcDbEntity
  8
TITLE_BLOCK
  6
CONTINUOUS
 62
     7
100
AcDbVertex
100
AcDb2dVertex
 10
-18.284554
 20
-22.964965
 30
0.0
 70
    16
  0
VERTEX
  5
31E6C
330
1A03B
100
AcDbEntity
  8
TITLE_BLOCK
  6
CONTINUOUS
 62
     7
100
AcDbVertex
100
AcDb2dVertex
 10
-18.410961
 20
-22.975786
 30
0.0
 70
    16
  0
VERTEX
  5
31E6D
330
1A03B
100
AcDbEntity
  8
TITLE_BLOCK
  6
CONTINUOUS
 62
     7
100
AcDbVertex
100
AcDb2dVertex
 10
-18.529769
 20
-22.930161
 30
0.0
 70
    16
  0
VERTEX
  5
31E6E
330
1A03B
100
AcDbEntity
  8
TITLE_BLOCK
  6
CONTINUOUS
 62
     7
100
AcDbVertex
100
AcDb2dVertex
 10
-18.653363
 20
-22.916567
 30
0.0
 70
    16
  0
VERTEX
  5
31E6F
330
1A03B
100
AcDbEntity
  8
TITLE_BLOCK
  6
CONTINUOUS
 62
     7
100
AcDbVertex
100
AcDb2dVertex
 10
-18.663773
 20
-23.02059
 30
0.0
 70
    16
  0
VERTEX
  5
31E70
330
1A03B
100
AcDbEntity
  8
TITLE_BLOCK
  6
CONTINUOUS
 62
     7
100
AcDbVertex
100
AcDb2dVertex
 10
-18.558558
 20
-23.019379
 30
0.0
 70
    16
  0
VERTEX
  5
31E71
330
1A03B
100
AcDbEntity
  8
TITLE_BLOCK
  6
CONTINUOUS
 62
     7
100
AcDbVertex
100
AcDb2dVertex
 10
-18.485765
 20
-23.035786
 30
0.0
 70
    16
  0
VERTEX
  5
31E72
330
1A03B
100
AcDbEntity
  8
TITLE_BLOCK
  6
CONTINUOUS
 62
     7
100
AcDbVertex
100
AcDb2dVertex
 10
-18.406976
 20
-23.044184
 30
0.0
 70
    16
  0
VERTEX
  5
31E73
330
1A03B
100
AcDbEntity
  8
TITLE_BLOCK
  6
CONTINUOUS
 62
     7
100
AcDbVertex
100
AcDb2dVertex
 10
-18.33975
 20
-23.087387
 30
0.0
 70
    16
  0
VERTEX
  5
31E74
330
1A03B
100
AcDbEntity
  8
TITLE_BLOCK
  6
CONTINUOUS
 62
     7
100
AcDbVertex
100
AcDb2dVertex
 10
-18.272953
 20
-23.126957
 30
0.0
 70
    16
  0
VERTEX
  5
31E75
330
1A03B
100
AcDbEntity
  8
TITLE_BLOCK
  6
CONTINUOUS
 62
     7
100
AcDbVertex
100
AcDb2dVertex
 10
-18.264164
 20
-23.152582
 30
0.0
 70
    16
  0
VERTEX
  5
31E76
330
1A03B
100
AcDbEntity
  8
TITLE_BLOCK
  6
CONTINUOUS
 62
     7
100
AcDbVertex
100
AcDb2dVertex
 10
-18.246547
 20
-23.204575
 30
0.0
 70
    16
  0
VERTEX
  5
31E77
330
1A03B
100
AcDbEntity
  8
TITLE_BLOCK
  6
CONTINUOUS
 62
     7
100
AcDbVertex
100
AcDb2dVertex
 10
-18.237757
 20
-23.23059
 30
0.0
 70
    16
  0
VERTEX
  5
31E78
330
1A03B
100
AcDbEntity
  8
TITLE_BLOCK
  6
CONTINUOUS
 62
     7
100
AcDbVertex
100
AcDb2dVertex
 10
-18.295765
 20
-23.458989
 30
0.0
 70
    16
  0
VERTEX
  5
31E79
330
1A03B
100
AcDbEntity
  8
TITLE_BLOCK
  6
CONTINUOUS
 62
     7
100
AcDbVertex
100
AcDb2dVertex
 10
-18.573773
 20
-23.468989
 30
0.0
 70
    16
  0
VERTEX
  5
31E7A
330
1A03B
100
AcDbEntity
  8
TITLE_BLOCK
  6
CONTINUOUS
 62
     7
100
AcDbVertex
100
AcDb2dVertex
 10
-18.759769
 20
-23.412192
 30
0.0
 70
    16
  0
VERTEX
  5
31E7B
330
1A03B
100
AcDbEntity
  8
TITLE_BLOCK
  6
CONTINUOUS
 62
     7
100
AcDbVertex
100
AcDb2dVertex
 10
-18.814964
 20
-23.358989
 30
0.0
 70
    16
  0
VERTEX
  5
31E7C
330
1A03B
100
AcDbEntity
  8
TITLE_BLOCK
  6
CONTINUOUS
 62
     7
100
AcDbVertex
100
AcDb2dVertex
 10
-18.852562
 20
-23.292582
 30
0.0
 70
    16
  0
VERTEX
  5
31E7D
330
1A03B
100
AcDbEntity
  8
TITLE_BLOCK
  6
CONTINUOUS
 62
     7
100
AcDbVertex
100
AcDb2dVertex
 10
-18.884164
 20
-23.223793
 30
0.0
 70
    16
  0
VERTEX
  5
31E7E
330
1A03B
100
AcDbEntity
  8
TITLE_BLOCK
  6
CONTINUOUS
 62
     7
100
AcDbVertex
100
AcDb2dVertex
 10
-18.816957
 20
-23.231372
 30
0.0
 70
    16
  0
VERTEX
  5
31E7F
330
1A03B
100
AcDbEntity
  8
TITLE_BLOCK
  6
CONTINUOUS
 62
     7
100
AcDbVertex
100
AcDb2dVertex
 10
-18.728168
 20
-23.178168
 30
0.0
 70
    16
  0
VERTEX
  5
31E80
330
1A03B
100
AcDbEntity
  8
TITLE_BLOCK
  6
CONTINUOUS
 62
     7
100
AcDbVertex
100
AcDb2dVertex
 10
-18.673773
 20
-23.237778
 30
0.0
 70
    16
  0
VERTEX
  5
31E81
330
1A03B
100
AcDbEntity
  8
TITLE_BLOCK
  6
CONTINUOUS
 62
     7
100
AcDbVertex
100
AcDb2dVertex
 10
-18.616957
 20
-23.303364
 30
0.0
 70
    16
  0
VERTEX
  5
31E82
330
1A03B
100
AcDbEntity
  8
TITLE_BLOCK
  6
CONTINUOUS
 62
     7
100
AcDbVertex
100
AcDb2dVertex
 10
-18.527757
 20
-23.280161
 30
0.0
 70
    16
  0
VERTEX
  5
31E83
330
1A03B
100
AcDbEntity
  8
TITLE_BLOCK
  6
CONTINUOUS
 62
     7
100
AcDbVertex
100
AcDb2dVertex
 10
-18.452172
 20
-23.278989
 30
0.0
 70
    16
  0
VERTEX
  5
31E84
330
1A03B
100
AcDbEntity
  8
TITLE_BLOCK
  6
CONTINUOUS
 62
     7
100
AcDbVertex
100
AcDb2dVertex
 10
-18.448968
 20
-23.255786
 30
0.0
 70
    16
  0
VERTEX
  5
31E85
330
1A03B
100
AcDbEntity
  8
TITLE_BLOCK
  6
CONTINUOUS
 62
     7
100
AcDbVertex
100
AcDb2dVertex
 10
-18.442953
 20
-23.209379
 30
0.0
 70
    16
  0
VERTEX
  5
31E86
330
1A03B
100
AcDbEntity
  8
TITLE_BLOCK
  6
CONTINUOUS
 62
     7
100
AcDbVertex
100
AcDb2dVertex
 10
-18.43975
 20
-23.186176
 30
0.0
 70
    16
  0
VERTEX
  5
31E87
330
1A03B
100
AcDbEntity
  8
TITLE_BLOCK
  6
CONTINUOUS
 62
     7
100
AcDbVertex
100
AcDb2dVertex
 10
-18.585355
 20
-23.140161
 30
0.0
 70
    16
  0
VERTEX
  5
31E88
330
1A03B
100
AcDbEntity
  8
TITLE_BLOCK
  6
CONTINUOUS
 62
     7
100
AcDbVertex
100
AcDb2dVertex
 10
-18.809769
 20
-23.144184
 30
0.0
 70
    16
  0
VERTEX
  5
31E89
330
1A03B
100
AcDbEntity
  8
TITLE_BLOCK
  6
CONTINUOUS
 62
     7
100
AcDbVertex
100
AcDb2dVertex
 10
-18.842172
 20
-22.953793
 30
0.0
 70
    16
  0
VERTEX
  5
31E8A
330
1A03B
100
AcDbEntity
  8
TITLE_BLOCK
  6
CONTINUOUS
 62
     7
100
AcDbVertex
100
AcDb2dVertex
 10
-18.842172
 20
-22.953793
 30
0.0
 70
    16
  0
VERTEX
  5
31E8B
330
1A03B
100
AcDbEntity
  8
TITLE_BLOCK
  6
CONTINUOUS
 62
     7
100
AcDbVertex
100
AcDb2dVertex
 10
-18.842172
 20
-22.953793
 30
0.0
 70
    16
  0
VERTEX
  5
31E8C
330
1A03B
100
AcDbEntity
  8
TITLE_BLOCK
  6
CONTINUOUS
 62
     7
100
AcDbVertex
100
AcDb2dVertex
 10
-18.842172
 20
-22.953793
 30
0.0
 70
    16
  0
SEQEND
  5
31E8D
330
1A03B
100
AcDbEntity
  8
TITLE_BLOCK
  6
CONTINUOUS
 62
     7
  0
POLYLINE
  5
1A0CB
330
31A96
100
AcDbEntity
  8
TITLE_BLOCK
  6
CONTINUOUS
 62
     7
100
AcDb2dPolyline
 66
     1
 10
0.0
 20
0.0
 30
0.0
 70
     5
 75
     5
  0
VERTEX
  5
31E8E
330
1A0CB
100
AcDbEntity
  8
TITLE_BLOCK
  6
CONTINUOUS
 62
     7
100
AcDbVertex
100
AcDb2dVertex
 10
-18.164554
 20
-22.765356
 30
0.0
 70
     8
  0
VERTEX
  5
31E8F
330
1A0CB
100
AcDbEntity
  8
TITLE_BLOCK
  6
CONTINUOUS
 62
     7
100
AcDbVertex
100
AcDb2dVertex
 10
-18.014194
 20
-22.764557
 30
0.0
 70
     8
  0
VERTEX
  5
31E90
330
1A0CB
100
AcDbEntity
  8
TITLE_BLOCK
  6
CONTINUOUS
 62
     7
100
AcDbVertex
100
AcDb2dVertex
 10
-17.863754
 20
-22.765175
 30
0.0
 70
     8
  0
VERTEX
  5
31E91
330
1A0CB
100
AcDbEntity
  8
TITLE_BLOCK
  6
CONTINUOUS
 62
     7
100
AcDbVertex
100
AcDb2dVertex
 10
-17.713313
 20
-22.765493
 30
0.0
 70
     8
  0
VERTEX
  5
31E92
330
1A0CB
100
AcDbEntity
  8
TITLE_BLOCK
  6
CONTINUOUS
 62
     7
100
AcDbVertex
100
AcDb2dVertex
 10
-17.562953
 20
-22.763793
 30
0.0
 70
     8
  0
VERTEX
  5
31E93
330
1A0CB
100
AcDbEntity
  8
TITLE_BLOCK
  6
CONTINUOUS
 62
     7
100
AcDbVertex
100
AcDb2dVertex
 10
-17.560179
 20
-22.927778
 30
0.0
 70
     8
  0
VERTEX
  5
31E94
330
1A0CB
100
AcDbEntity
  8
TITLE_BLOCK
  6
CONTINUOUS
 62
     7
100
AcDbVertex
100
AcDb2dVertex
 10
-17.759359
 20
-22.920981
 30
0.0
 70
     8
  0
VERTEX
  5
31E95
330
1A0CB
100
AcDbEntity
  8
TITLE_BLOCK
  6
CONTINUOUS
 62
     7
100
AcDbVertex
100
AcDb2dVertex
 10
-17.761922
 20
-23.051469
 30
0.0
 70
     8
  0
VERTEX
  5
31E96
330
1A0CB
100
AcDbEntity
  8
TITLE_BLOCK
  6
CONTINUOUS
 62
     7
100
AcDbVertex
100
AcDb2dVertex
 10
-17.762757
 20
-23.181928
 30
0.0
 70
     8
  0
VERTEX
  5
31E97
330
1A0CB
100
AcDbEntity
  8
TITLE_BLOCK
  6
CONTINUOUS
 62
     7
100
AcDbVertex
100
AcDb2dVertex
 10
-17.761351
 20
-23.442582
 30
0.0
 70
     8
  0
VERTEX
  5
31E98
330
1A0CB
100
AcDbEntity
  8
TITLE_BLOCK
  6
CONTINUOUS
 62
     7
100
AcDbVertex
100
AcDb2dVertex
 10
-17.961781
 20
-23.447387
 30
0.0
 70
     8
  0
VERTEX
  5
31E99
330
1A0CB
100
AcDbEntity
  8
TITLE_BLOCK
  6
CONTINUOUS
 62
     7
100
AcDbVertex
100
AcDb2dVertex
 10
-17.963343
 20
-22.924184
 30
0.0
 70
     8
  0
VERTEX
  5
31E9A
330
1A0CB
100
AcDbEntity
  8
TITLE_BLOCK
  6
CONTINUOUS
 62
     7
100
AcDbVertex
100
AcDb2dVertex
 10
-18.162172
 20
-22.924575
 30
0.0
 70
     8
  0
VERTEX
  5
31E9B
330
1A0CB
100
AcDbEntity
  8
TITLE_BLOCK
  6
CONTINUOUS
 62
     7
100
AcDbVertex
100
AcDb2dVertex
 10
-18.164554
 20
-22.765356
 30
0.0
 70
     8
  0
VERTEX
  5
31E9C
330
1A0CB
100
AcDbEntity
  8
TITLE_BLOCK
  6
CONTINUOUS
 62
     7
100
AcDbVertex
100
AcDb2dVertex
 10
-18.164554
 20
-22.765356
 30
0.0
 70
     8
  0
VERTEX
  5
31E9D
330
1A0CB
100
AcDbEntity
  8
TITLE_BLOCK
  6
CONTINUOUS
 62
     7
100
AcDbVertex
100
AcDb2dVertex
 10
-18.164554
 20
-22.765356
 30
0.0
 70
    16
  0
VERTEX
  5
31E9E
330
1A0CB
100
AcDbEntity
  8
TITLE_BLOCK
  6
CONTINUOUS
 62
     7
100
AcDbVertex
100
AcDb2dVertex
 10
-17.964164
 20
-22.762582
 30
0.0
 70
    16
  0
VERTEX
  5
31E9F
330
1A0CB
100
AcDbEntity
  8
TITLE_BLOCK
  6
CONTINUOUS
 62
     7
100
AcDbVertex
100
AcDb2dVertex
 10
-17.763343
 20
-22.768168
 30
0.0
 70
    16
  0
VERTEX
  5
31EA0
330
1A0CB
100
AcDbEntity
  8
TITLE_BLOCK
  6
CONTINUOUS
 62
     7
100
AcDbVertex
100
AcDb2dVertex
 10
-17.562953
 20
-22.763793
 30
0.0
 70
    16
  0
VERTEX
  5
31EA1
330
1A0CB
100
AcDbEntity
  8
TITLE_BLOCK
  6
CONTINUOUS
 62
     7
100
AcDbVertex
100
AcDb2dVertex
 10
-17.562172
 20
-22.818168
 30
0.0
 70
    16
  0
VERTEX
  5
31EA2
330
1A0CB
100
AcDbEntity
  8
TITLE_BLOCK
  6
CONTINUOUS
 62
     7
100
AcDbVertex
100
AcDb2dVertex
 10
-17.561351
 20
-22.872973
 30
0.0
 70
    16
  0
VERTEX
  5
31EA3
330
1A0CB
100
AcDbEntity
  8
TITLE_BLOCK
  6
CONTINUOUS
 62
     7
100
AcDbVertex
100
AcDb2dVertex
 10
-17.560179
 20
-22.927778
 30
0.0
 70
    16
  0
VERTEX
  5
31EA4
330
1A0CB
100
AcDbEntity
  8
TITLE_BLOCK
  6
CONTINUOUS
 62
     7
100
AcDbVertex
100
AcDb2dVertex
 10
-17.626976
 20
-22.925356
 30
0.0
 70
    16
  0
VERTEX
  5
31EA5
330
1A0CB
100
AcDbEntity
  8
TITLE_BLOCK
  6
CONTINUOUS
 62
     7
100
AcDbVertex
100
AcDb2dVertex
 10
-17.692953
 20
-22.923364
 30
0.0
 70
    16
  0
VERTEX
  5
31EA6
330
1A0CB
100
AcDbEntity
  8
TITLE_BLOCK
  6
CONTINUOUS
 62
     7
100
AcDbVertex
100
AcDb2dVertex
 10
-17.759359
 20
-22.920981
 30
0.0
 70
    16
  0
VERTEX
  5
31EA7
330
1A0CB
100
AcDbEntity
  8
TITLE_BLOCK
  6
CONTINUOUS
 62
     7
100
AcDbVertex
100
AcDb2dVertex
 10
-17.764164
 20
-23.094965
 30
0.0
 70
    16
  0
VERTEX
  5
31EA8
330
1A0CB
100
AcDbEntity
  8
TITLE_BLOCK
  6
CONTINUOUS
 62
     7
100
AcDbVertex
100
AcDb2dVertex
 10
-17.762953
 20
-23.268989
 30
0.0
 70
    16
  0
VERTEX
  5
31EA9
330
1A0CB
100
AcDbEntity
  8
TITLE_BLOCK
  6
CONTINUOUS
 62
     7
100
AcDbVertex
100
AcDb2dVertex
 10
-17.761351
 20
-23.442582
 30
0.0
 70
    16
  0
VERTEX
  5
31EAA
330
1A0CB
100
AcDbEntity
  8
TITLE_BLOCK
  6
CONTINUOUS
 62
     7
100
AcDbVertex
100
AcDb2dVertex
 10
-17.828148
 20
-23.443793
 30
0.0
 70
    16
  0
VERTEX
  5
31EAB
330
1A0CB
100
AcDbEntity
  8
TITLE_BLOCK
  6
CONTINUOUS
 62
     7
100
AcDbVertex
100
AcDb2dVertex
 10
-17.894945
 20
-23.445356
 30
0.0
 70
    16
  0
VERTEX
  5
31EAC
330
1A0CB
100
AcDbEntity
  8
TITLE_BLOCK
  6
CONTINUOUS
 62
     7
100
AcDbVertex
100
AcDb2dVertex
 10
-17.961781
 20
-23.447387
 30
0.0
 70
    16
  0
VERTEX
  5
31EAD
330
1A0CB
100
AcDbEntity
  8
TITLE_BLOCK
  6
CONTINUOUS
 62
     7
100
AcDbVertex
100
AcDb2dVertex
 10
-17.962562
 20
-23.272973
 30
0.0
 70
    16
  0
VERTEX
  5
31EAE
330
1A0CB
100
AcDbEntity
  8
TITLE_BLOCK
  6
CONTINUOUS
 62
     7
100
AcDbVertex
100
AcDb2dVertex
 10
-17.961781
 20
-23.098559
 30
0.0
 70
    16
  0
VERTEX
  5
31EAF
330
1A0CB
100
AcDbEntity
  8
TITLE_BLOCK
  6
CONTINUOUS
 62
     7
100
AcDbVertex
100
AcDb2dVertex
 10
-17.963343
 20
-22.924184
 30
0.0
 70
    16
  0
VERTEX
  5
31EB0
330
1A0CB
100
AcDbEntity
  8
TITLE_BLOCK
  6
CONTINUOUS
 62
     7
100
AcDbVertex
100
AcDb2dVertex
 10
-18.02975
 20
-22.923793
 30
0.0
 70
    16
  0
VERTEX
  5
31EB1
330
1A0CB
100
AcDbEntity
  8
TITLE_BLOCK
  6
CONTINUOUS
 62
     7
100
AcDbVertex
100
AcDb2dVertex
 10
-18.095765
 20
-22.924184
 30
0.0
 70
    16
  0
VERTEX
  5
31EB2
330
1A0CB
100
AcDbEntity
  8
TITLE_BLOCK
  6
CONTINUOUS
 62
     7
100
AcDbVertex
100
AcDb2dVertex
 10
-18.162172
 20
-22.924575
 30
0.0
 70
    16
  0
VERTEX
  5
31EB3
330
1A0CB
100
AcDbEntity
  8
TITLE_BLOCK
  6
CONTINUOUS
 62
     7
100
AcDbVertex
100
AcDb2dVertex
 10
-18.162953
 20
-22.871372
 30
0.0
 70
    16
  0
VERTEX
  5
31EB4
330
1A0CB
100
AcDbEntity
  8
TITLE_BLOCK
  6
CONTINUOUS
 62
     7
100
AcDbVertex
100
AcDb2dVertex
 10
-18.163773
 20
-22.818559
 30
0.0
 70
    16
  0
VERTEX
  5
31EB5
330
1A0CB
100
AcDbEntity
  8
TITLE_BLOCK
  6
CONTINUOUS
 62
     7
100
AcDbVertex
100
AcDb2dVertex
 10
-18.164554
 20
-22.765356
 30
0.0
 70
    16
  0
VERTEX
  5
31EB6
330
1A0CB
100
AcDbEntity
  8
TITLE_BLOCK
  6
CONTINUOUS
 62
     7
100
AcDbVertex
100
AcDb2dVertex
 10
-18.164554
 20
-22.765356
 30
0.0
 70
    16
  0
VERTEX
  5
31EB7
330
1A0CB
100
AcDbEntity
  8
TITLE_BLOCK
  6
CONTINUOUS
 62
     7
100
AcDbVertex
100
AcDb2dVertex
 10
-18.164554
 20
-22.765356
 30
0.0
 70
    16
  0
VERTEX
  5
31EB8
330
1A0CB
100
AcDbEntity
  8
TITLE_BLOCK
  6
CONTINUOUS
 62
     7
100
AcDbVertex
100
AcDb2dVertex
 10
-18.164554
 20
-22.765356
 30
0.0
 70
    16
  0
SEQEND
  5
31EB9
330
1A0CB
100
AcDbEntity
  8
TITLE_BLOCK
  6
CONTINUOUS
 62
     7
  0
POLYLINE
  5
1A0F7
330
31A96
100
AcDbEntity
  8
TITLE_BLOCK
  6
CONTINUOUS
 62
     7
100
AcDb2dPolyline
 66
     1
 10
0.0
 20
0.0
 30
0.0
 70
     5
 75
     5
  0
VERTEX
  5
31EBA
330
1A0F7
100
AcDbEntity
  8
TITLE_BLOCK
  6
CONTINUOUS
 62
     7
100
AcDbVertex
100
AcDb2dVertex
 10
-17.511351
 20
-23.442973
 30
0.0
 70
     8
  0
VERTEX
  5
31EBB
330
1A0F7
100
AcDbEntity
  8
TITLE_BLOCK
  6
CONTINUOUS
 62
     7
100
AcDbVertex
100
AcDb2dVertex
 10
-17.480767
 20
-23.357268
 30
0.0
 70
     8
  0
VERTEX
  5
31EBC
330
1A0F7
100
AcDbEntity
  8
TITLE_BLOCK
  6
CONTINUOUS
 62
     7
100
AcDbVertex
100
AcDb2dVertex
 10
-17.448456
 20
-23.272225
 30
0.0
 70
     8
  0
VERTEX
  5
31EBD
330
1A0F7
100
AcDbEntity
  8
TITLE_BLOCK
  6
CONTINUOUS
 62
     7
100
AcDbVertex
100
AcDb2dVertex
 10
-17.380755
 20
-23.10332
 30
0.0
 70
     8
  0
VERTEX
  5
31EBE
330
1A0F7
100
AcDbEntity
  8
TITLE_BLOCK
  6
CONTINUOUS
 62
     7
100
AcDbVertex
100
AcDb2dVertex
 10
-17.312455
 20
-22.934641
 30
0.0
 70
     8
  0
VERTEX
  5
31EBF
330
1A0F7
100
AcDbEntity
  8
TITLE_BLOCK
  6
CONTINUOUS
 62
     7
100
AcDbVertex
100
AcDb2dVertex
 10
-17.279393
 20
-22.849882
 30
0.0
 70
     8
  0
VERTEX
  5
31EC0
330
1A0F7
100
AcDbEntity
  8
TITLE_BLOCK
  6
CONTINUOUS
 62
     7
100
AcDbVertex
100
AcDb2dVertex
 10
-17.247757
 20
-22.764575
 30
0.0
 70
     8
  0
VERTEX
  5
31EC1
330
1A0F7
100
AcDbEntity
  8
TITLE_BLOCK
  6
CONTINUOUS
 62
     7
100
AcDbVertex
100
AcDb2dVertex
 10
-17.036976
 20
-22.764575
 30
0.0
 70
     8
  0
VERTEX
  5
31EC2
330
1A0F7
100
AcDbEntity
  8
TITLE_BLOCK
  6
CONTINUOUS
 62
     7
100
AcDbVertex
100
AcDb2dVertex
 10
-16.971359
 20
-22.935197
 30
0.0
 70
     8
  0
VERTEX
  5
31EC3
330
1A0F7
100
AcDbEntity
  8
TITLE_BLOCK
  6
CONTINUOUS
 62
     7
100
AcDbVertex
100
AcDb2dVertex
 10
-16.903827
 20
-23.105068
 30
0.0
 70
     8
  0
VERTEX
  5
31EC4
330
1A0F7
100
AcDbEntity
  8
TITLE_BLOCK
  6
CONTINUOUS
 62
     7
100
AcDbVertex
100
AcDb2dVertex
 10
-16.836668
 20
-23.275093
 30
0.0
 70
     8
  0
VERTEX
  5
31EC5
330
1A0F7
100
AcDbEntity
  8
TITLE_BLOCK
  6
CONTINUOUS
 62
     7
100
AcDbVertex
100
AcDb2dVertex
 10
-16.772172
 20
-23.446176
 30
0.0
 70
     8
  0
VERTEX
  5
31EC6
330
1A0F7
100
AcDbEntity
  8
TITLE_BLOCK
  6
CONTINUOUS
 62
     7
100
AcDbVertex
100
AcDb2dVertex
 10
-16.968148
 20
-23.442973
 30
0.0
 70
     8
  0
VERTEX
  5
31EC7
330
1A0F7
100
AcDbEntity
  8
TITLE_BLOCK
  6
CONTINUOUS
 62
     7
100
AcDbVertex
100
AcDb2dVertex
 10
-17.006156
 20
-23.322973
 30
0.0
 70
     8
  0
VERTEX
  5
31EC8
330
1A0F7
100
AcDbEntity
  8
TITLE_BLOCK
  6
CONTINUOUS
 62
     7
100
AcDbVertex
100
AcDb2dVertex
 10
-17.278148
 20
-23.324184
 30
0.0
 70
     8
  0
VERTEX
  5
31EC9
330
1A0F7
100
AcDbEntity
  8
TITLE_BLOCK
  6
CONTINUOUS
 62
     7
100
AcDbVertex
100
AcDb2dVertex
 10
-17.317757
 20
-23.442973
 30
0.0
 70
     8
  0
VERTEX
  5
31ECA
330
1A0F7
100
AcDbEntity
  8
TITLE_BLOCK
  6
CONTINUOUS
 62
     7
100
AcDbVertex
100
AcDb2dVertex
 10
-17.511351
 20
-23.442973
 30
0.0
 70
     8
  0
VERTEX
  5
31ECB
330
1A0F7
100
AcDbEntity
  8
TITLE_BLOCK
  6
CONTINUOUS
 62
     7
100
AcDbVertex
100
AcDb2dVertex
 10
-17.511351
 20
-23.442973
 30
0.0
 70
     8
  0
VERTEX
  5
31ECC
330
1A0F7
100
AcDbEntity
  8
TITLE_BLOCK
  6
CONTINUOUS
 62
     7
100
AcDbVertex
100
AcDb2dVertex
 10
-17.511351
 20
-23.442973
 30
0.0
 70
    16
  0
VERTEX
  5
31ECD
330
1A0F7
100
AcDbEntity
  8
TITLE_BLOCK
  6
CONTINUOUS
 62
     7
100
AcDbVertex
100
AcDb2dVertex
 10
-17.432562
 20
-23.213364
 30
0.0
 70
    16
  0
VERTEX
  5
31ECE
330
1A0F7
100
AcDbEntity
  8
TITLE_BLOCK
  6
CONTINUOUS
 62
     7
100
AcDbVertex
100
AcDb2dVertex
 10
-17.32975
 20
-22.992973
 30
0.0
 70
    16
  0
VERTEX
  5
31ECF
330
1A0F7
100
AcDbEntity
  8
TITLE_BLOCK
  6
CONTINUOUS
 62
     7
100
AcDbVertex
100
AcDb2dVertex
 10
-17.247757
 20
-22.764575
 30
0.0
 70
    16
  0
VERTEX
  5
31ED0
330
1A0F7
100
AcDbEntity
  8
TITLE_BLOCK
  6
CONTINUOUS
 62
     7
100
AcDbVertex
100
AcDb2dVertex
 10
-17.177757
 20
-22.764575
 30
0.0
 70
    16
  0
VERTEX
  5
31ED1
330
1A0F7
100
AcDbEntity
  8
TITLE_BLOCK
  6
CONTINUOUS
 62
     7
100
AcDbVertex
100
AcDb2dVertex
 10
-17.107367
 20
-22.764575
 30
0.0
 70
    16
  0
VERTEX
  5
31ED2
330
1A0F7
100
AcDbEntity
  8
TITLE_BLOCK
  6
CONTINUOUS
 62
     7
100
AcDbVertex
100
AcDb2dVertex
 10
-17.036976
 20
-22.764575
 30
0.0
 70
    16
  0
VERTEX
  5
31ED3
330
1A0F7
100
AcDbEntity
  8
TITLE_BLOCK
  6
CONTINUOUS
 62
     7
100
AcDbVertex
100
AcDb2dVertex
 10
-16.951781
 20
-22.992973
 30
0.0
 70
    16
  0
VERTEX
  5
31ED4
330
1A0F7
100
AcDbEntity
  8
TITLE_BLOCK
  6
CONTINUOUS
 62
     7
100
AcDbVertex
100
AcDb2dVertex
 10
-16.855375
 20
-23.216957
 30
0.0
 70
    16
  0
VERTEX
  5
31ED5
330
1A0F7
100
AcDbEntity
  8
TITLE_BLOCK
  6
CONTINUOUS
 62
     7
100
AcDbVertex
100
AcDb2dVertex
 10
-16.772172
 20
-23.446176
 30
0.0
 70
    16
  0
VERTEX
  5
31ED6
330
1A0F7
100
AcDbEntity
  8
TITLE_BLOCK
  6
CONTINUOUS
 62
     7
100
AcDbVertex
100
AcDb2dVertex
 10
-16.837367
 20
-23.445356
 30
0.0
 70
    16
  0
VERTEX
  5
31ED7
330
1A0F7
100
AcDbEntity
  8
TITLE_BLOCK
  6
CONTINUOUS
 62
     7
100
AcDbVertex
100
AcDb2dVertex
 10
-16.902953
 20
-23.444184
 30
0.0
 70
    16
  0
VERTEX
  5
31ED8
330
1A0F7
100
AcDbEntity
  8
TITLE_BLOCK
  6
CONTINUOUS
 62
     7
100
AcDbVertex
100
AcDb2dVertex
 10
-16.968148
 20
-23.442973
 30
0.0
 70
    16
  0
VERTEX
  5
31ED9
330
1A0F7
100
AcDbEntity
  8
TITLE_BLOCK
  6
CONTINUOUS
 62
     7
100
AcDbVertex
100
AcDb2dVertex
 10
-16.98057
 20
-23.402582
 30
0.0
 70
    16
  0
VERTEX
  5
31EDA
330
1A0F7
100
AcDbEntity
  8
TITLE_BLOCK
  6
CONTINUOUS
 62
     7
100
AcDbVertex
100
AcDb2dVertex
 10
-16.993343
 20
-23.362582
 30
0.0
 70
    16
  0
VERTEX
  5
31EDB
330
1A0F7
100
AcDbEntity
  8
TITLE_BLOCK
  6
CONTINUOUS
 62
     7
100
AcDbVertex
100
AcDb2dVertex
 10
-17.006156
 20
-23.322973
 30
0.0
 70
    16
  0
VERTEX
  5
31EDC
330
1A0F7
100
AcDbEntity
  8
TITLE_BLOCK
  6
CONTINUOUS
 62
     7
100
AcDbVertex
100
AcDb2dVertex
 10
-17.096976
 20
-23.323364
 30
0.0
 70
    16
  0
VERTEX
  5
31EDD
330
1A0F7
100
AcDbEntity
  8
TITLE_BLOCK
  6
CONTINUOUS
 62
     7
100
AcDbVertex
100
AcDb2dVertex
 10
-17.187757
 20
-23.324184
 30
0.0
 70
    16
  0
VERTEX
  5
31EDE
330
1A0F7
100
AcDbEntity
  8
TITLE_BLOCK
  6
CONTINUOUS
 62
     7
100
AcDbVertex
100
AcDb2dVertex
 10
-17.278148
 20
-23.324184
 30
0.0
 70
    16
  0
VERTEX
  5
31EDF
330
1A0F7
100
AcDbEntity
  8
TITLE_BLOCK
  6
CONTINUOUS
 62
     7
100
AcDbVertex
100
AcDb2dVertex
 10
-17.291781
 20
-23.363793
 30
0.0
 70
    16
  0
VERTEX
  5
31EE0
330
1A0F7
100
AcDbEntity
  8
TITLE_BLOCK
  6
CONTINUOUS
 62
     7
100
AcDbVertex
100
AcDb2dVertex
 10
-17.304945
 20
-23.403364
 30
0.0
 70
    16
  0
VERTEX
  5
31EE1
330
1A0F7
100
AcDbEntity
  8
TITLE_BLOCK
  6
CONTINUOUS
 62
     7
100
AcDbVertex
100
AcDb2dVertex
 10
-17.317757
 20
-23.442973
 30
0.0
 70
    16
  0
VERTEX
  5
31EE2
330
1A0F7
100
AcDbEntity
  8
TITLE_BLOCK
  6
CONTINUOUS
 62
     7
100
AcDbVertex
100
AcDb2dVertex
 10
-17.382562
 20
-23.443364
 30
0.0
 70
    16
  0
VERTEX
  5
31EE3
330
1A0F7
100
AcDbEntity
  8
TITLE_BLOCK
  6
CONTINUOUS
 62
     7
100
AcDbVertex
100
AcDb2dVertex
 10
-17.446976
 20
-23.443793
 30
0.0
 70
    16
  0
VERTEX
  5
31EE4
330
1A0F7
100
AcDbEntity
  8
TITLE_BLOCK
  6
CONTINUOUS
 62
     7
100
AcDbVertex
100
AcDb2dVertex
 10
-17.511351
 20
-23.442973
 30
0.0
 70
    16
  0
VERTEX
  5
31EE5
330
1A0F7
100
AcDbEntity
  8
TITLE_BLOCK
  6
CONTINUOUS
 62
     7
100
AcDbVertex
100
AcDb2dVertex
 10
-17.511351
 20
-23.442973
 30
0.0
 70
    16
  0
VERTEX
  5
31EE6
330
1A0F7
100
AcDbEntity
  8
TITLE_BLOCK
  6
CONTINUOUS
 62
     7
100
AcDbVertex
100
AcDb2dVertex
 10
-17.511351
 20
-23.442973
 30
0.0
 70
    16
  0
VERTEX
  5
31EE7
330
1A0F7
100
AcDbEntity
  8
TITLE_BLOCK
  6
CONTINUOUS
 62
     7
100
AcDbVertex
100
AcDb2dVertex
 10
-17.511351
 20
-23.442973
 30
0.0
 70
    16
  0
SEQEND
  5
31EE8
330
1A0F7
100
AcDbEntity
  8
TITLE_BLOCK
  6
CONTINUOUS
 62
     7
  0
POLYLINE
  5
1A126
330
31A96
100
AcDbEntity
  8
TITLE_BLOCK
  6
CONTINUOUS
 62
     7
100
AcDb2dPolyline
 66
     1
 10
0.0
 20
0.0
 30
0.0
 70
     5
 75
     5
  0
VERTEX
  5
31EE9
330
1A126
100
AcDbEntity
  8
TITLE_BLOCK
  6
CONTINUOUS
 62
     7
100
AcDbVertex
100
AcDb2dVertex
 10
-16.682172
 20
-22.762192
 30
0.0
 70
     8
  0
VERTEX
  5
31EEA
330
1A126
100
AcDbEntity
  8
TITLE_BLOCK
  6
CONTINUOUS
 62
     7
100
AcDbVertex
100
AcDb2dVertex
 10
-16.483343
 20
-22.764575
 30
0.0
 70
     8
  0
VERTEX
  5
31EEB
330
1A126
100
AcDbEntity
  8
TITLE_BLOCK
  6
CONTINUOUS
 62
     7
100
AcDbVertex
100
AcDb2dVertex
 10
-16.481351
 20
-23.442582
 30
0.0
 70
     8
  0
VERTEX
  5
31EEC
330
1A126
100
AcDbEntity
  8
TITLE_BLOCK
  6
CONTINUOUS
 62
     7
100
AcDbVertex
100
AcDb2dVertex
 10
-16.681781
 20
-23.447387
 30
0.0
 70
     8
  0
VERTEX
  5
31EED
330
1A126
100
AcDbEntity
  8
TITLE_BLOCK
  6
CONTINUOUS
 62
     7
100
AcDbVertex
100
AcDb2dVertex
 10
-16.682172
 20
-22.762192
 30
0.0
 70
     8
  0
VERTEX
  5
31EEE
330
1A126
100
AcDbEntity
  8
TITLE_BLOCK
  6
CONTINUOUS
 62
     7
100
AcDbVertex
100
AcDb2dVertex
 10
-16.682172
 20
-22.762192
 30
0.0
 70
     8
  0
VERTEX
  5
31EEF
330
1A126
100
AcDbEntity
  8
TITLE_BLOCK
  6
CONTINUOUS
 62
     7
100
AcDbVertex
100
AcDb2dVertex
 10
-16.682172
 20
-22.762192
 30
0.0
 70
    16
  0
VERTEX
  5
31EF0
330
1A126
100
AcDbEntity
  8
TITLE_BLOCK
  6
CONTINUOUS
 62
     7
100
AcDbVertex
100
AcDb2dVertex
 10
-16.616156
 20
-22.763364
 30
0.0
 70
    16
  0
VERTEX
  5
31EF1
330
1A126
100
AcDbEntity
  8
TITLE_BLOCK
  6
CONTINUOUS
 62
     7
100
AcDbVertex
100
AcDb2dVertex
 10
-16.54975
 20
-22.763793
 30
0.0
 70
    16
  0
VERTEX
  5
31EF2
330
1A126
100
AcDbEntity
  8
TITLE_BLOCK
  6
CONTINUOUS
 62
     7
100
AcDbVertex
100
AcDb2dVertex
 10
-16.483343
 20
-22.764575
 30
0.0
 70
    16
  0
VERTEX
  5
31EF3
330
1A126
100
AcDbEntity
  8
TITLE_BLOCK
  6
CONTINUOUS
 62
     7
100
AcDbVertex
100
AcDb2dVertex
 10
-16.48057
 20
-22.99059
 30
0.0
 70
    16
  0
VERTEX
  5
31EF4
330
1A126
100
AcDbEntity
  8
TITLE_BLOCK
  6
CONTINUOUS
 62
     7
100
AcDbVertex
100
AcDb2dVertex
 10
-16.484164
 20
-23.216567
 30
0.0
 70
    16
  0
VERTEX
  5
31EF5
330
1A126
100
AcDbEntity
  8
TITLE_BLOCK
  6
CONTINUOUS
 62
     7
100
AcDbVertex
100
AcDb2dVertex
 10
-16.481351
 20
-23.442582
 30
0.0
 70
    16
  0
VERTEX
  5
31EF6
330
1A126
100
AcDbEntity
  8
TITLE_BLOCK
  6
CONTINUOUS
 62
     7
100
AcDbVertex
100
AcDb2dVertex
 10
-16.548148
 20
-23.443793
 30
0.0
 70
    16
  0
VERTEX
  5
31EF7
330
1A126
100
AcDbEntity
  8
TITLE_BLOCK
  6
CONTINUOUS
 62
     7
100
AcDbVertex
100
AcDb2dVertex
 10
-16.614945
 20
-23.445356
 30
0.0
 70
    16
  0
VERTEX
  5
31EF8
330
1A126
100
AcDbEntity
  8
TITLE_BLOCK
  6
CONTINUOUS
 62
     7
100
AcDbVertex
100
AcDb2dVertex
 10
-16.681781
 20
-23.447387
 30
0.0
 70
    16
  0
VERTEX
  5
31EF9
330
1A126
100
AcDbEntity
  8
TITLE_BLOCK
  6
CONTINUOUS
 62
     7
100
AcDbVertex
100
AcDb2dVertex
 10
-16.683343
 20
-23.218989
 30
0.0
 70
    16
  0
VERTEX
  5
31EFA
330
1A126
100
AcDbEntity
  8
TITLE_BLOCK
  6
CONTINUOUS
 62
     7
100
AcDbVertex
100
AcDb2dVertex
 10
-16.680961
 20
-22.99059
 30
0.0
 70
    16
  0
VERTEX
  5
31EFB
330
1A126
100
AcDbEntity
  8
TITLE_BLOCK
  6
CONTINUOUS
 62
     7
100
AcDbVertex
100
AcDb2dVertex
 10
-16.682172
 20
-22.762192
 30
0.0
 70
    16
  0
VERTEX
  5
31EFC
330
1A126
100
AcDbEntity
  8
TITLE_BLOCK
  6
CONTINUOUS
 62
     7
100
AcDbVertex
100
AcDb2dVertex
 10
-16.682172
 20
-22.762192
 30
0.0
 70
    16
  0
VERTEX
  5
31EFD
330
1A126
100
AcDbEntity
  8
TITLE_BLOCK
  6
CONTINUOUS
 62
     7
100
AcDbVertex
100
AcDb2dVertex
 10
-16.682172
 20
-22.762192
 30
0.0
 70
    16
  0
VERTEX
  5
31EFE
330
1A126
100
AcDbEntity
  8
TITLE_BLOCK
  6
CONTINUOUS
 62
     7
100
AcDbVertex
100
AcDb2dVertex
 10
-16.682172
 20
-22.762192
 30
0.0
 70
    16
  0
SEQEND
  5
31EFF
330
1A126
100
AcDbEntity
  8
TITLE_BLOCK
  6
CONTINUOUS
 62
     7
  0
POLYLINE
  5
1A13D
330
31A96
100
AcDbEntity
  8
TITLE_BLOCK
  6
CONTINUOUS
 62
     7
100
AcDb2dPolyline
 66
     1
 10
0.0
 20
0.0
 30
0.0
 70
     5
 75
     5
  0
VERTEX
  5
31F00
330
1A13D
100
AcDbEntity
  8
TITLE_BLOCK
  6
CONTINUOUS
 62
     7
100
AcDbVertex
100
AcDb2dVertex
 10
-16.326156
 20
-22.758168
 30
0.0
 70
     8
  0
VERTEX
  5
31F01
330
1A13D
100
AcDbEntity
  8
TITLE_BLOCK
  6
CONTINUOUS
 62
     7
100
AcDbVertex
100
AcDb2dVertex
 10
-16.286633
 20
-22.759739
 30
0.0
 70
     8
  0
VERTEX
  5
31F02
330
1A13D
100
AcDbEntity
  8
TITLE_BLOCK
  6
CONTINUOUS
 62
     7
100
AcDbVertex
100
AcDb2dVertex
 10
-16.247303
 20
-22.763173
 30
0.0
 70
     8
  0
VERTEX
  5
31F03
330
1A13D
100
AcDbEntity
  8
TITLE_BLOCK
  6
CONTINUOUS
 62
     7
100
AcDbVertex
100
AcDb2dVertex
 10
-16.208201
 20
-22.768402
 30
0.0
 70
     8
  0
VERTEX
  5
31F04
330
1A13D
100
AcDbEntity
  8
TITLE_BLOCK
  6
CONTINUOUS
 62
     7
100
AcDbVertex
100
AcDb2dVertex
 10
-16.169359
 20
-22.775356
 30
0.0
 70
     8
  0
VERTEX
  5
31F05
330
1A13D
100
AcDbEntity
  8
TITLE_BLOCK
  6
CONTINUOUS
 62
     7
100
AcDbVertex
100
AcDb2dVertex
 10
-16.126673
 20
-22.829473
 30
0.0
 70
     8
  0
VERTEX
  5
31F06
330
1A13D
100
AcDbEntity
  8
TITLE_BLOCK
  6
CONTINUOUS
 62
     7
100
AcDbVertex
100
AcDb2dVertex
 10
-16.085788
 20
-22.884979
 30
0.0
 70
     8
  0
VERTEX
  5
31F07
330
1A13D
100
AcDbEntity
  8
TITLE_BLOCK
  6
CONTINUOUS
 62
     7
100
AcDbVertex
100
AcDb2dVertex
 10
-16.006869
 20
-22.998227
 30
0.0
 70
     8
  0
VERTEX
  5
31F08
330
1A13D
100
AcDbEntity
  8
TITLE_BLOCK
  6
CONTINUOUS
 62
     7
100
AcDbVertex
100
AcDb2dVertex
 10
-15.927495
 20
-23.111241
 30
0.0
 70
     8
  0
VERTEX
  5
31F09
330
1A13D
100
AcDbEntity
  8
TITLE_BLOCK
  6
CONTINUOUS
 62
     7
100
AcDbVertex
100
AcDb2dVertex
 10
-15.886043
 20
-23.166454
 30
0.0
 70
     8
  0
VERTEX
  5
31F0A
330
1A13D
100
AcDbEntity
  8
TITLE_BLOCK
  6
CONTINUOUS
 62
     7
100
AcDbVertex
100
AcDb2dVertex
 10
-15.842562
 20
-23.220161
 30
0.0
 70
     8
  0
VERTEX
  5
31F0B
330
1A13D
100
AcDbEntity
  8
TITLE_BLOCK
  6
CONTINUOUS
 62
     7
100
AcDbVertex
100
AcDb2dVertex
 10
-15.843465
 20
-22.991977
 30
0.0
 70
     8
  0
VERTEX
  5
31F0C
330
1A13D
100
AcDbEntity
  8
TITLE_BLOCK
  6
CONTINUOUS
 62
     7
100
AcDbVertex
100
AcDb2dVertex
 10
-15.843458
 20
-22.877849
 30
0.0
 70
     8
  0
VERTEX
  5
31F0D
330
1A13D
100
AcDbEntity
  8
TITLE_BLOCK
  6
CONTINUOUS
 62
     7
100
AcDbVertex
100
AcDb2dVertex
 10
-15.841351
 20
-22.763793
 30
0.0
 70
     8
  0
VERTEX
  5
31F0E
330
1A13D
100
AcDbEntity
  8
TITLE_BLOCK
  6
CONTINUOUS
 62
     7
100
AcDbVertex
100
AcDb2dVertex
 10
-15.67975
 20
-22.766567
 30
0.0
 70
     8
  0
VERTEX
  5
31F0F
330
1A13D
100
AcDbEntity
  8
TITLE_BLOCK
  6
CONTINUOUS
 62
     7
100
AcDbVertex
100
AcDb2dVertex
 10
-15.682289
 20
-22.936005
 30
0.0
 70
     8
  0
VERTEX
  5
31F10
330
1A13D
100
AcDbEntity
  8
TITLE_BLOCK
  6
CONTINUOUS
 62
     7
100
AcDbVertex
100
AcDb2dVertex
 10
-15.682953
 20
-23.105327
 30
0.0
 70
     8
  0
VERTEX
  5
31F11
330
1A13D
100
AcDbEntity
  8
TITLE_BLOCK
  6
CONTINUOUS
 62
     7
100
AcDbVertex
100
AcDb2dVertex
 10
-15.680179
 20
-23.443793
 30
0.0
 70
     8
  0
VERTEX
  5
31F12
330
1A13D
100
AcDbEntity
  8
TITLE_BLOCK
  6
CONTINUOUS
 62
     7
100
AcDbVertex
100
AcDb2dVertex
 10
-15.835375
 20
-23.444965
 30
0.0
 70
     8
  0
VERTEX
  5
31F13
330
1A13D
100
AcDbEntity
  8
TITLE_BLOCK
  6
CONTINUOUS
 62
     7
100
AcDbVertex
100
AcDb2dVertex
 10
-15.994823
 20
-23.214521
 30
0.0
 70
     8
  0
VERTEX
  5
31F14
330
1A13D
100
AcDbEntity
  8
TITLE_BLOCK
  6
CONTINUOUS
 62
     7
100
AcDbVertex
100
AcDb2dVertex
 10
-16.075728
 20
-23.100099
 30
0.0
 70
     8
  0
VERTEX
  5
31F15
330
1A13D
100
AcDbEntity
  8
TITLE_BLOCK
  6
CONTINUOUS
 62
     7
100
AcDbVertex
100
AcDb2dVertex
 10
-16.117509
 20
-23.043859
 30
0.0
 70
     8
  0
VERTEX
  5
31F16
330
1A13D
100
AcDbEntity
  8
TITLE_BLOCK
  6
CONTINUOUS
 62
     7
100
AcDbVertex
100
AcDb2dVertex
 10
-16.16057
 20
-22.988559
 30
0.0
 70
     8
  0
VERTEX
  5
31F17
330
1A13D
100
AcDbEntity
  8
TITLE_BLOCK
  6
CONTINUOUS
 62
     7
100
AcDbVertex
100
AcDb2dVertex
 10
-16.162572
 20
-23.214575
 30
0.0
 70
     8
  0
VERTEX
  5
31F18
330
1A13D
100
AcDbEntity
  8
TITLE_BLOCK
  6
CONTINUOUS
 62
     7
100
AcDbVertex
100
AcDb2dVertex
 10
-16.163343
 20
-23.44059
 30
0.0
 70
     8
  0
VERTEX
  5
31F19
330
1A13D
100
AcDbEntity
  8
TITLE_BLOCK
  6
CONTINUOUS
 62
     7
100
AcDbVertex
100
AcDb2dVertex
 10
-16.320961
 20
-23.448559
 30
0.0
 70
     8
  0
VERTEX
  5
31F1A
330
1A13D
100
AcDbEntity
  8
TITLE_BLOCK
  6
CONTINUOUS
 62
     7
100
AcDbVertex
100
AcDb2dVertex
 10
-16.322569
 20
-23.275833
 30
0.0
 70
     8
  0
VERTEX
  5
31F1B
330
1A13D
100
AcDbEntity
  8
TITLE_BLOCK
  6
CONTINUOUS
 62
     7
100
AcDbVertex
100
AcDb2dVertex
 10
-16.322372
 20
-23.103217
 30
0.0
 70
     8
  0
VERTEX
  5
31F1C
330
1A13D
100
AcDbEntity
  8
TITLE_BLOCK
  6
CONTINUOUS
 62
     7
100
AcDbVertex
100
AcDb2dVertex
 10
-16.322768
 20
-22.930675
 30
0.0
 70
     8
  0
VERTEX
  5
31F1D
330
1A13D
100
AcDbEntity
  8
TITLE_BLOCK
  6
CONTINUOUS
 62
     7
100
AcDbVertex
100
AcDb2dVertex
 10
-16.326156
 20
-22.758168
 30
0.0
 70
     8
  0
VERTEX
  5
31F1E
330
1A13D
100
AcDbEntity
  8
TITLE_BLOCK
  6
CONTINUOUS
 62
     7
100
AcDbVertex
100
AcDb2dVertex
 10
-16.326156
 20
-22.758168
 30
0.0
 70
     8
  0
VERTEX
  5
31F1F
330
1A13D
100
AcDbEntity
  8
TITLE_BLOCK
  6
CONTINUOUS
 62
     7
100
AcDbVertex
100
AcDb2dVertex
 10
-16.326156
 20
-22.758168
 30
0.0
 70
    16
  0
VERTEX
  5
31F20
330
1A13D
100
AcDbEntity
  8
TITLE_BLOCK
  6
CONTINUOUS
 62
     7
100
AcDbVertex
100
AcDb2dVertex
 10
-16.273343
 20
-22.758989
 30
0.0
 70
    16
  0
VERTEX
  5
31F21
330
1A13D
100
AcDbEntity
  8
TITLE_BLOCK
  6
CONTINUOUS
 62
     7
100
AcDbVertex
100
AcDb2dVertex
 10
-16.220961
 20
-22.764965
 30
0.0
 70
    16
  0
VERTEX
  5
31F22
330
1A13D
100
AcDbEntity
  8
TITLE_BLOCK
  6
CONTINUOUS
 62
     7
100
AcDbVertex
100
AcDb2dVertex
 10
-16.169359
 20
-22.775356
 30
0.0
 70
    16
  0
VERTEX
  5
31F23
330
1A13D
100
AcDbEntity
  8
TITLE_BLOCK
  6
CONTINUOUS
 62
     7
100
AcDbVertex
100
AcDb2dVertex
 10
-16.052562
 20
-22.917387
 30
0.0
 70
    16
  0
VERTEX
  5
31F24
330
1A13D
100
AcDbEntity
  8
TITLE_BLOCK
  6
CONTINUOUS
 62
     7
100
AcDbVertex
100
AcDb2dVertex
 10
-15.961781
 20
-23.079379
 30
0.0
 70
    16
  0
VERTEX
  5
31F25
330
1A13D
100
AcDbEntity
  8
TITLE_BLOCK
  6
CONTINUOUS
 62
     7
100
AcDbVertex
100
AcDb2dVertex
 10
-15.842562
 20
-23.220161
 30
0.0
 70
    16
  0
VERTEX
  5
31F26
330
1A13D
100
AcDbEntity
  8
TITLE_BLOCK
  6
CONTINUOUS
 62
     7
100
AcDbVertex
100
AcDb2dVertex
 10
-15.841781
 20
-23.068168
 30
0.0
 70
    16
  0
VERTEX
  5
31F27
330
1A13D
100
AcDbEntity
  8
TITLE_BLOCK
  6
CONTINUOUS
 62
     7
100
AcDbVertex
100
AcDb2dVertex
 10
-15.846156
 20
-22.915786
 30
0.0
 70
    16
  0
VERTEX
  5
31F28
330
1A13D
100
AcDbEntity
  8
TITLE_BLOCK
  6
CONTINUOUS
 62
     7
100
AcDbVertex
100
AcDb2dVertex
 10
-15.841351
 20
-22.763793
 30
0.0
 70
    16
  0
VERTEX
  5
31F29
330
1A13D
100
AcDbEntity
  8
TITLE_BLOCK
  6
CONTINUOUS
 62
     7
100
AcDbVertex
100
AcDb2dVertex
 10
-15.787367
 20
-22.764965
 30
0.0
 70
    16
  0
VERTEX
  5
31F2A
330
1A13D
100
AcDbEntity
  8
TITLE_BLOCK
  6
CONTINUOUS
 62
     7
100
AcDbVertex
100
AcDb2dVertex
 10
-15.733773
 20
-22.765786
 30
0.0
 70
    16
  0
VERTEX
  5
31F2B
330
1A13D
100
AcDbEntity
  8
TITLE_BLOCK
  6
CONTINUOUS
 62
     7
100
AcDbVertex
100
AcDb2dVertex
 10
-15.67975
 20
-22.766567
 30
0.0
 70
    16
  0
VERTEX
  5
31F2C
330
1A13D
100
AcDbEntity
  8
TITLE_BLOCK
  6
CONTINUOUS
 62
     7
100
AcDbVertex
100
AcDb2dVertex
 10
-15.684554
 20
-22.992582
 30
0.0
 70
    16
  0
VERTEX
  5
31F2D
330
1A13D
100
AcDbEntity
  8
TITLE_BLOCK
  6
CONTINUOUS
 62
     7
100
AcDbVertex
100
AcDb2dVertex
 10
-15.683343
 20
-23.218168
 30
0.0
 70
    16
  0
VERTEX
  5
31F2E
330
1A13D
100
AcDbEntity
  8
TITLE_BLOCK
  6
CONTINUOUS
 62
     7
100
AcDbVertex
100
AcDb2dVertex
 10
-15.680179
 20
-23.443793
 30
0.0
 70
    16
  0
VERTEX
  5
31F2F
330
1A13D
100
AcDbEntity
  8
TITLE_BLOCK
  6
CONTINUOUS
 62
     7
100
AcDbVertex
100
AcDb2dVertex
 10
-15.732172
 20
-23.444184
 30
0.0
 70
    16
  0
VERTEX
  5
31F30
330
1A13D
100
AcDbEntity
  8
TITLE_BLOCK
  6
CONTINUOUS
 62
     7
100
AcDbVertex
100
AcDb2dVertex
 10
-15.783773
 20
-23.444575
 30
0.0
 70
    16
  0
VERTEX
  5
31F31
330
1A13D
100
AcDbEntity
  8
TITLE_BLOCK
  6
CONTINUOUS
 62
     7
100
AcDbVertex
100
AcDb2dVertex
 10
-15.835375
 20
-23.444965
 30
0.0
 70
    16
  0
VERTEX
  5
31F32
330
1A13D
100
AcDbEntity
  8
TITLE_BLOCK
  6
CONTINUOUS
 62
     7
100
AcDbVertex
100
AcDb2dVertex
 10
-15.943773
 20
-23.292973
 30
0.0
 70
    16
  0
VERTEX
  5
31F33
330
1A13D
100
AcDbEntity
  8
TITLE_BLOCK
  6
CONTINUOUS
 62
     7
100
AcDbVertex
100
AcDb2dVertex
 10
-16.043773
 20
-23.134575
 30
0.0
 70
    16
  0
VERTEX
  5
31F34
330
1A13D
100
AcDbEntity
  8
TITLE_BLOCK
  6
CONTINUOUS
 62
     7
100
AcDbVertex
100
AcDb2dVertex
 10
-16.16057
 20
-22.988559
 30
0.0
 70
    16
  0
VERTEX
  5
31F35
330
1A13D
100
AcDbEntity
  8
TITLE_BLOCK
  6
CONTINUOUS
 62
     7
100
AcDbVertex
100
AcDb2dVertex
 10
-16.163773
 20
-23.139379
 30
0.0
 70
    16
  0
VERTEX
  5
31F36
330
1A13D
100
AcDbEntity
  8
TITLE_BLOCK
  6
CONTINUOUS
 62
     7
100
AcDbVertex
100
AcDb2dVertex
 10
-16.161781
 20
-23.28977
 30
0.0
 70
    16
  0
VERTEX
  5
31F37
330
1A13D
100
AcDbEntity
  8
TITLE_BLOCK
  6
CONTINUOUS
 62
     7
100
AcDbVertex
100
AcDb2dVertex
 10
-16.163343
 20
-23.44059
 30
0.0
 70
    16
  0
VERTEX
  5
31F38
330
1A13D
100
AcDbEntity
  8
TITLE_BLOCK
  6
CONTINUOUS
 62
     7
100
AcDbVertex
100
AcDb2dVertex
 10
-16.216156
 20
-23.443364
 30
0.0
 70
    16
  0
VERTEX
  5
31F39
330
1A13D
100
AcDbEntity
  8
TITLE_BLOCK
  6
CONTINUOUS
 62
     7
100
AcDbVertex
100
AcDb2dVertex
 10
-16.268578
 20
-23.445786
 30
0.0
 70
    16
  0
VERTEX
  5
31F3A
330
1A13D
100
AcDbEntity
  8
TITLE_BLOCK
  6
CONTINUOUS
 62
     7
100
AcDbVertex
100
AcDb2dVertex
 10
-16.320961
 20
-23.448559
 30
0.0
 70
    16
  0
VERTEX
  5
31F3B
330
1A13D
100
AcDbEntity
  8
TITLE_BLOCK
  6
CONTINUOUS
 62
     7
100
AcDbVertex
100
AcDb2dVertex
 10
-16.325375
 20
-23.218168
 30
0.0
 70
    16
  0
VERTEX
  5
31F3C
330
1A13D
100
AcDbEntity
  8
TITLE_BLOCK
  6
CONTINUOUS
 62
     7
100
AcDbVertex
100
AcDb2dVertex
 10
-16.318578
 20
-22.988168
 30
0.0
 70
    16
  0
VERTEX
  5
31F3D
330
1A13D
100
AcDbEntity
  8
TITLE_BLOCK
  6
CONTINUOUS
 62
     7
100
AcDbVertex
100
AcDb2dVertex
 10
-16.326156
 20
-22.758168
 30
0.0
 70
    16
  0
VERTEX
  5
31F3E
330
1A13D
100
AcDbEntity
  8
TITLE_BLOCK
  6
CONTINUOUS
 62
     7
100
AcDbVertex
100
AcDb2dVertex
 10
-16.326156
 20
-22.758168
 30
0.0
 70
    16
  0
VERTEX
  5
31F3F
330
1A13D
100
AcDbEntity
  8
TITLE_BLOCK
  6
CONTINUOUS
 62
     7
100
AcDbVertex
100
AcDb2dVertex
 10
-16.326156
 20
-22.758168
 30
0.0
 70
    16
  0
VERTEX
  5
31F40
330
1A13D
100
AcDbEntity
  8
TITLE_BLOCK
  6
CONTINUOUS
 62
     7
100
AcDbVertex
100
AcDb2dVertex
 10
-16.326156
 20
-22.758168
 30
0.0
 70
    16
  0
SEQEND
  5
31F41
330
1A13D
100
AcDbEntity
  8
TITLE_BLOCK
  6
CONTINUOUS
 62
     7
  0
POLYLINE
  5
1A17F
330
31A96
100
AcDbEntity
  8
TITLE_BLOCK
  6
CONTINUOUS
 62
     7
100
AcDb2dPolyline
 66
     1
 10
0.0
 20
0.0
 30
0.0
 70
     5
 75
     5
  0
VERTEX
  5
31F42
330
1A17F
100
AcDbEntity
  8
TITLE_BLOCK
  6
CONTINUOUS
 62
     7
100
AcDbVertex
100
AcDb2dVertex
 10
-15.523343
 20
-22.765356
 30
0.0
 70
     8
  0
VERTEX
  5
31F43
330
1A17F
100
AcDbEntity
  8
TITLE_BLOCK
  6
CONTINUOUS
 62
     7
100
AcDbVertex
100
AcDb2dVertex
 10
-15.324164
 20
-22.762973
 30
0.0
 70
     8
  0
VERTEX
  5
31F44
330
1A17F
100
AcDbEntity
  8
TITLE_BLOCK
  6
CONTINUOUS
 62
     7
100
AcDbVertex
100
AcDb2dVertex
 10
-15.321112
 20
-23.023417
 30
0.0
 70
     8
  0
VERTEX
  5
31F45
330
1A17F
100
AcDbEntity
  8
TITLE_BLOCK
  6
CONTINUOUS
 62
     7
100
AcDbVertex
100
AcDb2dVertex
 10
-15.321631
 20
-23.15374
 30
0.0
 70
     8
  0
VERTEX
  5
31F46
330
1A17F
100
AcDbEntity
  8
TITLE_BLOCK
  6
CONTINUOUS
 62
     7
100
AcDbVertex
100
AcDb2dVertex
 10
-15.323773
 20
-23.284184
 30
0.0
 70
     8
  0
VERTEX
  5
31F47
330
1A17F
100
AcDbEntity
  8
TITLE_BLOCK
  6
CONTINUOUS
 62
     7
100
AcDbVertex
100
AcDb2dVertex
 10
-15.002953
 20
-23.285786
 30
0.0
 70
     8
  0
VERTEX
  5
31F48
330
1A17F
100
AcDbEntity
  8
TITLE_BLOCK
  6
CONTINUOUS
 62
     7
100
AcDbVertex
100
AcDb2dVertex
 10
-15.003773
 20
-23.442973
 30
0.0
 70
     8
  0
VERTEX
  5
31F49
330
1A17F
100
AcDbEntity
  8
TITLE_BLOCK
  6
CONTINUOUS
 62
     7
100
AcDbVertex
100
AcDb2dVertex
 10
-15.264769
 20
-23.444829
 30
0.0
 70
     8
  0
VERTEX
  5
31F4A
330
1A17F
100
AcDbEntity
  8
TITLE_BLOCK
  6
CONTINUOUS
 62
     7
100
AcDbVertex
100
AcDb2dVertex
 10
-15.525765
 20
-23.444575
 30
0.0
 70
     8
  0
VERTEX
  5
31F4B
330
1A17F
100
AcDbEntity
  8
TITLE_BLOCK
  6
CONTINUOUS
 62
     7
100
AcDbVertex
100
AcDb2dVertex
 10
-15.522695
 20
-23.27477
 30
0.0
 70
     8
  0
VERTEX
  5
31F4C
330
1A17F
100
AcDbEntity
  8
TITLE_BLOCK
  6
CONTINUOUS
 62
     7
100
AcDbVertex
100
AcDb2dVertex
 10
-15.522767
 20
-23.104965
 30
0.0
 70
     8
  0
VERTEX
  5
31F4D
330
1A17F
100
AcDbEntity
  8
TITLE_BLOCK
  6
CONTINUOUS
 62
     7
100
AcDbVertex
100
AcDb2dVertex
 10
-15.523343
 20
-22.765356
 30
0.0
 70
     8
  0
VERTEX
  5
31F4E
330
1A17F
100
AcDbEntity
  8
TITLE_BLOCK
  6
CONTINUOUS
 62
     7
100
AcDbVertex
100
AcDb2dVertex
 10
-15.523343
 20
-22.765356
 30
0.0
 70
     8
  0
VERTEX
  5
31F4F
330
1A17F
100
AcDbEntity
  8
TITLE_BLOCK
  6
CONTINUOUS
 62
     7
100
AcDbVertex
100
AcDb2dVertex
 10
-15.523343
 20
-22.765356
 30
0.0
 70
    16
  0
VERTEX
  5
31F50
330
1A17F
100
AcDbEntity
  8
TITLE_BLOCK
  6
CONTINUOUS
 62
     7
100
AcDbVertex
100
AcDb2dVertex
 10
-15.456976
 20
-22.764575
 30
0.0
 70
    16
  0
VERTEX
  5
31F51
330
1A17F
100
AcDbEntity
  8
TITLE_BLOCK
  6
CONTINUOUS
 62
     7
100
AcDbVertex
100
AcDb2dVertex
 10
-15.39057
 20
-22.763793
 30
0.0
 70
    16
  0
VERTEX
  5
31F52
330
1A17F
100
AcDbEntity
  8
TITLE_BLOCK
  6
CONTINUOUS
 62
     7
100
AcDbVertex
100
AcDb2dVertex
 10
-15.324164
 20
-22.762973
 30
0.0
 70
    16
  0
VERTEX
  5
31F53
330
1A17F
100
AcDbEntity
  8
TITLE_BLOCK
  6
CONTINUOUS
 62
     7
100
AcDbVertex
100
AcDb2dVertex
 10
-15.32057
 20
-22.936567
 30
0.0
 70
    16
  0
VERTEX
  5
31F54
330
1A17F
100
AcDbEntity
  8
TITLE_BLOCK
  6
CONTINUOUS
 62
     7
100
AcDbVertex
100
AcDb2dVertex
 10
-15.31975
 20
-23.110161
 30
0.0
 70
    16
  0
VERTEX
  5
31F55
330
1A17F
100
AcDbEntity
  8
TITLE_BLOCK
  6
CONTINUOUS
 62
     7
100
AcDbVertex
100
AcDb2dVertex
 10
-15.323773
 20
-23.284184
 30
0.0
 70
    16
  0
VERTEX
  5
31F56
330
1A17F
100
AcDbEntity
  8
TITLE_BLOCK
  6
CONTINUOUS
 62
     7
100
AcDbVertex
100
AcDb2dVertex
 10
-15.216976
 20
-23.284965
 30
0.0
 70
    16
  0
VERTEX
  5
31F57
330
1A17F
100
AcDbEntity
  8
TITLE_BLOCK
  6
CONTINUOUS
 62
     7
100
AcDbVertex
100
AcDb2dVertex
 10
-15.110179
 20
-23.284965
 30
0.0
 70
    16
  0
VERTEX
  5
31F58
330
1A17F
100
AcDbEntity
  8
TITLE_BLOCK
  6
CONTINUOUS
 62
     7
100
AcDbVertex
100
AcDb2dVertex
 10
-15.002953
 20
-23.285786
 30
0.0
 70
    16
  0
VERTEX
  5
31F59
330
1A17F
100
AcDbEntity
  8
TITLE_BLOCK
  6
CONTINUOUS
 62
     7
100
AcDbVertex
100
AcDb2dVertex
 10
-15.003343
 20
-23.338168
 30
0.0
 70
    16
  0
VERTEX
  5
31F5A
330
1A17F
100
AcDbEntity
  8
TITLE_BLOCK
  6
CONTINUOUS
 62
     7
100
AcDbVertex
100
AcDb2dVertex
 10
-15.003773
 20
-23.39059
 30
0.0
 70
    16
  0
VERTEX
  5
31F5B
330
1A17F
100
AcDbEntity
  8
TITLE_BLOCK
  6
CONTINUOUS
 62
     7
100
AcDbVertex
100
AcDb2dVertex
 10
-15.003773
 20
-23.442973
 30
0.0
 70
    16
  0
VERTEX
  5
31F5C
330
1A17F
100
AcDbEntity
  8
TITLE_BLOCK
  6
CONTINUOUS
 62
     7
100
AcDbVertex
100
AcDb2dVertex
 10
-15.177757
 20
-23.446176
 30
0.0
 70
    16
  0
VERTEX
  5
31F5D
330
1A17F
100
AcDbEntity
  8
TITLE_BLOCK
  6
CONTINUOUS
 62
     7
100
AcDbVertex
100
AcDb2dVertex
 10
-15.351781
 20
-23.444184
 30
0.0
 70
    16
  0
VERTEX
  5
31F5E
330
1A17F
100
AcDbEntity
  8
TITLE_BLOCK
  6
CONTINUOUS
 62
     7
100
AcDbVertex
100
AcDb2dVertex
 10
-15.525765
 20
-23.444575
 30
0.0
 70
    16
  0
VERTEX
  5
31F5F
330
1A17F
100
AcDbEntity
  8
TITLE_BLOCK
  6
CONTINUOUS
 62
     7
100
AcDbVertex
100
AcDb2dVertex
 10
-15.518578
 20
-23.218168
 30
0.0
 70
    16
  0
VERTEX
  5
31F60
330
1A17F
100
AcDbEntity
  8
TITLE_BLOCK
  6
CONTINUOUS
 62
     7
100
AcDbVertex
100
AcDb2dVertex
 10
-15.525765
 20
-22.991762
 30
0.0
 70
    16
  0
VERTEX
  5
31F61
330
1A17F
100
AcDbEntity
  8
TITLE_BLOCK
  6
CONTINUOUS
 62
     7
100
AcDbVertex
100
AcDb2dVertex
 10
-15.523343
 20
-22.765356
 30
0.0
 70
    16
  0
VERTEX
  5
31F62
330
1A17F
100
AcDbEntity
  8
TITLE_BLOCK
  6
CONTINUOUS
 62
     7
100
AcDbVertex
100
AcDb2dVertex
 10
-15.523343
 20
-22.765356
 30
0.0
 70
    16
  0
VERTEX
  5
31F63
330
1A17F
100
AcDbEntity
  8
TITLE_BLOCK
  6
CONTINUOUS
 62
     7
100
AcDbVertex
100
AcDb2dVertex
 10
-15.523343
 20
-22.765356
 30
0.0
 70
    16
  0
VERTEX
  5
31F64
330
1A17F
100
AcDbEntity
  8
TITLE_BLOCK
  6
CONTINUOUS
 62
     7
100
AcDbVertex
100
AcDb2dVertex
 10
-15.523343
 20
-22.765356
 30
0.0
 70
    16
  0
SEQEND
  5
31F65
330
1A17F
100
AcDbEntity
  8
TITLE_BLOCK
  6
CONTINUOUS
 62
     7
  0
POLYLINE
  5
1A1A3
330
31A96
100
AcDbEntity
  8
TITLE_BLOCK
  6
CONTINUOUS
 62
     7
100
AcDb2dPolyline
 66
     1
 10
0.0
 20
0.0
 30
0.0
 70
     5
 75
     5
  0
VERTEX
  5
31F66
330
1A1A3
100
AcDbEntity
  8
TITLE_BLOCK
  6
CONTINUOUS
 62
     7
100
AcDbVertex
100
AcDb2dVertex
 10
-14.885375
 20
-22.762582
 30
0.0
 70
     8
  0
VERTEX
  5
31F67
330
1A1A3
100
AcDbEntity
  8
TITLE_BLOCK
  6
CONTINUOUS
 62
     7
100
AcDbVertex
100
AcDb2dVertex
 10
-14.744308
 20
-22.764799
 30
0.0
 70
     8
  0
VERTEX
  5
31F68
330
1A1A3
100
AcDbEntity
  8
TITLE_BLOCK
  6
CONTINUOUS
 62
     7
100
AcDbVertex
100
AcDb2dVertex
 10
-14.603168
 20
-22.76499
 30
0.0
 70
     8
  0
VERTEX
  5
31F69
330
1A1A3
100
AcDbEntity
  8
TITLE_BLOCK
  6
CONTINUOUS
 62
     7
100
AcDbVertex
100
AcDb2dVertex
 10
-14.320961
 20
-22.763793
 30
0.0
 70
     8
  0
VERTEX
  5
31F6A
330
1A1A3
100
AcDbEntity
  8
TITLE_BLOCK
  6
CONTINUOUS
 62
     7
100
AcDbVertex
100
AcDb2dVertex
 10
-14.321781
 20
-22.925356
 30
0.0
 70
     8
  0
VERTEX
  5
31F6B
330
1A1A3
100
AcDbEntity
  8
TITLE_BLOCK
  6
CONTINUOUS
 62
     7
100
AcDbVertex
100
AcDb2dVertex
 10
-14.501161
 20
-22.923422
 30
0.0
 70
     8
  0
VERTEX
  5
31F6C
330
1A1A3
100
AcDbEntity
  8
TITLE_BLOCK
  6
CONTINUOUS
 62
     7
100
AcDbVertex
100
AcDb2dVertex
 10
-14.68057
 20
-22.924184
 30
0.0
 70
     8
  0
VERTEX
  5
31F6D
330
1A1A3
100
AcDbEntity
  8
TITLE_BLOCK
  6
CONTINUOUS
 62
     7
100
AcDbVertex
100
AcDb2dVertex
 10
-14.682953
 20
-23.004575
 30
0.0
 70
     8
  0
VERTEX
  5
31F6E
330
1A1A3
100
AcDbEntity
  8
TITLE_BLOCK
  6
CONTINUOUS
 62
     7
100
AcDbVertex
100
AcDb2dVertex
 10
-14.363773
 20
-23.002973
 30
0.0
 70
     8
  0
VERTEX
  5
31F6F
330
1A1A3
100
AcDbEntity
  8
TITLE_BLOCK
  6
CONTINUOUS
 62
     7
100
AcDbVertex
100
AcDb2dVertex
 10
-14.363343
 20
-23.166176
 30
0.0
 70
     8
  0
VERTEX
  5
31F70
330
1A1A3
100
AcDbEntity
  8
TITLE_BLOCK
  6
CONTINUOUS
 62
     7
100
AcDbVertex
100
AcDb2dVertex
 10
-14.682953
 20
-23.164965
 30
0.0
 70
     8
  0
VERTEX
  5
31F71
330
1A1A3
100
AcDbEntity
  8
TITLE_BLOCK
  6
CONTINUOUS
 62
     7
100
AcDbVertex
100
AcDb2dVertex
 10
-14.682953
 20
-23.286567
 30
0.0
 70
     8
  0
VERTEX
  5
31F72
330
1A1A3
100
AcDbEntity
  8
TITLE_BLOCK
  6
CONTINUOUS
 62
     7
100
AcDbVertex
100
AcDb2dVertex
 10
-14.502167
 20
-23.284072
 30
0.0
 70
     8
  0
VERTEX
  5
31F73
330
1A1A3
100
AcDbEntity
  8
TITLE_BLOCK
  6
CONTINUOUS
 62
     7
100
AcDbVertex
100
AcDb2dVertex
 10
-14.321351
 20
-23.283364
 30
0.0
 70
     8
  0
VERTEX
  5
31F74
330
1A1A3
100
AcDbEntity
  8
TITLE_BLOCK
  6
CONTINUOUS
 62
     7
100
AcDbVertex
100
AcDb2dVertex
 10
-14.326156
 20
-23.447387
 30
0.0
 70
     8
  0
VERTEX
  5
31F75
330
1A1A3
100
AcDbEntity
  8
TITLE_BLOCK
  6
CONTINUOUS
 62
     7
100
AcDbVertex
100
AcDb2dVertex
 10
-14.46482
 20
-23.445079
 30
0.0
 70
     8
  0
VERTEX
  5
31F76
330
1A1A3
100
AcDbEntity
  8
TITLE_BLOCK
  6
CONTINUOUS
 62
     7
100
AcDbVertex
100
AcDb2dVertex
 10
-14.603558
 20
-23.444536
 30
0.0
 70
     8
  0
VERTEX
  5
31F77
330
1A1A3
100
AcDbEntity
  8
TITLE_BLOCK
  6
CONTINUOUS
 62
     7
100
AcDbVertex
100
AcDb2dVertex
 10
-14.880961
 20
-23.443793
 30
0.0
 70
     8
  0
VERTEX
  5
31F78
330
1A1A3
100
AcDbEntity
  8
TITLE_BLOCK
  6
CONTINUOUS
 62
     7
100
AcDbVertex
100
AcDb2dVertex
 10
-14.882826
 20
-23.273441
 30
0.0
 70
     8
  0
VERTEX
  5
31F79
330
1A1A3
100
AcDbEntity
  8
TITLE_BLOCK
  6
CONTINUOUS
 62
     7
100
AcDbVertex
100
AcDb2dVertex
 10
-14.883314
 20
-23.103173
 30
0.0
 70
     8
  0
VERTEX
  5
31F7A
330
1A1A3
100
AcDbEntity
  8
TITLE_BLOCK
  6
CONTINUOUS
 62
     7
100
AcDbVertex
100
AcDb2dVertex
 10
-14.885375
 20
-22.762582
 30
0.0
 70
     8
  0
VERTEX
  5
31F7B
330
1A1A3
100
AcDbEntity
  8
TITLE_BLOCK
  6
CONTINUOUS
 62
     7
100
AcDbVertex
100
AcDb2dVertex
 10
-14.885375
 20
-22.762582
 30
0.0
 70
     8
  0
VERTEX
  5
31F7C
330
1A1A3
100
AcDbEntity
  8
TITLE_BLOCK
  6
CONTINUOUS
 62
     7
100
AcDbVertex
100
AcDb2dVertex
 10
-14.885375
 20
-22.762582
 30
0.0
 70
    16
  0
VERTEX
  5
31F7D
330
1A1A3
100
AcDbEntity
  8
TITLE_BLOCK
  6
CONTINUOUS
 62
     7
100
AcDbVertex
100
AcDb2dVertex
 10
-14.697367
 20
-22.767387
 30
0.0
 70
    16
  0
VERTEX
  5
31F7E
330
1A1A3
100
AcDbEntity
  8
TITLE_BLOCK
  6
CONTINUOUS
 62
     7
100
AcDbVertex
100
AcDb2dVertex
 10
-14.508968
 20
-22.763793
 30
0.0
 70
    16
  0
VERTEX
  5
31F7F
330
1A1A3
100
AcDbEntity
  8
TITLE_BLOCK
  6
CONTINUOUS
 62
     7
100
AcDbVertex
100
AcDb2dVertex
 10
-14.320961
 20
-22.763793
 30
0.0
 70
    16
  0
VERTEX
  5
31F80
330
1A1A3
100
AcDbEntity
  8
TITLE_BLOCK
  6
CONTINUOUS
 62
     7
100
AcDbVertex
100
AcDb2dVertex
 10
-14.320961
 20
-22.817387
 30
0.0
 70
    16
  0
VERTEX
  5
31F81
330
1A1A3
100
AcDbEntity
  8
TITLE_BLOCK
  6
CONTINUOUS
 62
     7
100
AcDbVertex
100
AcDb2dVertex
 10
-14.321351
 20
-22.871372
 30
0.0
 70
    16
  0
VERTEX
  5
31F82
330
1A1A3
100
AcDbEntity
  8
TITLE_BLOCK
  6
CONTINUOUS
 62
     7
100
AcDbVertex
100
AcDb2dVertex
 10
-14.321781
 20
-22.925356
 30
0.0
 70
    16
  0
VERTEX
  5
31F83
330
1A1A3
100
AcDbEntity
  8
TITLE_BLOCK
  6
CONTINUOUS
 62
     7
100
AcDbVertex
100
AcDb2dVertex
 10
-14.441351
 20
-22.922973
 30
0.0
 70
    16
  0
VERTEX
  5
31F84
330
1A1A3
100
AcDbEntity
  8
TITLE_BLOCK
  6
CONTINUOUS
 62
     7
100
AcDbVertex
100
AcDb2dVertex
 10
-14.560961
 20
-22.922973
 30
0.0
 70
    16
  0
VERTEX
  5
31F85
330
1A1A3
100
AcDbEntity
  8
TITLE_BLOCK
  6
CONTINUOUS
 62
     7
100
AcDbVertex
100
AcDb2dVertex
 10
-14.68057
 20
-22.924184
 30
0.0
 70
    16
  0
VERTEX
  5
31F86
330
1A1A3
100
AcDbEntity
  8
TITLE_BLOCK
  6
CONTINUOUS
 62
     7
100
AcDbVertex
100
AcDb2dVertex
 10
-14.681351
 20
-22.944184
 30
0.0
 70
    16
  0
VERTEX
  5
31F87
330
1A1A3
100
AcDbEntity
  8
TITLE_BLOCK
  6
CONTINUOUS
 62
     7
100
AcDbVertex
100
AcDb2dVertex
 10
-14.682562
 20
-22.984184
 30
0.0
 70
    16
  0
VERTEX
  5
31F88
330
1A1A3
100
AcDbEntity
  8
TITLE_BLOCK
  6
CONTINUOUS
 62
     7
100
AcDbVertex
100
AcDb2dVertex
 10
-14.682953
 20
-23.004575
 30
0.0
 70
    16
  0
VERTEX
  5
31F89
330
1A1A3
100
AcDbEntity
  8
TITLE_BLOCK
  6
CONTINUOUS
 62
     7
100
AcDbVertex
100
AcDb2dVertex
 10
-14.576976
 20
-23.003364
 30
0.0
 70
    16
  0
VERTEX
  5
31F8A
330
1A1A3
100
AcDbEntity
  8
TITLE_BLOCK
  6
CONTINUOUS
 62
     7
100
AcDbVertex
100
AcDb2dVertex
 10
-14.47057
 20
-23.003364
 30
0.0
 70
    16
  0
VERTEX
  5
31F8B
330
1A1A3
100
AcDbEntity
  8
TITLE_BLOCK
  6
CONTINUOUS
 62
     7
100
AcDbVertex
100
AcDb2dVertex
 10
-14.363773
 20
-23.002973
 30
0.0
 70
    16
  0
VERTEX
  5
31F8C
330
1A1A3
100
AcDbEntity
  8
TITLE_BLOCK
  6
CONTINUOUS
 62
     7
100
AcDbVertex
100
AcDb2dVertex
 10
-14.363773
 20
-23.057387
 30
0.0
 70
    16
  0
VERTEX
  5
31F8D
330
1A1A3
100
AcDbEntity
  8
TITLE_BLOCK
  6
CONTINUOUS
 62
     7
100
AcDbVertex
100
AcDb2dVertex
 10
-14.363773
 20
-23.111762
 30
0.0
 70
    16
  0
VERTEX
  5
31F8E
330
1A1A3
100
AcDbEntity
  8
TITLE_BLOCK
  6
CONTINUOUS
 62
     7
100
AcDbVertex
100
AcDb2dVertex
 10
-14.363343
 20
-23.166176
 30
0.0
 70
    16
  0
VERTEX
  5
31F8F
330
1A1A3
100
AcDbEntity
  8
TITLE_BLOCK
  6
CONTINUOUS
 62
     7
100
AcDbVertex
100
AcDb2dVertex
 10
-14.46975
 20
-23.164965
 30
0.0
 70
    16
  0
VERTEX
  5
31F90
330
1A1A3
100
AcDbEntity
  8
TITLE_BLOCK
  6
CONTINUOUS
 62
     7
100
AcDbVertex
100
AcDb2dVertex
 10
-14.576547
 20
-23.165356
 30
0.0
 70
    16
  0
VERTEX
  5
31F91
330
1A1A3
100
AcDbEntity
  8
TITLE_BLOCK
  6
CONTINUOUS
 62
     7
100
AcDbVertex
100
AcDb2dVertex
 10
-14.682953
 20
-23.164965
 30
0.0
 70
    16
  0
VERTEX
  5
31F92
330
1A1A3
100
AcDbEntity
  8
TITLE_BLOCK
  6
CONTINUOUS
 62
     7
100
AcDbVertex
100
AcDb2dVertex
 10
-14.682953
 20
-23.195356
 30
0.0
 70
    16
  0
VERTEX
  5
31F93
330
1A1A3
100
AcDbEntity
  8
TITLE_BLOCK
  6
CONTINUOUS
 62
     7
100
AcDbVertex
100
AcDb2dVertex
 10
-14.682953
 20
-23.256176
 30
0.0
 70
    16
  0
VERTEX
  5
31F94
330
1A1A3
100
AcDbEntity
  8
TITLE_BLOCK
  6
CONTINUOUS
 62
     7
100
AcDbVertex
100
AcDb2dVertex
 10
-14.682953
 20
-23.286567
 30
0.0
 70
    16
  0
VERTEX
  5
31F95
330
1A1A3
100
AcDbEntity
  8
TITLE_BLOCK
  6
CONTINUOUS
 62
     7
100
AcDbVertex
100
AcDb2dVertex
 10
-14.562562
 20
-23.284575
 30
0.0
 70
    16
  0
VERTEX
  5
31F96
330
1A1A3
100
AcDbEntity
  8
TITLE_BLOCK
  6
CONTINUOUS
 62
     7
100
AcDbVertex
100
AcDb2dVertex
 10
-14.441781
 20
-23.282973
 30
0.0
 70
    16
  0
VERTEX
  5
31F97
330
1A1A3
100
AcDbEntity
  8
TITLE_BLOCK
  6
CONTINUOUS
 62
     7
100
AcDbVertex
100
AcDb2dVertex
 10
-14.321351
 20
-23.283364
 30
0.0
 70
    16
  0
VERTEX
  5
31F98
330
1A1A3
100
AcDbEntity
  8
TITLE_BLOCK
  6
CONTINUOUS
 62
     7
100
AcDbVertex
100
AcDb2dVertex
 10
-14.322953
 20
-23.338168
 30
0.0
 70
    16
  0
VERTEX
  5
31F99
330
1A1A3
100
AcDbEntity
  8
TITLE_BLOCK
  6
CONTINUOUS
 62
     7
100
AcDbVertex
100
AcDb2dVertex
 10
-14.324554
 20
-23.392582
 30
0.0
 70
    16
  0
VERTEX
  5
31F9A
330
1A1A3
100
AcDbEntity
  8
TITLE_BLOCK
  6
CONTINUOUS
 62
     7
100
AcDbVertex
100
AcDb2dVertex
 10
-14.326156
 20
-23.447387
 30
0.0
 70
    16
  0
VERTEX
  5
31F9B
330
1A1A3
100
AcDbEntity
  8
TITLE_BLOCK
  6
CONTINUOUS
 62
     7
100
AcDbVertex
100
AcDb2dVertex
 10
-14.510961
 20
-23.442582
 30
0.0
 70
    16
  0
VERTEX
  5
31F9C
330
1A1A3
100
AcDbEntity
  8
TITLE_BLOCK
  6
CONTINUOUS
 62
     7
100
AcDbVertex
100
AcDb2dVertex
 10
-14.696156
 20
-23.445786
 30
0.0
 70
    16
  0
VERTEX
  5
31F9D
330
1A1A3
100
AcDbEntity
  8
TITLE_BLOCK
  6
CONTINUOUS
 62
     7
100
AcDbVertex
100
AcDb2dVertex
 10
-14.880961
 20
-23.443793
 30
0.0
 70
    16
  0
VERTEX
  5
31F9E
330
1A1A3
100
AcDbEntity
  8
TITLE_BLOCK
  6
CONTINUOUS
 62
     7
100
AcDbVertex
100
AcDb2dVertex
 10
-14.884945
 20
-23.216567
 30
0.0
 70
    16
  0
VERTEX
  5
31F9F
330
1A1A3
100
AcDbEntity
  8
TITLE_BLOCK
  6
CONTINUOUS
 62
     7
100
AcDbVertex
100
AcDb2dVertex
 10
-14.881781
 20
-22.98977
 30
0.0
 70
    16
  0
VERTEX
  5
31FA0
330
1A1A3
100
AcDbEntity
  8
TITLE_BLOCK
  6
CONTINUOUS
 62
     7
100
AcDbVertex
100
AcDb2dVertex
 10
-14.885375
 20
-22.762582
 30
0.0
 70
    16
  0
VERTEX
  5
31FA1
330
1A1A3
100
AcDbEntity
  8
TITLE_BLOCK
  6
CONTINUOUS
 62
     7
100
AcDbVertex
100
AcDb2dVertex
 10
-14.885375
 20
-22.762582
 30
0.0
 70
    16
  0
VERTEX
  5
31FA2
330
1A1A3
100
AcDbEntity
  8
TITLE_BLOCK
  6
CONTINUOUS
 62
     7
100
AcDbVertex
100
AcDb2dVertex
 10
-14.885375
 20
-22.762582
 30
0.0
 70
    16
  0
VERTEX
  5
31FA3
330
1A1A3
100
AcDbEntity
  8
TITLE_BLOCK
  6
CONTINUOUS
 62
     7
100
AcDbVertex
100
AcDb2dVertex
 10
-14.885375
 20
-22.762582
 30
0.0
 70
    16
  0
SEQEND
  5
31FA4
330
1A1A3
100
AcDbEntity
  8
TITLE_BLOCK
  6
CONTINUOUS
 62
     7
  0
POLYLINE
  5
1A1E2
330
31A96
100
AcDbEntity
  8
TITLE_BLOCK
  6
CONTINUOUS
 62
     7
100
AcDb2dPolyline
 66
     1
 10
0.0
 20
0.0
 30
0.0
 70
     5
 75
     5
  0
VERTEX
  5
31FA5
330
1A1E2
100
AcDbEntity
  8
TITLE_BLOCK
  6
CONTINUOUS
 62
     7
100
AcDbVertex
100
AcDb2dVertex
 10
-14.14975
 20
-22.795786
 30
0.0
 70
     8
  0
VERTEX
  5
31FA6
330
1A1E2
100
AcDbEntity
  8
TITLE_BLOCK
  6
CONTINUOUS
 62
     7
100
AcDbVertex
100
AcDb2dVertex
 10
-14.027718
 20
-22.774726
 30
0.0
 70
     8
  0
VERTEX
  5
31FA7
330
1A1E2
100
AcDbEntity
  8
TITLE_BLOCK
  6
CONTINUOUS
 62
     7
100
AcDbVertex
100
AcDb2dVertex
 10
-13.966223
 20
-22.76726
 30
0.0
 70
     8
  0
VERTEX
  5
31FA8
330
1A1E2
100
AcDbEntity
  8
TITLE_BLOCK
  6
CONTINUOUS
 62
     7
100
AcDbVertex
100
AcDb2dVertex
 10
-13.904164
 20
-22.764184
 30
0.0
 70
     8
  0
VERTEX
  5
31FA9
330
1A1E2
100
AcDbEntity
  8
TITLE_BLOCK
  6
CONTINUOUS
 62
     7
100
AcDbVertex
100
AcDb2dVertex
 10
-13.835809
 20
-22.785532
 30
0.0
 70
     8
  0
VERTEX
  5
31FAA
330
1A1E2
100
AcDbEntity
  8
TITLE_BLOCK
  6
CONTINUOUS
 62
     7
100
AcDbVertex
100
AcDb2dVertex
 10
-13.766547
 20
-22.804184
 30
0.0
 70
     8
  0
VERTEX
  5
31FAB
330
1A1E2
100
AcDbEntity
  8
TITLE_BLOCK
  6
CONTINUOUS
 62
     7
100
AcDbVertex
100
AcDb2dVertex
 10
-13.742502
 20
-22.84368
 30
0.0
 70
     8
  0
VERTEX
  5
31FAC
330
1A1E2
100
AcDbEntity
  8
TITLE_BLOCK
  6
CONTINUOUS
 62
     7
100
AcDbVertex
100
AcDb2dVertex
 10
-13.719999
 20
-22.884077
 30
0.0
 70
     8
  0
VERTEX
  5
31FAD
330
1A1E2
100
AcDbEntity
  8
TITLE_BLOCK
  6
CONTINUOUS
 62
     7
100
AcDbVertex
100
AcDb2dVertex
 10
-13.678578
 20
-22.966957
 30
0.0
 70
     8
  0
VERTEX
  5
31FAE
330
1A1E2
100
AcDbEntity
  8
TITLE_BLOCK
  6
CONTINUOUS
 62
     7
100
AcDbVertex
100
AcDb2dVertex
 10
-13.702946
 20
-22.972852
 30
0.0
 70
     8
  0
VERTEX
  5
31FAF
330
1A1E2
100
AcDbEntity
  8
TITLE_BLOCK
  6
CONTINUOUS
 62
     7
100
AcDbVertex
100
AcDb2dVertex
 10
-13.728347
 20
-22.974547
 30
0.0
 70
     8
  0
VERTEX
  5
31FB0
330
1A1E2
100
AcDbEntity
  8
TITLE_BLOCK
  6
CONTINUOUS
 62
     7
100
AcDbVertex
100
AcDb2dVertex
 10
-13.754548
 20
-22.972821
 30
0.0
 70
     8
  0
VERTEX
  5
31FB1
330
1A1E2
100
AcDbEntity
  8
TITLE_BLOCK
  6
CONTINUOUS
 62
     7
100
AcDbVertex
100
AcDb2dVertex
 10
-13.781317
 20
-22.968452
 30
0.0
 70
     8
  0
VERTEX
  5
31FB2
330
1A1E2
100
AcDbEntity
  8
TITLE_BLOCK
  6
CONTINUOUS
 62
     7
100
AcDbVertex
100
AcDb2dVertex
 10
-13.835627
 20
-22.954902
 30
0.0
 70
     8
  0
VERTEX
  5
31FB3
330
1A1E2
100
AcDbEntity
  8
TITLE_BLOCK
  6
CONTINUOUS
 62
     7
100
AcDbVertex
100
AcDb2dVertex
 10
-13.889418
 20
-22.940126
 30
0.0
 70
     8
  0
VERTEX
  5
31FB4
330
1A1E2
100
AcDbEntity
  8
TITLE_BLOCK
  6
CONTINUOUS
 62
     7
100
AcDbVertex
100
AcDb2dVertex
 10
-13.915536
 20
-22.934226
 30
0.0
 70
     8
  0
VERTEX
  5
31FB5
330
1A1E2
100
AcDbEntity
  8
TITLE_BLOCK
  6
CONTINUOUS
 62
     7
100
AcDbVertex
100
AcDb2dVertex
 10
-13.940828
 20
-22.930355
 30
0.0
 70
     8
  0
VERTEX
  5
31FB6
330
1A1E2
100
AcDbEntity
  8
TITLE_BLOCK
  6
CONTINUOUS
 62
     7
100
AcDbVertex
100
AcDb2dVertex
 10
-13.965058
 20
-22.929293
 30
0.0
 70
     8
  0
VERTEX
  5
31FB7
330
1A1E2
100
AcDbEntity
  8
TITLE_BLOCK
  6
CONTINUOUS
 62
     7
100
AcDbVertex
100
AcDb2dVertex
 10
-13.987997
 20
-22.931818
 30
0.0
 70
     8
  0
VERTEX
  5
31FB8
330
1A1E2
100
AcDbEntity
  8
TITLE_BLOCK
  6
CONTINUOUS
 62
     7
100
AcDbVertex
100
AcDb2dVertex
 10
-14.00941
 20
-22.938709
 30
0.0
 70
     8
  0
VERTEX
  5
31FB9
330
1A1E2
100
AcDbEntity
  8
TITLE_BLOCK
  6
CONTINUOUS
 62
     7
100
AcDbVertex
100
AcDb2dVertex
 10
-14.029065
 20
-22.950744
 30
0.0
 70
     8
  0
VERTEX
  5
31FBA
330
1A1E2
100
AcDbEntity
  8
TITLE_BLOCK
  6
CONTINUOUS
 62
     7
100
AcDbVertex
100
AcDb2dVertex
 10
-14.04673
 20
-22.968703
 30
0.0
 70
     8
  0
VERTEX
  5
31FBB
330
1A1E2
100
AcDbEntity
  8
TITLE_BLOCK
  6
CONTINUOUS
 62
     7
100
AcDbVertex
100
AcDb2dVertex
 10
-14.062172
 20
-22.993364
 30
0.0
 70
     8
  0
VERTEX
  5
31FBC
330
1A1E2
100
AcDbEntity
  8
TITLE_BLOCK
  6
CONTINUOUS
 62
     7
100
AcDbVertex
100
AcDb2dVertex
 10
-14.001023
 20
-23.008531
 30
0.0
 70
     8
  0
VERTEX
  5
31FBD
330
1A1E2
100
AcDbEntity
  8
TITLE_BLOCK
  6
CONTINUOUS
 62
     7
100
AcDbVertex
100
AcDb2dVertex
 10
-13.936883
 20
-23.022003
 30
0.0
 70
     8
  0
VERTEX
  5
31FBE
330
1A1E2
100
AcDbEntity
  8
TITLE_BLOCK
  6
CONTINUOUS
 62
     7
100
AcDbVertex
100
AcDb2dVertex
 10
-13.872311
 20
-23.036583
 30
0.0
 70
     8
  0
VERTEX
  5
31FBF
330
1A1E2
100
AcDbEntity
  8
TITLE_BLOCK
  6
CONTINUOUS
 62
     7
100
AcDbVertex
100
AcDb2dVertex
 10
-13.840663
 20
-23.045164
 30
0.0
 70
     8
  0
VERTEX
  5
31FC0
330
1A1E2
100
AcDbEntity
  8
TITLE_BLOCK
  6
CONTINUOUS
 62
     7
100
AcDbVertex
100
AcDb2dVertex
 10
-13.809867
 20
-23.055073
 30
0.0
 70
     8
  0
VERTEX
  5
31FC1
330
1A1E2
100
AcDbEntity
  8
TITLE_BLOCK
  6
CONTINUOUS
 62
     7
100
AcDbVertex
100
AcDb2dVertex
 10
-13.780242
 20
-23.06666
 30
0.0
 70
     8
  0
VERTEX
  5
31FC2
330
1A1E2
100
AcDbEntity
  8
TITLE_BLOCK
  6
CONTINUOUS
 62
     7
100
AcDbVertex
100
AcDb2dVertex
 10
-13.75211
 20
-23.080276
 30
0.0
 70
     8
  0
VERTEX
  5
31FC3
330
1A1E2
100
AcDbEntity
  8
TITLE_BLOCK
  6
CONTINUOUS
 62
     7
100
AcDbVertex
100
AcDb2dVertex
 10
-13.725789
 20
-23.09627
 30
0.0
 70
     8
  0
VERTEX
  5
31FC4
330
1A1E2
100
AcDbEntity
  8
TITLE_BLOCK
  6
CONTINUOUS
 62
     7
100
AcDbVertex
100
AcDb2dVertex
 10
-13.7016
 20
-23.114993
 30
0.0
 70
     8
  0
VERTEX
  5
31FC5
330
1A1E2
100
AcDbEntity
  8
TITLE_BLOCK
  6
CONTINUOUS
 62
     7
100
AcDbVertex
100
AcDb2dVertex
 10
-13.679863
 20
-23.136796
 30
0.0
 70
     8
  0
VERTEX
  5
31FC6
330
1A1E2
100
AcDbEntity
  8
TITLE_BLOCK
  6
CONTINUOUS
 62
     7
100
AcDbVertex
100
AcDb2dVertex
 10
-13.660898
 20
-23.162029
 30
0.0
 70
     8
  0
VERTEX
  5
31FC7
330
1A1E2
100
AcDbEntity
  8
TITLE_BLOCK
  6
CONTINUOUS
 62
     7
100
AcDbVertex
100
AcDb2dVertex
 10
-13.645024
 20
-23.191041
 30
0.0
 70
     8
  0
VERTEX
  5
31FC8
330
1A1E2
100
AcDbEntity
  8
TITLE_BLOCK
  6
CONTINUOUS
 62
     7
100
AcDbVertex
100
AcDb2dVertex
 10
-13.632562
 20
-23.224184
 30
0.0
 70
     8
  0
VERTEX
  5
31FC9
330
1A1E2
100
AcDbEntity
  8
TITLE_BLOCK
  6
CONTINUOUS
 62
     7
100
AcDbVertex
100
AcDb2dVertex
 10
-13.640646
 20
-23.250781
 30
0.0
 70
     8
  0
VERTEX
  5
31FCA
330
1A1E2
100
AcDbEntity
  8
TITLE_BLOCK
  6
CONTINUOUS
 62
     7
100
AcDbVertex
100
AcDb2dVertex
 10
-13.651069
 20
-23.275676
 30
0.0
 70
     8
  0
VERTEX
  5
31FCB
330
1A1E2
100
AcDbEntity
  8
TITLE_BLOCK
  6
CONTINUOUS
 62
     7
100
AcDbVertex
100
AcDb2dVertex
 10
-13.663675
 20
-23.298869
 30
0.0
 70
     8
  0
VERTEX
  5
31FCC
330
1A1E2
100
AcDbEntity
  8
TITLE_BLOCK
  6
CONTINUOUS
 62
     7
100
AcDbVertex
100
AcDb2dVertex
 10
-13.678311
 20
-23.320361
 30
0.0
 70
     8
  0
VERTEX
  5
31FCD
330
1A1E2
100
AcDbEntity
  8
TITLE_BLOCK
  6
CONTINUOUS
 62
     7
100
AcDbVertex
100
AcDb2dVertex
 10
-13.694821
 20
-23.340149
 30
0.0
 70
     8
  0
VERTEX
  5
31FCE
330
1A1E2
100
AcDbEntity
  8
TITLE_BLOCK
  6
CONTINUOUS
 62
     7
100
AcDbVertex
100
AcDb2dVertex
 10
-13.713051
 20
-23.358235
 30
0.0
 70
     8
  0
VERTEX
  5
31FCF
330
1A1E2
100
AcDbEntity
  8
TITLE_BLOCK
  6
CONTINUOUS
 62
     7
100
AcDbVertex
100
AcDb2dVertex
 10
-13.732845
 20
-23.374618
 30
0.0
 70
     8
  0
VERTEX
  5
31FD0
330
1A1E2
100
AcDbEntity
  8
TITLE_BLOCK
  6
CONTINUOUS
 62
     7
100
AcDbVertex
100
AcDb2dVertex
 10
-13.75405
 20
-23.389297
 30
0.0
 70
     8
  0
VERTEX
  5
31FD1
330
1A1E2
100
AcDbEntity
  8
TITLE_BLOCK
  6
CONTINUOUS
 62
     7
100
AcDbVertex
100
AcDb2dVertex
 10
-13.776509
 20
-23.402272
 30
0.0
 70
     8
  0
VERTEX
  5
31FD2
330
1A1E2
100
AcDbEntity
  8
TITLE_BLOCK
  6
CONTINUOUS
 62
     7
100
AcDbVertex
100
AcDb2dVertex
 10
-13.800068
 20
-23.413544
 30
0.0
 70
     8
  0
VERTEX
  5
31FD3
330
1A1E2
100
AcDbEntity
  8
TITLE_BLOCK
  6
CONTINUOUS
 62
     7
100
AcDbVertex
100
AcDb2dVertex
 10
-13.824573
 20
-23.423111
 30
0.0
 70
     8
  0
VERTEX
  5
31FD4
330
1A1E2
100
AcDbEntity
  8
TITLE_BLOCK
  6
CONTINUOUS
 62
     7
100
AcDbVertex
100
AcDb2dVertex
 10
-13.849868
 20
-23.430974
 30
0.0
 70
     8
  0
VERTEX
  5
31FD5
330
1A1E2
100
AcDbEntity
  8
TITLE_BLOCK
  6
CONTINUOUS
 62
     7
100
AcDbVertex
100
AcDb2dVertex
 10
-13.875799
 20
-23.437131
 30
0.0
 70
     8
  0
VERTEX
  5
31FD6
330
1A1E2
100
AcDbEntity
  8
TITLE_BLOCK
  6
CONTINUOUS
 62
     7
100
AcDbVertex
100
AcDb2dVertex
 10
-13.902211
 20
-23.441583
 30
0.0
 70
     8
  0
VERTEX
  5
31FD7
330
1A1E2
100
AcDbEntity
  8
TITLE_BLOCK
  6
CONTINUOUS
 62
     7
100
AcDbVertex
100
AcDb2dVertex
 10
-13.928949
 20
-23.44433
 30
0.0
 70
     8
  0
VERTEX
  5
31FD8
330
1A1E2
100
AcDbEntity
  8
TITLE_BLOCK
  6
CONTINUOUS
 62
     7
100
AcDbVertex
100
AcDb2dVertex
 10
-13.955858
 20
-23.445371
 30
0.0
 70
     8
  0
VERTEX
  5
31FD9
330
1A1E2
100
AcDbEntity
  8
TITLE_BLOCK
  6
CONTINUOUS
 62
     7
100
AcDbVertex
100
AcDb2dVertex
 10
-13.982783
 20
-23.444705
 30
0.0
 70
     8
  0
VERTEX
  5
31FDA
330
1A1E2
100
AcDbEntity
  8
TITLE_BLOCK
  6
CONTINUOUS
 62
     7
100
AcDbVertex
100
AcDb2dVertex
 10
-14.00957
 20
-23.442333
 30
0.0
 70
     8
  0
VERTEX
  5
31FDB
330
1A1E2
100
AcDbEntity
  8
TITLE_BLOCK
  6
CONTINUOUS
 62
     7
100
AcDbVertex
100
AcDb2dVertex
 10
-14.036064
 20
-23.438254
 30
0.0
 70
     8
  0
VERTEX
  5
31FDC
330
1A1E2
100
AcDbEntity
  8
TITLE_BLOCK
  6
CONTINUOUS
 62
     7
100
AcDbVertex
100
AcDb2dVertex
 10
-14.06211
 20
-23.432468
 30
0.0
 70
     8
  0
VERTEX
  5
31FDD
330
1A1E2
100
AcDbEntity
  8
TITLE_BLOCK
  6
CONTINUOUS
 62
     7
100
AcDbVertex
100
AcDb2dVertex
 10
-14.087552
 20
-23.424975
 30
0.0
 70
     8
  0
VERTEX
  5
31FDE
330
1A1E2
100
AcDbEntity
  8
TITLE_BLOCK
  6
CONTINUOUS
 62
     7
100
AcDbVertex
100
AcDb2dVertex
 10
-14.112237
 20
-23.415774
 30
0.0
 70
     8
  0
VERTEX
  5
31FDF
330
1A1E2
100
AcDbEntity
  8
TITLE_BLOCK
  6
CONTINUOUS
 62
     7
100
AcDbVertex
100
AcDb2dVertex
 10
-14.136009
 20
-23.404865
 30
0.0
 70
     8
  0
VERTEX
  5
31FE0
330
1A1E2
100
AcDbEntity
  8
TITLE_BLOCK
  6
CONTINUOUS
 62
     7
100
AcDbVertex
100
AcDb2dVertex
 10
-14.158714
 20
-23.392247
 30
0.0
 70
     8
  0
VERTEX
  5
31FE1
330
1A1E2
100
AcDbEntity
  8
TITLE_BLOCK
  6
CONTINUOUS
 62
     7
100
AcDbVertex
100
AcDb2dVertex
 10
-14.180196
 20
-23.377921
 30
0.0
 70
     8
  0
VERTEX
  5
31FE2
330
1A1E2
100
AcDbEntity
  8
TITLE_BLOCK
  6
CONTINUOUS
 62
     7
100
AcDbVertex
100
AcDb2dVertex
 10
-14.200302
 20
-23.361886
 30
0.0
 70
     8
  0
VERTEX
  5
31FE3
330
1A1E2
100
AcDbEntity
  8
TITLE_BLOCK
  6
CONTINUOUS
 62
     7
100
AcDbVertex
100
AcDb2dVertex
 10
-14.218875
 20
-23.344142
 30
0.0
 70
     8
  0
VERTEX
  5
31FE4
330
1A1E2
100
AcDbEntity
  8
TITLE_BLOCK
  6
CONTINUOUS
 62
     7
100
AcDbVertex
100
AcDb2dVertex
 10
-14.235762
 20
-23.324688
 30
0.0
 70
     8
  0
VERTEX
  5
31FE5
330
1A1E2
100
AcDbEntity
  8
TITLE_BLOCK
  6
CONTINUOUS
 62
     7
100
AcDbVertex
100
AcDb2dVertex
 10
-14.250806
 20
-23.303524
 30
0.0
 70
     8
  0
VERTEX
  5
31FE6
330
1A1E2
100
AcDbEntity
  8
TITLE_BLOCK
  6
CONTINUOUS
 62
     7
100
AcDbVertex
100
AcDb2dVertex
 10
-14.263855
 20
-23.28065
 30
0.0
 70
     8
  0
VERTEX
  5
31FE7
330
1A1E2
100
AcDbEntity
  8
TITLE_BLOCK
  6
CONTINUOUS
 62
     7
100
AcDbVertex
100
AcDb2dVertex
 10
-14.274752
 20
-23.256065
 30
0.0
 70
     8
  0
VERTEX
  5
31FE8
330
1A1E2
100
AcDbEntity
  8
TITLE_BLOCK
  6
CONTINUOUS
 62
     7
100
AcDbVertex
100
AcDb2dVertex
 10
-14.283343
 20
-23.22977
 30
0.0
 70
     8
  0
VERTEX
  5
31FE9
330
1A1E2
100
AcDbEntity
  8
TITLE_BLOCK
  6
CONTINUOUS
 62
     7
100
AcDbVertex
100
AcDb2dVertex
 10
-14.101781
 20
-23.203364
 30
0.0
 70
     8
  0
VERTEX
  5
31FEA
330
1A1E2
100
AcDbEntity
  8
TITLE_BLOCK
  6
CONTINUOUS
 62
     7
100
AcDbVertex
100
AcDb2dVertex
 10
-14.091507
 20
-23.222692
 30
0.0
 70
     8
  0
VERTEX
  5
31FEB
330
1A1E2
100
AcDbEntity
  8
TITLE_BLOCK
  6
CONTINUOUS
 62
     7
100
AcDbVertex
100
AcDb2dVertex
 10
-14.07941
 20
-23.238843
 30
0.0
 70
     8
  0
VERTEX
  5
31FEC
330
1A1E2
100
AcDbEntity
  8
TITLE_BLOCK
  6
CONTINUOUS
 62
     7
100
AcDbVertex
100
AcDb2dVertex
 10
-14.065674
 20
-23.25206
 30
0.0
 70
     8
  0
VERTEX
  5
31FED
330
1A1E2
100
AcDbEntity
  8
TITLE_BLOCK
  6
CONTINUOUS
 62
     7
100
AcDbVertex
100
AcDb2dVertex
 10
-14.050482
 20
-23.262587
 30
0.0
 70
     8
  0
VERTEX
  5
31FEE
330
1A1E2
100
AcDbEntity
  8
TITLE_BLOCK
  6
CONTINUOUS
 62
     7
100
AcDbVertex
100
AcDb2dVertex
 10
-14.034018
 20
-23.270667
 30
0.0
 70
     8
  0
VERTEX
  5
31FEF
330
1A1E2
100
AcDbEntity
  8
TITLE_BLOCK
  6
CONTINUOUS
 62
     7
100
AcDbVertex
100
AcDb2dVertex
 10
-14.016464
 20
-23.276544
 30
0.0
 70
     8
  0
VERTEX
  5
31FF0
330
1A1E2
100
AcDbEntity
  8
TITLE_BLOCK
  6
CONTINUOUS
 62
     7
100
AcDbVertex
100
AcDb2dVertex
 10
-13.998004
 20
-23.280463
 30
0.0
 70
     8
  0
VERTEX
  5
31FF1
330
1A1E2
100
AcDbEntity
  8
TITLE_BLOCK
  6
CONTINUOUS
 62
     7
100
AcDbVertex
100
AcDb2dVertex
 10
-13.978822
 20
-23.282665
 30
0.0
 70
     8
  0
VERTEX
  5
31FF2
330
1A1E2
100
AcDbEntity
  8
TITLE_BLOCK
  6
CONTINUOUS
 62
     7
100
AcDbVertex
100
AcDb2dVertex
 10
-13.939023
 20
-23.2829
 30
0.0
 70
     8
  0
VERTEX
  5
31FF3
330
1A1E2
100
AcDbEntity
  8
TITLE_BLOCK
  6
CONTINUOUS
 62
     7
100
AcDbVertex
100
AcDb2dVertex
 10
-13.898534
 20
-23.279197
 30
0.0
 70
     8
  0
VERTEX
  5
31FF4
330
1A1E2
100
AcDbEntity
  8
TITLE_BLOCK
  6
CONTINUOUS
 62
     7
100
AcDbVertex
100
AcDb2dVertex
 10
-13.821351
 20
-23.267778
 30
0.0
 70
     8
  0
VERTEX
  5
31FF5
330
1A1E2
100
AcDbEntity
  8
TITLE_BLOCK
  6
CONTINUOUS
 62
     7
100
AcDbVertex
100
AcDb2dVertex
 10
-13.828154
 20
-23.244058
 30
0.0
 70
     8
  0
VERTEX
  5
31FF6
330
1A1E2
100
AcDbEntity
  8
TITLE_BLOCK
  6
CONTINUOUS
 62
     7
100
AcDbVertex
100
AcDb2dVertex
 10
-13.837867
 20
-23.223701
 30
0.0
 70
     8
  0
VERTEX
  5
31FF7
330
1A1E2
100
AcDbEntity
  8
TITLE_BLOCK
  6
CONTINUOUS
 62
     7
100
AcDbVertex
100
AcDb2dVertex
 10
-13.850205
 20
-23.206405
 30
0.0
 70
     8
  0
VERTEX
  5
31FF8
330
1A1E2
100
AcDbEntity
  8
TITLE_BLOCK
  6
CONTINUOUS
 62
     7
100
AcDbVertex
100
AcDb2dVertex
 10
-13.864883
 20
-23.191867
 30
0.0
 70
     8
  0
VERTEX
  5
31FF9
330
1A1E2
100
AcDbEntity
  8
TITLE_BLOCK
  6
CONTINUOUS
 62
     7
100
AcDbVertex
100
AcDb2dVertex
 10
-13.881613
 20
-23.179783
 30
0.0
 70
     8
  0
VERTEX
  5
31FFA
330
1A1E2
100
AcDbEntity
  8
TITLE_BLOCK
  6
CONTINUOUS
 62
     7
100
AcDbVertex
100
AcDb2dVertex
 10
-13.900111
 20
-23.169851
 30
0.0
 70
     8
  0
VERTEX
  5
31FFB
330
1A1E2
100
AcDbEntity
  8
TITLE_BLOCK
  6
CONTINUOUS
 62
     7
100
AcDbVertex
100
AcDb2dVertex
 10
-13.92009
 20
-23.161767
 30
0.0
 70
     8
  0
VERTEX
  5
31FFC
330
1A1E2
100
AcDbEntity
  8
TITLE_BLOCK
  6
CONTINUOUS
 62
     7
100
AcDbVertex
100
AcDb2dVertex
 10
-13.941263
 20
-23.155229
 30
0.0
 70
     8
  0
VERTEX
  5
31FFD
330
1A1E2
100
AcDbEntity
  8
TITLE_BLOCK
  6
CONTINUOUS
 62
     7
100
AcDbVertex
100
AcDb2dVertex
 10
-13.986052
 20
-23.145576
 30
0.0
 70
     8
  0
VERTEX
  5
31FFE
330
1A1E2
100
AcDbEntity
  8
TITLE_BLOCK
  6
CONTINUOUS
 62
     7
100
AcDbVertex
100
AcDb2dVertex
 10
-14.03219
 20
-23.138469
 30
0.0
 70
     8
  0
VERTEX
  5
31FFF
330
1A1E2
100
AcDbEntity
  8
TITLE_BLOCK
  6
CONTINUOUS
 62
     7
100
AcDbVertex
100
AcDb2dVertex
 10
-14.077388
 20
-23.131482
 30
0.0
 70
     8
  0
VERTEX
  5
32000
330
1A1E2
100
AcDbEntity
  8
TITLE_BLOCK
  6
CONTINUOUS
 62
     7
100
AcDbVertex
100
AcDb2dVertex
 10
-14.119359
 20
-23.122192
 30
0.0
 70
     8
  0
VERTEX
  5
32001
330
1A1E2
100
AcDbEntity
  8
TITLE_BLOCK
  6
CONTINUOUS
 62
     7
100
AcDbVertex
100
AcDb2dVertex
 10
-14.158783
 20
-23.082545
 30
0.0
 70
     8
  0
VERTEX
  5
32002
330
1A1E2
100
AcDbEntity
  8
TITLE_BLOCK
  6
CONTINUOUS
 62
     7
100
AcDbVertex
100
AcDb2dVertex
 10
-14.195013
 20
-23.040273
 30
0.0
 70
     8
  0
VERTEX
  5
32003
330
1A1E2
100
AcDbEntity
  8
TITLE_BLOCK
  6
CONTINUOUS
 62
     7
100
AcDbVertex
100
AcDb2dVertex
 10
-14.227421
 20
-22.995151
 30
0.0
 70
     8
  0
VERTEX
  5
32004
330
1A1E2
100
AcDbEntity
  8
TITLE_BLOCK
  6
CONTINUOUS
 62
     7
100
AcDbVertex
100
AcDb2dVertex
 10
-14.255375
 20
-22.946957
 30
0.0
 70
     8
  0
VERTEX
  5
32005
330
1A1E2
100
AcDbEntity
  8
TITLE_BLOCK
  6
CONTINUOUS
 62
     7
100
AcDbVertex
100
AcDb2dVertex
 10
-14.203763
 20
-22.870478
 30
0.0
 70
     8
  0
VERTEX
  5
32006
330
1A1E2
100
AcDbEntity
  8
TITLE_BLOCK
  6
CONTINUOUS
 62
     7
100
AcDbVertex
100
AcDb2dVertex
 10
-14.14975
 20
-22.795786
 30
0.0
 70
     8
  0
VERTEX
  5
32007
330
1A1E2
100
AcDbEntity
  8
TITLE_BLOCK
  6
CONTINUOUS
 62
     7
100
AcDbVertex
100
AcDb2dVertex
 10
-14.14975
 20
-22.795786
 30
0.0
 70
     8
  0
VERTEX
  5
32008
330
1A1E2
100
AcDbEntity
  8
TITLE_BLOCK
  6
CONTINUOUS
 62
     7
100
AcDbVertex
100
AcDb2dVertex
 10
-14.14975
 20
-22.795786
 30
0.0
 70
    16
  0
VERTEX
  5
32009
330
1A1E2
100
AcDbEntity
  8
TITLE_BLOCK
  6
CONTINUOUS
 62
     7
100
AcDbVertex
100
AcDb2dVertex
 10
-14.068578
 20
-22.781372
 30
0.0
 70
    16
  0
VERTEX
  5
3200A
330
1A1E2
100
AcDbEntity
  8
TITLE_BLOCK
  6
CONTINUOUS
 62
     7
100
AcDbVertex
100
AcDb2dVertex
 10
-13.987367
 20
-22.764575
 30
0.0
 70
    16
  0
VERTEX
  5
3200B
330
1A1E2
100
AcDbEntity
  8
TITLE_BLOCK
  6
CONTINUOUS
 62
     7
100
AcDbVertex
100
AcDb2dVertex
 10
-13.904164
 20
-22.764184
 30
0.0
 70
    16
  0
VERTEX
  5
3200C
330
1A1E2
100
AcDbEntity
  8
TITLE_BLOCK
  6
CONTINUOUS
 62
     7
100
AcDbVertex
100
AcDb2dVertex
 10
-13.858968
 20
-22.779379
 30
0.0
 70
    16
  0
VERTEX
  5
3200D
330
1A1E2
100
AcDbEntity
  8
TITLE_BLOCK
  6
CONTINUOUS
 62
     7
100
AcDbVertex
100
AcDb2dVertex
 10
-13.812953
 20
-22.792582
 30
0.0
 70
    16
  0
VERTEX
  5
3200E
330
1A1E2
100
AcDbEntity
  8
TITLE_BLOCK
  6
CONTINUOUS
 62
     7
100
AcDbVertex
100
AcDb2dVertex
 10
-13.766547
 20
-22.804184
 30
0.0
 70
    16
  0
VERTEX
  5
3200F
330
1A1E2
100
AcDbEntity
  8
TITLE_BLOCK
  6
CONTINUOUS
 62
     7
100
AcDbVertex
100
AcDb2dVertex
 10
-13.733343
 20
-22.856176
 30
0.0
 70
    16
  0
VERTEX
  5
32010
330
1A1E2
100
AcDbEntity
  8
TITLE_BLOCK
  6
CONTINUOUS
 62
     7
100
AcDbVertex
100
AcDb2dVertex
 10
-13.704945
 20
-22.910981
 30
0.0
 70
    16
  0
VERTEX
  5
32011
330
1A1E2
100
AcDbEntity
  8
TITLE_BLOCK
  6
CONTINUOUS
 62
     7
100
AcDbVertex
100
AcDb2dVertex
 10
-13.678578
 20
-22.966957
 30
0.0
 70
    16
  0
VERTEX
  5
32012
330
1A1E2
100
AcDbEntity
  8
TITLE_BLOCK
  6
CONTINUOUS
 62
     7
100
AcDbVertex
100
AcDb2dVertex
 10
-13.805375
 20
-23.010981
 30
0.0
 70
    16
  0
VERTEX
  5
32013
330
1A1E2
100
AcDbEntity
  8
TITLE_BLOCK
  6
CONTINUOUS
 62
     7
100
AcDbVertex
100
AcDb2dVertex
 10
-13.986156
 20
-22.842582
 30
0.0
 70
    16
  0
VERTEX
  5
32014
330
1A1E2
100
AcDbEntity
  8
TITLE_BLOCK
  6
CONTINUOUS
 62
     7
100
AcDbVertex
100
AcDb2dVertex
 10
-14.062172
 20
-22.993364
 30
0.0
 70
    16
  0
VERTEX
  5
32015
330
1A1E2
100
AcDbEntity
  8
TITLE_BLOCK
  6
CONTINUOUS
 62
     7
100
AcDbVertex
100
AcDb2dVertex
 10
-13.905375
 20
-23.038559
 30
0.0
 70
    16
  0
VERTEX
  5
32016
330
1A1E2
100
AcDbEntity
  8
TITLE_BLOCK
  6
CONTINUOUS
 62
     7
100
AcDbVertex
100
AcDb2dVertex
 10
-13.689359
 20
-23.035786
 30
0.0
 70
    16
  0
VERTEX
  5
32017
330
1A1E2
100
AcDbEntity
  8
TITLE_BLOCK
  6
CONTINUOUS
 62
     7
100
AcDbVertex
100
AcDb2dVertex
 10
-13.632562
 20
-23.224184
 30
0.0
 70
    16
  0
VERTEX
  5
32018
330
1A1E2
100
AcDbEntity
  8
TITLE_BLOCK
  6
CONTINUOUS
 62
     7
100
AcDbVertex
100
AcDb2dVertex
 10
-13.705765
 20
-23.516957
 30
0.0
 70
    16
  0
VERTEX
  5
32019
330
1A1E2
100
AcDbEntity
  8
TITLE_BLOCK
  6
CONTINUOUS
 62
     7
100
AcDbVertex
100
AcDb2dVertex
 10
-14.204554
 20
-23.519379
 30
0.0
 70
    16
  0
VERTEX
  5
3201A
330
1A1E2
100
AcDbEntity
  8
TITLE_BLOCK
  6
CONTINUOUS
 62
     7
100
AcDbVertex
100
AcDb2dVertex
 10
-14.283343
 20
-23.22977
 30
0.0
 70
    16
  0
VERTEX
  5
3201B
330
1A1E2
100
AcDbEntity
  8
TITLE_BLOCK
  6
CONTINUOUS
 62
     7
100
AcDbVertex
100
AcDb2dVertex
 10
-14.222953
 20
-23.221372
 30
0.0
 70
    16
  0
VERTEX
  5
3201C
330
1A1E2
100
AcDbEntity
  8
TITLE_BLOCK
  6
CONTINUOUS
 62
     7
100
AcDbVertex
100
AcDb2dVertex
 10
-14.162562
 20
-23.211762
 30
0.0
 70
    16
  0
VERTEX
  5
3201D
330
1A1E2
100
AcDbEntity
  8
TITLE_BLOCK
  6
CONTINUOUS
 62
     7
100
AcDbVertex
100
AcDb2dVertex
 10
-14.101781
 20
-23.203364
 30
0.0
 70
    16
  0
VERTEX
  5
3201E
330
1A1E2
100
AcDbEntity
  8
TITLE_BLOCK
  6
CONTINUOUS
 62
     7
100
AcDbVertex
100
AcDb2dVertex
 10
-14.052172
 20
-23.315356
 30
0.0
 70
    16
  0
VERTEX
  5
3201F
330
1A1E2
100
AcDbEntity
  8
TITLE_BLOCK
  6
CONTINUOUS
 62
     7
100
AcDbVertex
100
AcDb2dVertex
 10
-13.916976
 20
-23.281372
 30
0.0
 70
    16
  0
VERTEX
  5
32020
330
1A1E2
100
AcDbEntity
  8
TITLE_BLOCK
  6
CONTINUOUS
 62
     7
100
AcDbVertex
100
AcDb2dVertex
 10
-13.821351
 20
-23.267778
 30
0.0
 70
    16
  0
VERTEX
  5
32021
330
1A1E2
100
AcDbEntity
  8
TITLE_BLOCK
  6
CONTINUOUS
 62
     7
100
AcDbVertex
100
AcDb2dVertex
 10
-13.849359
 20
-23.131762
 30
0.0
 70
    16
  0
VERTEX
  5
32022
330
1A1E2
100
AcDbEntity
  8
TITLE_BLOCK
  6
CONTINUOUS
 62
     7
100
AcDbVertex
100
AcDb2dVertex
 10
-14.013773
 20
-23.152192
 30
0.0
 70
    16
  0
VERTEX
  5
32023
330
1A1E2
100
AcDbEntity
  8
TITLE_BLOCK
  6
CONTINUOUS
 62
     7
100
AcDbVertex
100
AcDb2dVertex
 10
-14.119359
 20
-23.122192
 30
0.0
 70
    16
  0
VERTEX
  5
32024
330
1A1E2
100
AcDbEntity
  8
TITLE_BLOCK
  6
CONTINUOUS
 62
     7
100
AcDbVertex
100
AcDb2dVertex
 10
-14.173773
 20
-23.070981
 30
0.0
 70
    16
  0
VERTEX
  5
32025
330
1A1E2
100
AcDbEntity
  8
TITLE_BLOCK
  6
CONTINUOUS
 62
     7
100
AcDbVertex
100
AcDb2dVertex
 10
-14.221351
 20
-23.013364
 30
0.0
 70
    16
  0
VERTEX
  5
32026
330
1A1E2
100
AcDbEntity
  8
TITLE_BLOCK
  6
CONTINUOUS
 62
     7
100
AcDbVertex
100
AcDb2dVertex
 10
-14.255375
 20
-22.946957
 30
0.0
 70
    16
  0
VERTEX
  5
32027
330
1A1E2
100
AcDbEntity
  8
TITLE_BLOCK
  6
CONTINUOUS
 62
     7
100
AcDbVertex
100
AcDb2dVertex
 10
-14.221351
 20
-22.895786
 30
0.0
 70
    16
  0
VERTEX
  5
32028
330
1A1E2
100
AcDbEntity
  8
TITLE_BLOCK
  6
CONTINUOUS
 62
     7
100
AcDbVertex
100
AcDb2dVertex
 10
-14.186976
 20
-22.844575
 30
0.0
 70
    16
  0
VERTEX
  5
32029
330
1A1E2
100
AcDbEntity
  8
TITLE_BLOCK
  6
CONTINUOUS
 62
     7
100
AcDbVertex
100
AcDb2dVertex
 10
-14.14975
 20
-22.795786
 30
0.0
 70
    16
  0
VERTEX
  5
3202A
330
1A1E2
100
AcDbEntity
  8
TITLE_BLOCK
  6
CONTINUOUS
 62
     7
100
AcDbVertex
100
AcDb2dVertex
 10
-14.14975
 20
-22.795786
 30
0.0
 70
    16
  0
VERTEX
  5
3202B
330
1A1E2
100
AcDbEntity
  8
TITLE_BLOCK
  6
CONTINUOUS
 62
     7
100
AcDbVertex
100
AcDb2dVertex
 10
-14.14975
 20
-22.795786
 30
0.0
 70
    16
  0
VERTEX
  5
3202C
330
1A1E2
100
AcDbEntity
  8
TITLE_BLOCK
  6
CONTINUOUS
 62
     7
100
AcDbVertex
100
AcDb2dVertex
 10
-14.14975
 20
-22.795786
 30
0.0
 70
    16
  0
SEQEND
  5
3202D
330
1A1E2
100
AcDbEntity
  8
TITLE_BLOCK
  6
CONTINUOUS
 62
     7
  0
POLYLINE
  5
1A26B
330
31A96
100
AcDbEntity
  8
TITLE_BLOCK
  6
CONTINUOUS
 62
     7
100
AcDb2dPolyline
 66
     1
 10
0.0
 20
0.0
 30
0.0
 70
     5
 75
     5
  0
VERTEX
  5
3202E
330
1A26B
100
AcDbEntity
  8
TITLE_BLOCK
  6
CONTINUOUS
 62
     7
100
AcDbVertex
100
AcDb2dVertex
 10
-13.575765
 20
-22.992582
 30
0.0
 70
     8
  0
VERTEX
  5
3202F
330
1A26B
100
AcDbEntity
  8
TITLE_BLOCK
  6
CONTINUOUS
 62
     7
100
AcDbVertex
100
AcDb2dVertex
 10
-13.572373
 20
-22.965798
 30
0.0
 70
     8
  0
VERTEX
  5
32030
330
1A26B
100
AcDbEntity
  8
TITLE_BLOCK
  6
CONTINUOUS
 62
     7
100
AcDbVertex
100
AcDb2dVertex
 10
-13.566289
 20
-22.940649
 30
0.0
 70
     8
  0
VERTEX
  5
32031
330
1A26B
100
AcDbEntity
  8
TITLE_BLOCK
  6
CONTINUOUS
 62
     7
100
AcDbVertex
100
AcDb2dVertex
 10
-13.55769
 20
-22.917141
 30
0.0
 70
     8
  0
VERTEX
  5
32032
330
1A26B
100
AcDbEntity
  8
TITLE_BLOCK
  6
CONTINUOUS
 62
     7
100
AcDbVertex
100
AcDb2dVertex
 10
-13.54675
 20
-22.895277
 30
0.0
 70
     8
  0
VERTEX
  5
32033
330
1A26B
100
AcDbEntity
  8
TITLE_BLOCK
  6
CONTINUOUS
 62
     7
100
AcDbVertex
100
AcDb2dVertex
 10
-13.533645
 20
-22.875064
 30
0.0
 70
     8
  0
VERTEX
  5
32034
330
1A26B
100
AcDbEntity
  8
TITLE_BLOCK
  6
CONTINUOUS
 62
     7
100
AcDbVertex
100
AcDb2dVertex
 10
-13.518551
 20
-22.856504
 30
0.0
 70
     8
  0
VERTEX
  5
32035
330
1A26B
100
AcDbEntity
  8
TITLE_BLOCK
  6
CONTINUOUS
 62
     7
100
AcDbVertex
100
AcDb2dVertex
 10
-13.501641
 20
-22.839603
 30
0.0
 70
     8
  0
VERTEX
  5
32036
330
1A26B
100
AcDbEntity
  8
TITLE_BLOCK
  6
CONTINUOUS
 62
     7
100
AcDbVertex
100
AcDb2dVertex
 10
-13.483092
 20
-22.824365
 30
0.0
 70
     8
  0
VERTEX
  5
32037
330
1A26B
100
AcDbEntity
  8
TITLE_BLOCK
  6
CONTINUOUS
 62
     7
100
AcDbVertex
100
AcDb2dVertex
 10
-13.463079
 20
-22.810795
 30
0.0
 70
     8
  0
VERTEX
  5
32038
330
1A26B
100
AcDbEntity
  8
TITLE_BLOCK
  6
CONTINUOUS
 62
     7
100
AcDbVertex
100
AcDb2dVertex
 10
-13.441777
 20
-22.798897
 30
0.0
 70
     8
  0
VERTEX
  5
32039
330
1A26B
100
AcDbEntity
  8
TITLE_BLOCK
  6
CONTINUOUS
 62
     7
100
AcDbVertex
100
AcDb2dVertex
 10
-13.419361
 20
-22.788676
 30
0.0
 70
     8
  0
VERTEX
  5
3203A
330
1A26B
100
AcDbEntity
  8
TITLE_BLOCK
  6
CONTINUOUS
 62
     7
100
AcDbVertex
100
AcDb2dVertex
 10
-13.396007
 20
-22.780136
 30
0.0
 70
     8
  0
VERTEX
  5
3203B
330
1A26B
100
AcDbEntity
  8
TITLE_BLOCK
  6
CONTINUOUS
 62
     7
100
AcDbVertex
100
AcDb2dVertex
 10
-13.37189
 20
-22.773282
 30
0.0
 70
     8
  0
VERTEX
  5
3203C
330
1A26B
100
AcDbEntity
  8
TITLE_BLOCK
  6
CONTINUOUS
 62
     7
100
AcDbVertex
100
AcDb2dVertex
 10
-13.347185
 20
-22.768119
 30
0.0
 70
     8
  0
VERTEX
  5
3203D
330
1A26B
100
AcDbEntity
  8
TITLE_BLOCK
  6
CONTINUOUS
 62
     7
100
AcDbVertex
100
AcDb2dVertex
 10
-13.322067
 20
-22.76465
 30
0.0
 70
     8
  0
VERTEX
  5
3203E
330
1A26B
100
AcDbEntity
  8
TITLE_BLOCK
  6
CONTINUOUS
 62
     7
100
AcDbVertex
100
AcDb2dVertex
 10
-13.296713
 20
-22.76288
 30
0.0
 70
     8
  0
VERTEX
  5
3203F
330
1A26B
100
AcDbEntity
  8
TITLE_BLOCK
  6
CONTINUOUS
 62
     7
100
AcDbVertex
100
AcDb2dVertex
 10
-13.271296
 20
-22.762815
 30
0.0
 70
     8
  0
VERTEX
  5
32040
330
1A26B
100
AcDbEntity
  8
TITLE_BLOCK
  6
CONTINUOUS
 62
     7
100
AcDbVertex
100
AcDb2dVertex
 10
-13.245992
 20
-22.764458
 30
0.0
 70
     8
  0
VERTEX
  5
32041
330
1A26B
100
AcDbEntity
  8
TITLE_BLOCK
  6
CONTINUOUS
 62
     7
100
AcDbVertex
100
AcDb2dVertex
 10
-13.220977
 20
-22.767813
 30
0.0
 70
     8
  0
VERTEX
  5
32042
330
1A26B
100
AcDbEntity
  8
TITLE_BLOCK
  6
CONTINUOUS
 62
     7
100
AcDbVertex
100
AcDb2dVertex
 10
-13.196426
 20
-22.772887
 30
0.0
 70
     8
  0
VERTEX
  5
32043
330
1A26B
100
AcDbEntity
  8
TITLE_BLOCK
  6
CONTINUOUS
 62
     7
100
AcDbVertex
100
AcDb2dVertex
 10
-13.172513
 20
-22.779682
 30
0.0
 70
     8
  0
VERTEX
  5
32044
330
1A26B
100
AcDbEntity
  8
TITLE_BLOCK
  6
CONTINUOUS
 62
     7
100
AcDbVertex
100
AcDb2dVertex
 10
-13.149415
 20
-22.788204
 30
0.0
 70
     8
  0
VERTEX
  5
32045
330
1A26B
100
AcDbEntity
  8
TITLE_BLOCK
  6
CONTINUOUS
 62
     7
100
AcDbVertex
100
AcDb2dVertex
 10
-13.127307
 20
-22.798457
 30
0.0
 70
     8
  0
VERTEX
  5
32046
330
1A26B
100
AcDbEntity
  8
TITLE_BLOCK
  6
CONTINUOUS
 62
     7
100
AcDbVertex
100
AcDb2dVertex
 10
-13.106363
 20
-22.810446
 30
0.0
 70
     8
  0
VERTEX
  5
32047
330
1A26B
100
AcDbEntity
  8
TITLE_BLOCK
  6
CONTINUOUS
 62
     7
100
AcDbVertex
100
AcDb2dVertex
 10
-13.08676
 20
-22.824174
 30
0.0
 70
     8
  0
VERTEX
  5
32048
330
1A26B
100
AcDbEntity
  8
TITLE_BLOCK
  6
CONTINUOUS
 62
     7
100
AcDbVertex
100
AcDb2dVertex
 10
-13.068672
 20
-22.839648
 30
0.0
 70
     8
  0
VERTEX
  5
32049
330
1A26B
100
AcDbEntity
  8
TITLE_BLOCK
  6
CONTINUOUS
 62
     7
100
AcDbVertex
100
AcDb2dVertex
 10
-13.052274
 20
-22.85687
 30
0.0
 70
     8
  0
VERTEX
  5
3204A
330
1A26B
100
AcDbEntity
  8
TITLE_BLOCK
  6
CONTINUOUS
 62
     7
100
AcDbVertex
100
AcDb2dVertex
 10
-13.037743
 20
-22.875847
 30
0.0
 70
     8
  0
VERTEX
  5
3204B
330
1A26B
100
AcDbEntity
  8
TITLE_BLOCK
  6
CONTINUOUS
 62
     7
100
AcDbVertex
100
AcDb2dVertex
 10
-13.025252
 20
-22.896581
 30
0.0
 70
     8
  0
VERTEX
  5
3204C
330
1A26B
100
AcDbEntity
  8
TITLE_BLOCK
  6
CONTINUOUS
 62
     7
100
AcDbVertex
100
AcDb2dVertex
 10
-13.014978
 20
-22.919078
 30
0.0
 70
     8
  0
VERTEX
  5
3204D
330
1A26B
100
AcDbEntity
  8
TITLE_BLOCK
  6
CONTINUOUS
 62
     7
100
AcDbVertex
100
AcDb2dVertex
 10
-13.007096
 20
-22.943343
 30
0.0
 70
     8
  0
VERTEX
  5
3204E
330
1A26B
100
AcDbEntity
  8
TITLE_BLOCK
  6
CONTINUOUS
 62
     7
100
AcDbVertex
100
AcDb2dVertex
 10
-13.001781
 20
-22.969379
 30
0.0
 70
     8
  0
VERTEX
  5
3204F
330
1A26B
100
AcDbEntity
  8
TITLE_BLOCK
  6
CONTINUOUS
 62
     7
100
AcDbVertex
100
AcDb2dVertex
 10
-13.049149
 20
-22.969277
 30
0.0
 70
     8
  0
VERTEX
  5
32050
330
1A26B
100
AcDbEntity
  8
TITLE_BLOCK
  6
CONTINUOUS
 62
     7
100
AcDbVertex
100
AcDb2dVertex
 10
-13.095975
 20
-22.965026
 30
0.0
 70
     8
  0
VERTEX
  5
32051
330
1A26B
100
AcDbEntity
  8
TITLE_BLOCK
  6
CONTINUOUS
 62
     7
100
AcDbVertex
100
AcDb2dVertex
 10
-13.188671
 20
-22.949233
 30
0.0
 70
     8
  0
VERTEX
  5
32052
330
1A26B
100
AcDbEntity
  8
TITLE_BLOCK
  6
CONTINUOUS
 62
     7
100
AcDbVertex
100
AcDb2dVertex
 10
-13.281213
 20
-22.932311
 30
0.0
 70
     8
  0
VERTEX
  5
32053
330
1A26B
100
AcDbEntity
  8
TITLE_BLOCK
  6
CONTINUOUS
 62
     7
100
AcDbVertex
100
AcDb2dVertex
 10
-13.327846
 20
-22.92665
 30
0.0
 70
     8
  0
VERTEX
  5
32054
330
1A26B
100
AcDbEntity
  8
TITLE_BLOCK
  6
CONTINUOUS
 62
     7
100
AcDbVertex
100
AcDb2dVertex
 10
-13.374945
 20
-22.924575
 30
0.0
 70
     8
  0
VERTEX
  5
32055
330
1A26B
100
AcDbEntity
  8
TITLE_BLOCK
  6
CONTINUOUS
 62
     7
100
AcDbVertex
100
AcDb2dVertex
 10
-13.371645
 20
-22.945669
 30
0.0
 70
     8
  0
VERTEX
  5
32056
330
1A26B
100
AcDbEntity
  8
TITLE_BLOCK
  6
CONTINUOUS
 62
     7
100
AcDbVertex
100
AcDb2dVertex
 10
-13.365519
 20
-22.963558
 30
0.0
 70
     8
  0
VERTEX
  5
32057
330
1A26B
100
AcDbEntity
  8
TITLE_BLOCK
  6
CONTINUOUS
 62
     7
100
AcDbVertex
100
AcDb2dVertex
 10
-13.356847
 20
-22.978553
 30
0.0
 70
     8
  0
VERTEX
  5
32058
330
1A26B
100
AcDbEntity
  8
TITLE_BLOCK
  6
CONTINUOUS
 62
     7
100
AcDbVertex
100
AcDb2dVertex
 10
-13.345907
 20
-22.990963
 30
0.0
 70
     8
  0
VERTEX
  5
32059
330
1A26B
100
AcDbEntity
  8
TITLE_BLOCK
  6
CONTINUOUS
 62
     7
100
AcDbVertex
100
AcDb2dVertex
 10
-13.33298
 20
-23.0011
 30
0.0
 70
     8
  0
VERTEX
  5
3205A
330
1A26B
100
AcDbEntity
  8
TITLE_BLOCK
  6
CONTINUOUS
 62
     7
100
AcDbVertex
100
AcDb2dVertex
 10
-13.318343
 20
-23.009274
 30
0.0
 70
     8
  0
VERTEX
  5
3205B
330
1A26B
100
AcDbEntity
  8
TITLE_BLOCK
  6
CONTINUOUS
 62
     7
100
AcDbVertex
100
AcDb2dVertex
 10
-13.285057
 20
-23.020976
 30
0.0
 70
     8
  0
VERTEX
  5
3205C
330
1A26B
100
AcDbEntity
  8
TITLE_BLOCK
  6
CONTINUOUS
 62
     7
100
AcDbVertex
100
AcDb2dVertex
 10
-13.248284
 20
-23.028552
 30
0.0
 70
     8
  0
VERTEX
  5
3205D
330
1A26B
100
AcDbEntity
  8
TITLE_BLOCK
  6
CONTINUOUS
 62
     7
100
AcDbVertex
100
AcDb2dVertex
 10
-13.210254
 20
-23.034487
 30
0.0
 70
     8
  0
VERTEX
  5
3205E
330
1A26B
100
AcDbEntity
  8
TITLE_BLOCK
  6
CONTINUOUS
 62
     7
100
AcDbVertex
100
AcDb2dVertex
 10
-13.173202
 20
-23.041266
 30
0.0
 70
     8
  0
VERTEX
  5
3205F
330
1A26B
100
AcDbEntity
  8
TITLE_BLOCK
  6
CONTINUOUS
 62
     7
100
AcDbVertex
100
AcDb2dVertex
 10
-13.139359
 20
-23.051372
 30
0.0
 70
     8
  0
VERTEX
  5
32060
330
1A26B
100
AcDbEntity
  8
TITLE_BLOCK
  6
CONTINUOUS
 62
     7
100
AcDbVertex
100
AcDb2dVertex
 10
-13.104995
 20
-23.059394
 30
0.0
 70
     8
  0
VERTEX
  5
32061
330
1A26B
100
AcDbEntity
  8
TITLE_BLOCK
  6
CONTINUOUS
 62
     7
100
AcDbVertex
100
AcDb2dVertex
 10
-13.073872
 20
-23.072818
 30
0.0
 70
     8
  0
VERTEX
  5
32062
330
1A26B
100
AcDbEntity
  8
TITLE_BLOCK
  6
CONTINUOUS
 62
     7
100
AcDbVertex
100
AcDb2dVertex
 10
-13.04593
 20
-23.090968
 30
0.0
 70
     8
  0
VERTEX
  5
32063
330
1A26B
100
AcDbEntity
  8
TITLE_BLOCK
  6
CONTINUOUS
 62
     7
100
AcDbVertex
100
AcDb2dVertex
 10
-13.021107
 20
-23.113168
 30
0.0
 70
     8
  0
VERTEX
  5
32064
330
1A26B
100
AcDbEntity
  8
TITLE_BLOCK
  6
CONTINUOUS
 62
     7
100
AcDbVertex
100
AcDb2dVertex
 10
-12.999342
 20
-23.138746
 30
0.0
 70
     8
  0
VERTEX
  5
32065
330
1A26B
100
AcDbEntity
  8
TITLE_BLOCK
  6
CONTINUOUS
 62
     7
100
AcDbVertex
100
AcDb2dVertex
 10
-12.980574
 20
-23.167025
 30
0.0
 70
     8
  0
VERTEX
  5
32066
330
1A26B
100
AcDbEntity
  8
TITLE_BLOCK
  6
CONTINUOUS
 62
     7
100
AcDbVertex
100
AcDb2dVertex
 10
-12.96474
 20
-23.197331
 30
0.0
 70
     8
  0
VERTEX
  5
32067
330
1A26B
100
AcDbEntity
  8
TITLE_BLOCK
  6
CONTINUOUS
 62
     7
100
AcDbVertex
100
AcDb2dVertex
 10
-12.951781
 20
-23.228989
 30
0.0
 70
     8
  0
VERTEX
  5
32068
330
1A26B
100
AcDbEntity
  8
TITLE_BLOCK
  6
CONTINUOUS
 62
     7
100
AcDbVertex
100
AcDb2dVertex
 10
-12.965959
 20
-23.268379
 30
0.0
 70
     8
  0
VERTEX
  5
32069
330
1A26B
100
AcDbEntity
  8
TITLE_BLOCK
  6
CONTINUOUS
 62
     7
100
AcDbVertex
100
AcDb2dVertex
 10
-12.984529
 20
-23.30327
 30
0.0
 70
     8
  0
VERTEX
  5
3206A
330
1A26B
100
AcDbEntity
  8
TITLE_BLOCK
  6
CONTINUOUS
 62
     7
100
AcDbVertex
100
AcDb2dVertex
 10
-13.007071
 20
-23.333828
 30
0.0
 70
     8
  0
VERTEX
  5
3206B
330
1A26B
100
AcDbEntity
  8
TITLE_BLOCK
  6
CONTINUOUS
 62
     7
100
AcDbVertex
100
AcDb2dVertex
 10
-13.033166
 20
-23.360223
 30
0.0
 70
     8
  0
VERTEX
  5
3206C
330
1A26B
100
AcDbEntity
  8
TITLE_BLOCK
  6
CONTINUOUS
 62
     7
100
AcDbVertex
100
AcDb2dVertex
 10
-13.062396
 20
-23.382622
 30
0.0
 70
     8
  0
VERTEX
  5
3206D
330
1A26B
100
AcDbEntity
  8
TITLE_BLOCK
  6
CONTINUOUS
 62
     7
100
AcDbVertex
100
AcDb2dVertex
 10
-13.094341
 20
-23.401193
 30
0.0
 70
     8
  0
VERTEX
  5
3206E
330
1A26B
100
AcDbEntity
  8
TITLE_BLOCK
  6
CONTINUOUS
 62
     7
100
AcDbVertex
100
AcDb2dVertex
 10
-13.128582
 20
-23.416104
 30
0.0
 70
     8
  0
VERTEX
  5
3206F
330
1A26B
100
AcDbEntity
  8
TITLE_BLOCK
  6
CONTINUOUS
 62
     7
100
AcDbVertex
100
AcDb2dVertex
 10
-13.164701
 20
-23.427524
 30
0.0
 70
     8
  0
VERTEX
  5
32070
330
1A26B
100
AcDbEntity
  8
TITLE_BLOCK
  6
CONTINUOUS
 62
     7
100
AcDbVertex
100
AcDb2dVertex
 10
-13.202278
 20
-23.43562
 30
0.0
 70
     8
  0
VERTEX
  5
32071
330
1A26B
100
AcDbEntity
  8
TITLE_BLOCK
  6
CONTINUOUS
 62
     7
100
AcDbVertex
100
AcDb2dVertex
 10
-13.240895
 20
-23.440562
 30
0.0
 70
     8
  0
VERTEX
  5
32072
330
1A26B
100
AcDbEntity
  8
TITLE_BLOCK
  6
CONTINUOUS
 62
     7
100
AcDbVertex
100
AcDb2dVertex
 10
-13.280132
 20
-23.442516
 30
0.0
 70
     8
  0
VERTEX
  5
32073
330
1A26B
100
AcDbEntity
  8
TITLE_BLOCK
  6
CONTINUOUS
 62
     7
100
AcDbVertex
100
AcDb2dVertex
 10
-13.31957
 20
-23.441651
 30
0.0
 70
     8
  0
VERTEX
  5
32074
330
1A26B
100
AcDbEntity
  8
TITLE_BLOCK
  6
CONTINUOUS
 62
     7
100
AcDbVertex
100
AcDb2dVertex
 10
-13.358791
 20
-23.438135
 30
0.0
 70
     8
  0
VERTEX
  5
32075
330
1A26B
100
AcDbEntity
  8
TITLE_BLOCK
  6
CONTINUOUS
 62
     7
100
AcDbVertex
100
AcDb2dVertex
 10
-13.397376
 20
-23.432137
 30
0.0
 70
     8
  0
VERTEX
  5
32076
330
1A26B
100
AcDbEntity
  8
TITLE_BLOCK
  6
CONTINUOUS
 62
     7
100
AcDbVertex
100
AcDb2dVertex
 10
-13.434906
 20
-23.423824
 30
0.0
 70
     8
  0
VERTEX
  5
32077
330
1A26B
100
AcDbEntity
  8
TITLE_BLOCK
  6
CONTINUOUS
 62
     7
100
AcDbVertex
100
AcDb2dVertex
 10
-13.470961
 20
-23.413364
 30
0.0
 70
     8
  0
VERTEX
  5
32078
330
1A26B
100
AcDbEntity
  8
TITLE_BLOCK
  6
CONTINUOUS
 62
     7
100
AcDbVertex
100
AcDb2dVertex
 10
-13.492786
 20
-23.394401
 30
0.0
 70
     8
  0
VERTEX
  5
32079
330
1A26B
100
AcDbEntity
  8
TITLE_BLOCK
  6
CONTINUOUS
 62
     7
100
AcDbVertex
100
AcDb2dVertex
 10
-13.512775
 20
-23.373939
 30
0.0
 70
     8
  0
VERTEX
  5
3207A
330
1A26B
100
AcDbEntity
  8
TITLE_BLOCK
  6
CONTINUOUS
 62
     7
100
AcDbVertex
100
AcDb2dVertex
 10
-13.531121
 20
-23.352163
 30
0.0
 70
     8
  0
VERTEX
  5
3207B
330
1A26B
100
AcDbEntity
  8
TITLE_BLOCK
  6
CONTINUOUS
 62
     7
100
AcDbVertex
100
AcDb2dVertex
 10
-13.548016
 20
-23.329262
 30
0.0
 70
     8
  0
VERTEX
  5
3207C
330
1A26B
100
AcDbEntity
  8
TITLE_BLOCK
  6
CONTINUOUS
 62
     7
100
AcDbVertex
100
AcDb2dVertex
 10
-13.578226
 20
-23.280836
 30
0.0
 70
     8
  0
VERTEX
  5
3207D
330
1A26B
100
AcDbEntity
  8
TITLE_BLOCK
  6
CONTINUOUS
 62
     7
100
AcDbVertex
100
AcDb2dVertex
 10
-13.604945
 20
-23.230161
 30
0.0
 70
     8
  0
VERTEX
  5
3207E
330
1A26B
100
AcDbEntity
  8
TITLE_BLOCK
  6
CONTINUOUS
 62
     7
100
AcDbVertex
100
AcDb2dVertex
 10
-13.577959
 20
-23.228611
 30
0.0
 70
     8
  0
VERTEX
  5
3207F
330
1A26B
100
AcDbEntity
  8
TITLE_BLOCK
  6
CONTINUOUS
 62
     7
100
AcDbVertex
100
AcDb2dVertex
 10
-13.549648
 20
-23.223358
 30
0.0
 70
     8
  0
VERTEX
  5
32080
330
1A26B
100
AcDbEntity
  8
TITLE_BLOCK
  6
CONTINUOUS
 62
     7
100
AcDbVertex
100
AcDb2dVertex
 10
-13.491864
 20
-23.210781
 30
0.0
 70
     8
  0
VERTEX
  5
32081
330
1A26B
100
AcDbEntity
  8
TITLE_BLOCK
  6
CONTINUOUS
 62
     7
100
AcDbVertex
100
AcDb2dVertex
 10
-13.463798
 20
-23.207974
 30
0.0
 70
     8
  0
VERTEX
  5
32082
330
1A26B
100
AcDbEntity
  8
TITLE_BLOCK
  6
CONTINUOUS
 62
     7
100
AcDbVertex
100
AcDb2dVertex
 10
-13.437222
 20
-23.210501
 30
0.0
 70
     8
  0
VERTEX
  5
32083
330
1A26B
100
AcDbEntity
  8
TITLE_BLOCK
  6
CONTINUOUS
 62
     7
100
AcDbVertex
100
AcDb2dVertex
 10
-13.412839
 20
-23.22062
 30
0.0
 70
     8
  0
VERTEX
  5
32084
330
1A26B
100
AcDbEntity
  8
TITLE_BLOCK
  6
CONTINUOUS
 62
     7
100
AcDbVertex
100
AcDb2dVertex
 10
-13.401689
 20
-23.229232
 30
0.0
 70
     8
  0
VERTEX
  5
32085
330
1A26B
100
AcDbEntity
  8
TITLE_BLOCK
  6
CONTINUOUS
 62
     7
100
AcDbVertex
100
AcDb2dVertex
 10
-13.391351
 20
-23.24059
 30
0.0
 70
     8
  0
VERTEX
  5
32086
330
1A26B
100
AcDbEntity
  8
TITLE_BLOCK
  6
CONTINUOUS
 62
     7
100
AcDbVertex
100
AcDb2dVertex
 10
-13.377617
 20
-23.253459
 30
0.0
 70
     8
  0
VERTEX
  5
32087
330
1A26B
100
AcDbEntity
  8
TITLE_BLOCK
  6
CONTINUOUS
 62
     7
100
AcDbVertex
100
AcDb2dVertex
 10
-13.361867
 20
-23.264563
 30
0.0
 70
     8
  0
VERTEX
  5
32088
330
1A26B
100
AcDbEntity
  8
TITLE_BLOCK
  6
CONTINUOUS
 62
     7
100
AcDbVertex
100
AcDb2dVertex
 10
-13.344486
 20
-23.273825
 30
0.0
 70
     8
  0
VERTEX
  5
32089
330
1A26B
100
AcDbEntity
  8
TITLE_BLOCK
  6
CONTINUOUS
 62
     7
100
AcDbVertex
100
AcDb2dVertex
 10
-13.325857
 20
-23.281169
 30
0.0
 70
     8
  0
VERTEX
  5
3208A
330
1A26B
100
AcDbEntity
  8
TITLE_BLOCK
  6
CONTINUOUS
 62
     7
100
AcDbVertex
100
AcDb2dVertex
 10
-13.306365
 20
-23.286518
 30
0.0
 70
     8
  0
VERTEX
  5
3208B
330
1A26B
100
AcDbEntity
  8
TITLE_BLOCK
  6
CONTINUOUS
 62
     7
100
AcDbVertex
100
AcDb2dVertex
 10
-13.286395
 20
-23.289795
 30
0.0
 70
     8
  0
VERTEX
  5
3208C
330
1A26B
100
AcDbEntity
  8
TITLE_BLOCK
  6
CONTINUOUS
 62
     7
100
AcDbVertex
100
AcDb2dVertex
 10
-13.26633
 20
-23.290924
 30
0.0
 70
     8
  0
VERTEX
  5
3208D
330
1A26B
100
AcDbEntity
  8
TITLE_BLOCK
  6
CONTINUOUS
 62
     7
100
AcDbVertex
100
AcDb2dVertex
 10
-13.246556
 20
-23.289829
 30
0.0
 70
     8
  0
VERTEX
  5
3208E
330
1A26B
100
AcDbEntity
  8
TITLE_BLOCK
  6
CONTINUOUS
 62
     7
100
AcDbVertex
100
AcDb2dVertex
 10
-13.227457
 20
-23.286431
 30
0.0
 70
     8
  0
VERTEX
  5
3208F
330
1A26B
100
AcDbEntity
  8
TITLE_BLOCK
  6
CONTINUOUS
 62
     7
100
AcDbVertex
100
AcDb2dVertex
 10
-13.209417
 20
-23.280655
 30
0.0
 70
     8
  0
VERTEX
  5
32090
330
1A26B
100
AcDbEntity
  8
TITLE_BLOCK
  6
CONTINUOUS
 62
     7
100
AcDbVertex
100
AcDb2dVertex
 10
-13.19282
 20
-23.272425
 30
0.0
 70
     8
  0
VERTEX
  5
32091
330
1A26B
100
AcDbEntity
  8
TITLE_BLOCK
  6
CONTINUOUS
 62
     7
100
AcDbVertex
100
AcDb2dVertex
 10
-13.178052
 20
-23.261662
 30
0.0
 70
     8
  0
VERTEX
  5
32092
330
1A26B
100
AcDbEntity
  8
TITLE_BLOCK
  6
CONTINUOUS
 62
     7
100
AcDbVertex
100
AcDb2dVertex
 10
-13.165495
 20
-23.248291
 30
0.0
 70
     8
  0
VERTEX
  5
32093
330
1A26B
100
AcDbEntity
  8
TITLE_BLOCK
  6
CONTINUOUS
 62
     7
100
AcDbVertex
100
AcDb2dVertex
 10
-13.155536
 20
-23.232235
 30
0.0
 70
     8
  0
VERTEX
  5
32094
330
1A26B
100
AcDbEntity
  8
TITLE_BLOCK
  6
CONTINUOUS
 62
     7
100
AcDbVertex
100
AcDb2dVertex
 10
-13.148558
 20
-23.213418
 30
0.0
 70
     8
  0
VERTEX
  5
32095
330
1A26B
100
AcDbEntity
  8
TITLE_BLOCK
  6
CONTINUOUS
 62
     7
100
AcDbVertex
100
AcDb2dVertex
 10
-13.144945
 20
-23.191762
 30
0.0
 70
     8
  0
VERTEX
  5
32096
330
1A26B
100
AcDbEntity
  8
TITLE_BLOCK
  6
CONTINUOUS
 62
     7
100
AcDbVertex
100
AcDb2dVertex
 10
-13.253366
 20
-23.164574
 30
0.0
 70
     8
  0
VERTEX
  5
32097
330
1A26B
100
AcDbEntity
  8
TITLE_BLOCK
  6
CONTINUOUS
 62
     7
100
AcDbVertex
100
AcDb2dVertex
 10
-13.307855
 20
-23.151416
 30
0.0
 70
     8
  0
VERTEX
  5
32098
330
1A26B
100
AcDbEntity
  8
TITLE_BLOCK
  6
CONTINUOUS
 62
     7
100
AcDbVertex
100
AcDb2dVertex
 10
-13.361512
 20
-23.136474
 30
0.0
 70
     8
  0
VERTEX
  5
32099
330
1A26B
100
AcDbEntity
  8
TITLE_BLOCK
  6
CONTINUOUS
 62
     7
100
AcDbVertex
100
AcDb2dVertex
 10
-13.413575
 20
-23.118195
 30
0.0
 70
     8
  0
VERTEX
  5
3209A
330
1A26B
100
AcDbEntity
  8
TITLE_BLOCK
  6
CONTINUOUS
 62
     7
100
AcDbVertex
100
AcDb2dVertex
 10
-13.463279
 20
-23.095022
 30
0.0
 70
     8
  0
VERTEX
  5
3209B
330
1A26B
100
AcDbEntity
  8
TITLE_BLOCK
  6
CONTINUOUS
 62
     7
100
AcDbVertex
100
AcDb2dVertex
 10
-13.487009
 20
-23.081115
 30
0.0
 70
     8
  0
VERTEX
  5
3209C
330
1A26B
100
AcDbEntity
  8
TITLE_BLOCK
  6
CONTINUOUS
 62
     7
100
AcDbVertex
100
AcDb2dVertex
 10
-13.509863
 20
-23.065401
 30
0.0
 70
     8
  0
VERTEX
  5
3209D
330
1A26B
100
AcDbEntity
  8
TITLE_BLOCK
  6
CONTINUOUS
 62
     7
100
AcDbVertex
100
AcDb2dVertex
 10
-13.531746
 20
-23.047687
 30
0.0
 70
     8
  0
VERTEX
  5
3209E
330
1A26B
100
AcDbEntity
  8
TITLE_BLOCK
  6
CONTINUOUS
 62
     7
100
AcDbVertex
100
AcDb2dVertex
 10
-13.552562
 20
-23.027778
 30
0.0
 70
     8
  0
VERTEX
  5
3209F
330
1A26B
100
AcDbEntity
  8
TITLE_BLOCK
  6
CONTINUOUS
 62
     7
100
AcDbVertex
100
AcDb2dVertex
 10
-13.492172
 20
-22.992582
 30
0.0
 70
     8
  0
VERTEX
  5
320A0
330
1A26B
100
AcDbEntity
  8
TITLE_BLOCK
  6
CONTINUOUS
 62
     7
100
AcDbVertex
100
AcDb2dVertex
 10
-13.575765
 20
-22.992582
 30
0.0
 70
     8
  0
VERTEX
  5
320A1
330
1A26B
100
AcDbEntity
  8
TITLE_BLOCK
  6
CONTINUOUS
 62
     7
100
AcDbVertex
100
AcDb2dVertex
 10
-13.575765
 20
-22.992582
 30
0.0
 70
     8
  0
VERTEX
  5
320A2
330
1A26B
100
AcDbEntity
  8
TITLE_BLOCK
  6
CONTINUOUS
 62
     7
100
AcDbVertex
100
AcDb2dVertex
 10
-13.575765
 20
-22.992582
 30
0.0
 70
    16
  0
VERTEX
  5
320A3
330
1A26B
100
AcDbEntity
  8
TITLE_BLOCK
  6
CONTINUOUS
 62
     7
100
AcDbVertex
100
AcDb2dVertex
 10
-13.554554
 20
-22.698168
 30
0.0
 70
    16
  0
VERTEX
  5
320A4
330
1A26B
100
AcDbEntity
  8
TITLE_BLOCK
  6
CONTINUOUS
 62
     7
100
AcDbVertex
100
AcDb2dVertex
 10
-13.044164
 20
-22.682192
 30
0.0
 70
    16
  0
VERTEX
  5
320A5
330
1A26B
100
AcDbEntity
  8
TITLE_BLOCK
  6
CONTINUOUS
 62
     7
100
AcDbVertex
100
AcDb2dVertex
 10
-13.001781
 20
-22.969379
 30
0.0
 70
    16
  0
VERTEX
  5
320A6
330
1A26B
100
AcDbEntity
  8
TITLE_BLOCK
  6
CONTINUOUS
 62
     7
100
AcDbVertex
100
AcDb2dVertex
 10
-13.128968
 20
-22.975786
 30
0.0
 70
    16
  0
VERTEX
  5
320A7
330
1A26B
100
AcDbEntity
  8
TITLE_BLOCK
  6
CONTINUOUS
 62
     7
100
AcDbVertex
100
AcDb2dVertex
 10
-13.248578
 20
-22.924184
 30
0.0
 70
    16
  0
VERTEX
  5
320A8
330
1A26B
100
AcDbEntity
  8
TITLE_BLOCK
  6
CONTINUOUS
 62
     7
100
AcDbVertex
100
AcDb2dVertex
 10
-13.374945
 20
-22.924575
 30
0.0
 70
    16
  0
VERTEX
  5
320A9
330
1A26B
100
AcDbEntity
  8
TITLE_BLOCK
  6
CONTINUOUS
 62
     7
100
AcDbVertex
100
AcDb2dVertex
 10
-13.365375
 20
-23.046176
 30
0.0
 70
    16
  0
VERTEX
  5
320AA
330
1A26B
100
AcDbEntity
  8
TITLE_BLOCK
  6
CONTINUOUS
 62
     7
100
AcDbVertex
100
AcDb2dVertex
 10
-13.223343
 20
-23.017778
 30
0.0
 70
    16
  0
VERTEX
  5
320AB
330
1A26B
100
AcDbEntity
  8
TITLE_BLOCK
  6
CONTINUOUS
 62
     7
100
AcDbVertex
100
AcDb2dVertex
 10
-13.139359
 20
-23.051372
 30
0.0
 70
    16
  0
VERTEX
  5
320AC
330
1A26B
100
AcDbEntity
  8
TITLE_BLOCK
  6
CONTINUOUS
 62
     7
100
AcDbVertex
100
AcDb2dVertex
 10
-13.043343
 20
-23.064965
 30
0.0
 70
    16
  0
VERTEX
  5
320AD
330
1A26B
100
AcDbEntity
  8
TITLE_BLOCK
  6
CONTINUOUS
 62
     7
100
AcDbVertex
100
AcDb2dVertex
 10
-12.982562
 20
-23.143364
 30
0.0
 70
    16
  0
VERTEX
  5
320AE
330
1A26B
100
AcDbEntity
  8
TITLE_BLOCK
  6
CONTINUOUS
 62
     7
100
AcDbVertex
100
AcDb2dVertex
 10
-12.951781
 20
-23.228989
 30
0.0
 70
    16
  0
VERTEX
  5
320AF
330
1A26B
100
AcDbEntity
  8
TITLE_BLOCK
  6
CONTINUOUS
 62
     7
100
AcDbVertex
100
AcDb2dVertex
 10
-13.014945
 20
-23.451372
 30
0.0
 70
    16
  0
VERTEX
  5
320B0
330
1A26B
100
AcDbEntity
  8
TITLE_BLOCK
  6
CONTINUOUS
 62
     7
100
AcDbVertex
100
AcDb2dVertex
 10
-13.283343
 20
-23.474575
 30
0.0
 70
    16
  0
VERTEX
  5
320B1
330
1A26B
100
AcDbEntity
  8
TITLE_BLOCK
  6
CONTINUOUS
 62
     7
100
AcDbVertex
100
AcDb2dVertex
 10
-13.470961
 20
-23.413364
 30
0.0
 70
    16
  0
VERTEX
  5
320B2
330
1A26B
100
AcDbEntity
  8
TITLE_BLOCK
  6
CONTINUOUS
 62
     7
100
AcDbVertex
100
AcDb2dVertex
 10
-13.531781
 20
-23.364965
 30
0.0
 70
    16
  0
VERTEX
  5
320B3
330
1A26B
100
AcDbEntity
  8
TITLE_BLOCK
  6
CONTINUOUS
 62
     7
100
AcDbVertex
100
AcDb2dVertex
 10
-13.570961
 20
-23.298559
 30
0.0
 70
    16
  0
VERTEX
  5
320B4
330
1A26B
100
AcDbEntity
  8
TITLE_BLOCK
  6
CONTINUOUS
 62
     7
100
AcDbVertex
100
AcDb2dVertex
 10
-13.604945
 20
-23.230161
 30
0.0
 70
    16
  0
VERTEX
  5
320B5
330
1A26B
100
AcDbEntity
  8
TITLE_BLOCK
  6
CONTINUOUS
 62
     7
100
AcDbVertex
100
AcDb2dVertex
 10
-13.535375
 20
-23.232973
 30
0.0
 70
    16
  0
VERTEX
  5
320B6
330
1A26B
100
AcDbEntity
  8
TITLE_BLOCK
  6
CONTINUOUS
 62
     7
100
AcDbVertex
100
AcDb2dVertex
 10
-13.444164
 20
-23.172192
 30
0.0
 70
    16
  0
VERTEX
  5
320B7
330
1A26B
100
AcDbEntity
  8
TITLE_BLOCK
  6
CONTINUOUS
 62
     7
100
AcDbVertex
100
AcDb2dVertex
 10
-13.391351
 20
-23.24059
 30
0.0
 70
    16
  0
VERTEX
  5
320B8
330
1A26B
100
AcDbEntity
  8
TITLE_BLOCK
  6
CONTINUOUS
 62
     7
100
AcDbVertex
100
AcDb2dVertex
 10
-13.324164
 20
-23.313793
 30
0.0
 70
    16
  0
VERTEX
  5
320B9
330
1A26B
100
AcDbEntity
  8
TITLE_BLOCK
  6
CONTINUOUS
 62
     7
100
AcDbVertex
100
AcDb2dVertex
 10
-13.154554
 20
-23.314965
 30
0.0
 70
    16
  0
VERTEX
  5
320BA
330
1A26B
100
AcDbEntity
  8
TITLE_BLOCK
  6
CONTINUOUS
 62
     7
100
AcDbVertex
100
AcDb2dVertex
 10
-13.144945
 20
-23.191762
 30
0.0
 70
    16
  0
VERTEX
  5
320BB
330
1A26B
100
AcDbEntity
  8
TITLE_BLOCK
  6
CONTINUOUS
 62
     7
100
AcDbVertex
100
AcDb2dVertex
 10
-13.286976
 20
-23.15059
 30
0.0
 70
    16
  0
VERTEX
  5
320BC
330
1A26B
100
AcDbEntity
  8
TITLE_BLOCK
  6
CONTINUOUS
 62
     7
100
AcDbVertex
100
AcDb2dVertex
 10
-13.444554
 20
-23.140161
 30
0.0
 70
    16
  0
VERTEX
  5
320BD
330
1A26B
100
AcDbEntity
  8
TITLE_BLOCK
  6
CONTINUOUS
 62
     7
100
AcDbVertex
100
AcDb2dVertex
 10
-13.552562
 20
-23.027778
 30
0.0
 70
    16
  0
VERTEX
  5
320BE
330
1A26B
100
AcDbEntity
  8
TITLE_BLOCK
  6
CONTINUOUS
 62
     7
100
AcDbVertex
100
AcDb2dVertex
 10
-13.552562
 20
-23.027778
 30
0.0
 70
    16
  0
VERTEX
  5
320BF
330
1A26B
100
AcDbEntity
  8
TITLE_BLOCK
  6
CONTINUOUS
 62
     7
100
AcDbVertex
100
AcDb2dVertex
 10
-13.492172
 20
-22.992582
 30
0.0
 70
    16
  0
VERTEX
  5
320C0
330
1A26B
100
AcDbEntity
  8
TITLE_BLOCK
  6
CONTINUOUS
 62
     7
100
AcDbVertex
100
AcDb2dVertex
 10
-13.492172
 20
-22.992582
 30
0.0
 70
    16
  0
VERTEX
  5
320C1
330
1A26B
100
AcDbEntity
  8
TITLE_BLOCK
  6
CONTINUOUS
 62
     7
100
AcDbVertex
100
AcDb2dVertex
 10
-13.512953
 20
-22.992582
 30
0.0
 70
    16
  0
VERTEX
  5
320C2
330
1A26B
100
AcDbEntity
  8
TITLE_BLOCK
  6
CONTINUOUS
 62
     7
100
AcDbVertex
100
AcDb2dVertex
 10
-13.554945
 20
-22.992582
 30
0.0
 70
    16
  0
VERTEX
  5
320C3
330
1A26B
100
AcDbEntity
  8
TITLE_BLOCK
  6
CONTINUOUS
 62
     7
100
AcDbVertex
100
AcDb2dVertex
 10
-13.575765
 20
-22.992582
 30
0.0
 70
    16
  0
VERTEX
  5
320C4
330
1A26B
100
AcDbEntity
  8
TITLE_BLOCK
  6
CONTINUOUS
 62
     7
100
AcDbVertex
100
AcDb2dVertex
 10
-13.575765
 20
-22.992582
 30
0.0
 70
    16
  0
VERTEX
  5
320C5
330
1A26B
100
AcDbEntity
  8
TITLE_BLOCK
  6
CONTINUOUS
 62
     7
100
AcDbVertex
100
AcDb2dVertex
 10
-13.575765
 20
-22.992582
 30
0.0
 70
    16
  0
VERTEX
  5
320C6
330
1A26B
100
AcDbEntity
  8
TITLE_BLOCK
  6
CONTINUOUS
 62
     7
100
AcDbVertex
100
AcDb2dVertex
 10
-13.575765
 20
-22.992582
 30
0.0
 70
    16
  0
SEQEND
  5
320C7
330
1A26B
100
AcDbEntity
  8
TITLE_BLOCK
  6
CONTINUOUS
 62
     7
  0
POLYLINE
  5
1A305
330
31A96
100
AcDbEntity
  8
TITLE_BLOCK
  6
CONTINUOUS
 62
     7
100
AcDb2dPolyline
 66
     1
 10
0.0
 20
0.0
 30
0.0
 70
     5
 75
     5
  0
VERTEX
  5
320C8
330
1A305
100
AcDbEntity
  8
TITLE_BLOCK
  6
CONTINUOUS
 62
     7
100
AcDbVertex
100
AcDb2dVertex
 10
-20.961371
 20
-22.919379
 30
0.0
 70
     8
  0
VERTEX
  5
320C9
330
1A305
100
AcDbEntity
  8
TITLE_BLOCK
  6
CONTINUOUS
 62
     7
100
AcDbVertex
100
AcDb2dVertex
 10
-20.809769
 20
-22.93059
 30
0.0
 70
     8
  0
VERTEX
  5
320CA
330
1A305
100
AcDbEntity
  8
TITLE_BLOCK
  6
CONTINUOUS
 62
     7
100
AcDbVertex
100
AcDb2dVertex
 10
-20.806666
 20
-23.001621
 30
0.0
 70
     8
  0
VERTEX
  5
320CB
330
1A305
100
AcDbEntity
  8
TITLE_BLOCK
  6
CONTINUOUS
 62
     7
100
AcDbVertex
100
AcDb2dVertex
 10
-20.804164
 20
-23.072973
 30
0.0
 70
     8
  0
VERTEX
  5
320CC
330
1A305
100
AcDbEntity
  8
TITLE_BLOCK
  6
CONTINUOUS
 62
     7
100
AcDbVertex
100
AcDb2dVertex
 10
-20.964554
 20
-23.088168
 30
0.0
 70
     8
  0
VERTEX
  5
320CD
330
1A305
100
AcDbEntity
  8
TITLE_BLOCK
  6
CONTINUOUS
 62
     7
100
AcDbVertex
100
AcDb2dVertex
 10
-20.961371
 20
-22.919379
 30
0.0
 70
     8
  0
VERTEX
  5
320CE
330
1A305
100
AcDbEntity
  8
TITLE_BLOCK
  6
CONTINUOUS
 62
     7
100
AcDbVertex
100
AcDb2dVertex
 10
-20.961371
 20
-22.919379
 30
0.0
 70
     8
  0
VERTEX
  5
320CF
330
1A305
100
AcDbEntity
  8
TITLE_BLOCK
  6
CONTINUOUS
 62
     7
100
AcDbVertex
100
AcDb2dVertex
 10
-20.961371
 20
-22.919379
 30
0.0
 70
    16
  0
VERTEX
  5
320D0
330
1A305
100
AcDbEntity
  8
TITLE_BLOCK
  6
CONTINUOUS
 62
     7
100
AcDbVertex
100
AcDb2dVertex
 10
-20.910961
 20
-22.922973
 30
0.0
 70
    16
  0
VERTEX
  5
320D1
330
1A305
100
AcDbEntity
  8
TITLE_BLOCK
  6
CONTINUOUS
 62
     7
100
AcDbVertex
100
AcDb2dVertex
 10
-20.86016
 20
-22.926567
 30
0.0
 70
    16
  0
VERTEX
  5
320D2
330
1A305
100
AcDbEntity
  8
TITLE_BLOCK
  6
CONTINUOUS
 62
     7
100
AcDbVertex
100
AcDb2dVertex
 10
-20.809769
 20
-22.93059
 30
0.0
 70
    16
  0
VERTEX
  5
320D3
330
1A305
100
AcDbEntity
  8
TITLE_BLOCK
  6
CONTINUOUS
 62
     7
100
AcDbVertex
100
AcDb2dVertex
 10
-20.807367
 20
-22.977778
 30
0.0
 70
    16
  0
VERTEX
  5
320D4
330
1A305
100
AcDbEntity
  8
TITLE_BLOCK
  6
CONTINUOUS
 62
     7
100
AcDbVertex
100
AcDb2dVertex
 10
-20.805765
 20
-23.025356
 30
0.0
 70
    16
  0
VERTEX
  5
320D5
330
1A305
100
AcDbEntity
  8
TITLE_BLOCK
  6
CONTINUOUS
 62
     7
100
AcDbVertex
100
AcDb2dVertex
 10
-20.804164
 20
-23.072973
 30
0.0
 70
    16
  0
VERTEX
  5
320D6
330
1A305
100
AcDbEntity
  8
TITLE_BLOCK
  6
CONTINUOUS
 62
     7
100
AcDbVertex
100
AcDb2dVertex
 10
-20.857757
 20
-23.078168
 30
0.0
 70
    16
  0
VERTEX
  5
320D7
330
1A305
100
AcDbEntity
  8
TITLE_BLOCK
  6
CONTINUOUS
 62
     7
100
AcDbVertex
100
AcDb2dVertex
 10
-20.911371
 20
-23.083364
 30
0.0
 70
    16
  0
VERTEX
  5
320D8
330
1A305
100
AcDbEntity
  8
TITLE_BLOCK
  6
CONTINUOUS
 62
     7
100
AcDbVertex
100
AcDb2dVertex
 10
-20.964554
 20
-23.088168
 30
0.0
 70
    16
  0
VERTEX
  5
320D9
330
1A305
100
AcDbEntity
  8
TITLE_BLOCK
  6
CONTINUOUS
 62
     7
100
AcDbVertex
100
AcDb2dVertex
 10
-20.963754
 20
-23.031762
 30
0.0
 70
    16
  0
VERTEX
  5
320DA
330
1A305
100
AcDbEntity
  8
TITLE_BLOCK
  6
CONTINUOUS
 62
     7
100
AcDbVertex
100
AcDb2dVertex
 10
-20.962562
 20
-22.975356
 30
0.0
 70
    16
  0
VERTEX
  5
320DB
330
1A305
100
AcDbEntity
  8
TITLE_BLOCK
  6
CONTINUOUS
 62
     7
100
AcDbVertex
100
AcDb2dVertex
 10
-20.961371
 20
-22.919379
 30
0.0
 70
    16
  0
VERTEX
  5
320DC
330
1A305
100
AcDbEntity
  8
TITLE_BLOCK
  6
CONTINUOUS
 62
     7
100
AcDbVertex
100
AcDb2dVertex
 10
-20.961371
 20
-22.919379
 30
0.0
 70
    16
  0
VERTEX
  5
320DD
330
1A305
100
AcDbEntity
  8
TITLE_BLOCK
  6
CONTINUOUS
 62
     7
100
AcDbVertex
100
AcDb2dVertex
 10
-20.961371
 20
-22.919379
 30
0.0
 70
    16
  0
VERTEX
  5
320DE
330
1A305
100
AcDbEntity
  8
TITLE_BLOCK
  6
CONTINUOUS
 62
     7
100
AcDbVertex
100
AcDb2dVertex
 10
-20.961371
 20
-22.919379
 30
0.0
 70
    16
  0
SEQEND
  5
320DF
330
1A305
100
AcDbEntity
  8
TITLE_BLOCK
  6
CONTINUOUS
 62
     7
  0
POLYLINE
  5
1A31D
330
31A96
100
AcDbEntity
  8
TITLE_BLOCK
  6
CONTINUOUS
 62
     7
100
AcDb2dPolyline
 66
     1
 10
0.0
 20
0.0
 30
0.0
 70
     5
 75
     5
  0
VERTEX
  5
320E0
330
1A31D
100
AcDbEntity
  8
TITLE_BLOCK
  6
CONTINUOUS
 62
     7
100
AcDbVertex
100
AcDb2dVertex
 10
-17.232953
 20
-23.170161
 30
0.0
 70
     8
  0
VERTEX
  5
320E1
330
1A31D
100
AcDbEntity
  8
TITLE_BLOCK
  6
CONTINUOUS
 62
     7
100
AcDbVertex
100
AcDb2dVertex
 10
-17.187411
 20
-23.042665
 30
0.0
 70
     8
  0
VERTEX
  5
320E2
330
1A31D
100
AcDbEntity
  8
TITLE_BLOCK
  6
CONTINUOUS
 62
     7
100
AcDbVertex
100
AcDb2dVertex
 10
-17.140961
 20
-22.915786
 30
0.0
 70
     8
  0
VERTEX
  5
320E3
330
1A31D
100
AcDbEntity
  8
TITLE_BLOCK
  6
CONTINUOUS
 62
     7
100
AcDbVertex
100
AcDb2dVertex
 10
-17.096117
 20
-23.037924
 30
0.0
 70
     8
  0
VERTEX
  5
320E4
330
1A31D
100
AcDbEntity
  8
TITLE_BLOCK
  6
CONTINUOUS
 62
     7
100
AcDbVertex
100
AcDb2dVertex
 10
-17.04975
 20
-23.15977
 30
0.0
 70
     8
  0
VERTEX
  5
320E5
330
1A31D
100
AcDbEntity
  8
TITLE_BLOCK
  6
CONTINUOUS
 62
     7
100
AcDbVertex
100
AcDb2dVertex
 10
-17.232953
 20
-23.170161
 30
0.0
 70
     8
  0
VERTEX
  5
320E6
330
1A31D
100
AcDbEntity
  8
TITLE_BLOCK
  6
CONTINUOUS
 62
     7
100
AcDbVertex
100
AcDb2dVertex
 10
-17.232953
 20
-23.170161
 30
0.0
 70
     8
  0
VERTEX
  5
320E7
330
1A31D
100
AcDbEntity
  8
TITLE_BLOCK
  6
CONTINUOUS
 62
     7
100
AcDbVertex
100
AcDb2dVertex
 10
-17.232953
 20
-23.170161
 30
0.0
 70
    16
  0
VERTEX
  5
320E8
330
1A31D
100
AcDbEntity
  8
TITLE_BLOCK
  6
CONTINUOUS
 62
     7
100
AcDbVertex
100
AcDb2dVertex
 10
-17.202562
 20
-23.084965
 30
0.0
 70
    16
  0
VERTEX
  5
320E9
330
1A31D
100
AcDbEntity
  8
TITLE_BLOCK
  6
CONTINUOUS
 62
     7
100
AcDbVertex
100
AcDb2dVertex
 10
-17.172562
 20
-23.000161
 30
0.0
 70
    16
  0
VERTEX
  5
320EA
330
1A31D
100
AcDbEntity
  8
TITLE_BLOCK
  6
CONTINUOUS
 62
     7
100
AcDbVertex
100
AcDb2dVertex
 10
-17.140961
 20
-22.915786
 30
0.0
 70
    16
  0
VERTEX
  5
320EB
330
1A31D
100
AcDbEntity
  8
TITLE_BLOCK
  6
CONTINUOUS
 62
     7
100
AcDbVertex
100
AcDb2dVertex
 10
-17.111781
 20
-22.997387
 30
0.0
 70
    16
  0
VERTEX
  5
320EC
330
1A31D
100
AcDbEntity
  8
TITLE_BLOCK
  6
CONTINUOUS
 62
     7
100
AcDbVertex
100
AcDb2dVertex
 10
-17.080961
 20
-23.078559
 30
0.0
 70
    16
  0
VERTEX
  5
320ED
330
1A31D
100
AcDbEntity
  8
TITLE_BLOCK
  6
CONTINUOUS
 62
     7
100
AcDbVertex
100
AcDb2dVertex
 10
-17.04975
 20
-23.15977
 30
0.0
 70
    16
  0
VERTEX
  5
320EE
330
1A31D
100
AcDbEntity
  8
TITLE_BLOCK
  6
CONTINUOUS
 62
     7
100
AcDbVertex
100
AcDb2dVertex
 10
-17.110961
 20
-23.163364
 30
0.0
 70
    16
  0
VERTEX
  5
320EF
330
1A31D
100
AcDbEntity
  8
TITLE_BLOCK
  6
CONTINUOUS
 62
     7
100
AcDbVertex
100
AcDb2dVertex
 10
-17.172172
 20
-23.166567
 30
0.0
 70
    16
  0
VERTEX
  5
320F0
330
1A31D
100
AcDbEntity
  8
TITLE_BLOCK
  6
CONTINUOUS
 62
     7
100
AcDbVertex
100
AcDb2dVertex
 10
-17.232953
 20
-23.170161
 30
0.0
 70
    16
  0
VERTEX
  5
320F1
330
1A31D
100
AcDbEntity
  8
TITLE_BLOCK
  6
CONTINUOUS
 62
     7
100
AcDbVertex
100
AcDb2dVertex
 10
-17.232953
 20
-23.170161
 30
0.0
 70
    16
  0
VERTEX
  5
320F2
330
1A31D
100
AcDbEntity
  8
TITLE_BLOCK
  6
CONTINUOUS
 62
     7
100
AcDbVertex
100
AcDb2dVertex
 10
-17.232953
 20
-23.170161
 30
0.0
 70
    16
  0
VERTEX
  5
320F3
330
1A31D
100
AcDbEntity
  8
TITLE_BLOCK
  6
CONTINUOUS
 62
     7
100
AcDbVertex
100
AcDb2dVertex
 10
-17.232953
 20
-23.170161
 30
0.0
 70
    16
  0
SEQEND
  5
320F4
330
1A31D
100
AcDbEntity
  8
TITLE_BLOCK
  6
CONTINUOUS
 62
     7
  0
LINE
  5
1A332
330
31A96
100
AcDbEntity
  8
TITLE_BLOCK
  6
CONTINUOUS
 62
     7
100
AcDbLine
 10
-9.62
 20
-17.5
 30
0.0
 11
-9.62
 21
-25.0
 31
0.0
  0
LINE
  5
1A333
330
31A96
100
AcDbEntity
  8
TITLE_BLOCK
  6
CONTINUOUS
 62
     7
100
AcDbLine
 10
-9.12
 20
-17.5
 30
0.0
 11
-9.12
 21
-25.0
 31
0.0
  0
LINE
  5
1A334
330
31A96
100
AcDbEntity
  8
TITLE_BLOCK
  6
CONTINUOUS
 62
     7
100
AcDbLine
 10
-9.12
 20
-25.0
 30
0.0
 11
27.0
 21
-25.0
 31
0.0
  0
LINE
  5
1A335
330
31A96
100
AcDbEntity
  8
TITLE_BLOCK
  6
CONTINUOUS
 62
     7
100
AcDbLine
 10
-9.12
 20
-17.5
 30
0.0
 11
27.0
 21
-17.5
 31
0.0
  0
TEXT
  5
1A33B
330
31A96
100
AcDbEntity
  8
TITLE_BLOCK
100
AcDbText
 10
12.17
 20
-20.88
 30
0.0
 40
1.0
  1
ECLIPSE 194
 72
     4
 11
16.74
 21
-20.38
 31
0.0
100
AcDbText
  0
TEXT
  5
1A33C
330
31A96
100
AcDbEntity
  8
TITLE_BLOCK
100
AcDbText
 10
11.08
 20
-22.56
 30
0.0
 40
1.0
  1
1/2" OVERHANG
 72
     4
 11
16.74
 21
-22.06
 31
0.0
100
AcDbText
  0
TEXT
  5
1AC46
330
31A96
100
AcDbEntity
  8
CUTOUT_TEMPLATE
100
AcDbText
 10
-8.325409
 20
-19.087531
 30
0.0
 40
0.38
  1
Eclipse provides DXF cutout templates for
100
AcDbText
  0
TEXT
  5
1AC47
330
31A96
100
AcDbEntity
  8
CUTOUT_TEMPLATE
100
AcDbText
 10
-8.325409
 20
-19.725931
 30
0.0
 40
0.38
  1
the convenience of the fabricator. Stainless
100
AcDbText
  0
TEXT
  5
1AC48
330
31A96
100
AcDbEntity
  8
CUTOUT_TEMPLATE
100
AcDbText
 10
-8.325409
 20
-20.364331
 30
0.0
 40
0.38
  1
sinks have 1/8" reveal, ceramic sinks have 
100
AcDbText
  0
TEXT
  5
1AC49
330
31A96
100
AcDbEntity
  8
CUTOUT_TEMPLATE
100
AcDbText
 10
-8.325409
 20
-21.002731
 30
0.0
 40
0.38
  1
1/2" overhang. Due to differences in
100
AcDbText
  0
TEXT
  5
1AC4A
330
31A96
100
AcDbEntity
  8
CUTOUT_TEMPLATE
100
AcDbText
 10
-8.325409
 20
-21.641131
 30
0.0
 40
0.38
  1
fabricator preference, Eclipse cannot accept 
100
AcDbText
  0
TEXT
  5
1AC4B
330
31A96
100
AcDbEntity
  8
CUTOUT_TEMPLATE
100
AcDbText
 10
-8.325409
 20
-22.279531
 30
0.0
 40
0.38
  1
responsibility for the finished cutout. Please 
100
AcDbText
  0
TEXT
  5
1AC4C
330
31A96
100
AcDbEntity
  8
CUTOUT_TEMPLATE
100
AcDbText
 10
-8.325409
 20
-22.917931
 30
0.0
 40
0.38
  1
check the files carefully to ensure that the 
100
AcDbText
  0
TEXT
  5
1AC4D
330
31A96
100
AcDbEntity
  8
CUTOUT_TEMPLATE
100
AcDbText
 10
-8.325409
 20
-23.556331
 30
0.0
 40
0.38
  1
cutout suits your needs before proceeding.
100
AcDbText
  0
LINE
  5
1B2DF
330
31A96
100
AcDbEntity
  8
0
  6
CONTINUOUS
 62
     1
100
AcDbLine
 10
0.0
 20
3.0
 30
0.0
 11
0.0
 21
-3.0
 31
0.0
  0
LINE
  5
1B2E0
330
31A96
100
AcDbEntity
  8
0
  6
CONTINUOUS
 62
     1
100
AcDbLine
 10
-3.0
 20
0.0
 30
0.0
 11
3.0
 21
0.0
 31
0.0
  0
LINE
  5
31079
330
31A96
100
AcDbEntity
  8
0
 62
     1
100
AcDbLine
 10
8.875
 20
4.6275
 30
0.0
 11
8.875
 21
-4.6275
 31
0.0
  0
LINE
  5
31090
330
31A96
100
AcDbEntity
  8
0
 62
     1
100
AcDbLine
 10
-7.875
 20
-5.6275
 30
0.0
 11
7.875
 21
-5.6275
 31
0.0
  0
LINE
  5
31091
330
31A96
100
AcDbEntity
  8
0
 62
     1
100
AcDbLine
 10
-8.875
 20
4.6275
 30
0.0
 11
-8.875
 21
-4.6275
 31
0.0
  0
ARC
  5
31094
330
31A96
100
AcDbEntity
  8
0
 62
     1
100
AcDbCircle
 10
-7.875
 20
-4.6275
 30
0.0
 40
1.0
100
AcDbArc
 50
180.0
 51
270.0
  0
ARC
  5
31095
330
31A96
100
AcDbEntity
  8
0
 62
     1
100
AcDbCircle
 10
7.875
 20
-4.6275
 30
0.0
 40
1.0
100
AcDbArc
 50
270.0
 51
0.0
  0
LINE
  5
31945
330
31A96
100
AcDbEntity
  8
0
 62
     1
100
AcDbLine
 10
-7.875
 20
5.6275
 30
0.0
 11
7.875
 21
5.6275
 31
0.0
  0
ARC
  5
31946
330
31A96
100
AcDbEntity
  8
0
 62
     1
100
AcDbCircle
 10
7.875
 20
4.6275
 30
0.0
 40
1.0
100
AcDbArc
 50
0.0
 51
90.0
  0
ARC
  5
31947
330
31A96
100
AcDbEntity
  8
0
 62
     1
100
AcDbCircle
 10
-7.875
 20
4.6275
 30
0.0
 40
1.0
100
AcDbArc
 50
90.0
 51
180.0
  0
ARC
  5
31951
330
31A96
100
AcDbEntity
  8
0
  6
DASHDOT
 62
     1
100
AcDbCircle
 10
-7.875
 20
4.6275
 30
0.0
 40
2.625
100
AcDbArc
 50
90.0
 51
180.0
  0
LINE
  5
31952
330
31A96
100
AcDbEntity
  8
0
  6
DASHDOT
 62
     1
100
AcDbLine
 10
-7.875
 20
7.2525
 30
0.0
 11
7.875
 21
7.2525
 31
0.0
  0
ARC
  5
31953
330
31A96
100
AcDbEntity
  8
0
  6
DASHDOT
 62
     1
100
AcDbCircle
 10
7.875
 20
4.6275
 30
0.0
 40
2.625
100
AcDbArc
 50
0.0
 51
90.0
  0
LINE
  5
31954
330
31A96
100
AcDbEntity
  8
0
  6
DASHDOT
 62
     1
100
AcDbLine
 10
10.5
 20
4.6275
 30
0.0
 11
10.5
 21
-4.6275
 31
0.0
  0
ARC
  5
31955
330
31A96
100
AcDbEntity
  8
0
  6
DASHDOT
 62
     1
100
AcDbCircle
 10
7.875
 20
-4.6275
 30
0.0
 40
2.625
100
AcDbArc
 50
270.0
 51
0.0
  0
LINE
  5
31956
330
31A96
100
AcDbEntity
  8
0
  6
DASHDOT
 62
     1
100
AcDbLine
 10
-7.875
 20
-7.2525
 30
0.0
 11
7.875
 21
-7.2525
 31
0.0
  0
ARC
  5
31957
330
31A96
100
AcDbEntity
  8
0
  6
DASHDOT
 62
     1
100
AcDbCircle
 10
-7.875
 20
-4.6275
 30
0.0
 40
2.625
100
AcDbArc
 50
180.0
 51
270.0
  0
LINE
  5
31958
330
31A96
100
AcDbEntity
  8
0
  6
DASHDOT
 62
     1
100
AcDbLine
 10
-10.5
 20
4.6275
 30
0.0
 11
-10.5
 21
-4.6275
 31
0.0
  0
TEXT
  5
31A77
330
31A96
100
AcDbEntity
  8
CUTOUT_TEMPLATE
100
AcDbText
 10
-12.318762
 20
4.750795
 30
0.0
 40
0.25
  1
SINK RIM
100
AcDbText
  0
TEXT
  5
31A78
330
31A96
100
AcDbEntity
  8
CUTOUT_TEMPLATE
100
AcDbText
 10
6.899008
 20
-4.030835
 30
0.0
 40
0.25
  1
CUT LINE
100
AcDbText
  0
ENDSEC
  0
SECTION
  2
OBJECTS
  0
DICTIONARY
  5
31A84
330
0
100
AcDbDictionary
  3
ACAD_COLOR
350
1A5E1
  3
ACAD_GROUP
350
31A85
  3
ACAD_LAYOUT
350
31A91
  3
ACAD_MATERIAL
350
1A5E2
  3
ACAD_MLINESTYLE
350
31A8E
  3
ACAD_PLOTSETTINGS
350
19
  3
ACDBHEADERROUNDTRIPXREC
350
320F5
  0
DICTIONARY
  5
1A5E1
102
{ACAD_REACTORS
330
31A84
102
}
330
31A84
100
AcDbDictionary
  0
DICTIONARY
  5
31A85
102
{ACAD_REACTORS
330
31A84
102
}
330
31A84
100
AcDbDictionary
  3
ALLENCADTILE
350
31ACD
  0
DICTIONARY
  5
31A91
102
{ACAD_REACTORS
330
31A84
102
}
330
31A84
100
AcDbDictionary
  0
DICTIONARY
  5
1A5E2
102
{ACAD_REACTORS
330
31A84
102
}
330
31A84
100
AcDbDictionary
  0
DICTIONARY
  5
31A8E
102
{ACAD_REACTORS
330
31A84
102
}
330
31A84
100
AcDbDictionary
  3
STANDARD
350
31A8F
  0
DICTIONARY
  5
19
102
{ACAD_REACTORS
330
31A84
102
}
330
31A84
100
AcDbDictionary
  0
DICTIONARY
  5
320F5
102
{ACAD_REACTORS
330
31A84
102
}
330
31A84
100
AcDbDictionary
  3
CEPSNTYPE
350
320FE
  3
COLORDICT
350
32115
  3
DIMSTYLEDATA
350
32114
  3
FINGERPRINTGUID
350
320FF
  3
HYPERLINKBASE
350
320F8
  3
INSUNITS
350
320FD
  3
LAYOUTDICT
350
320FA
  3
LWETCUNION
350
320FC
  3
MATERIALDICT
350
32116
  3
PLOTSETDICT
350
320FB
  3
PSVPSCALE
350
32101
  3
PUCSBASE
350
32104
  3
PUCSORGBACK
350
3210A
  3
PUCSORGBOTTOM
350
32106
  3
PUCSORGFRONT
350
32109
  3
PUCSORGLEFT
350
32107
  3
PUCSORGRIGHT
350
32108
  3
PUCSORGTOP
350
32105
  3
PUCSORTHOREF
350
32102
  3
PUCSORTHOVIEW
350
32103
  3
STYLESHEET
350
320F9
  3
TSTACKALIGN
350
320F6
  3
TSTACKSIZE
350
320F7
  3
UCSBASE
350
3210D
  3
UCSORGBACK
350
32113
  3
UCSORGBOTTOM
350
3210F
  3
UCSORGFRONT
350
32112
  3
UCSORGLEFT
350
32110
  3
UCSORGRIGHT
350
32111
  3
UCSORGTOP
350
3210E
  3
UCSORTHOREF
350
3210B
  3
UCSORTHOVIEW
350
3210C
  3
VERSIONGUID
350
32100
  0
GROUP
  5
31ACD
102
{ACAD_REACTORS
330
31A85
102
}
330
31A85
100
AcDbGroup
300
{AllenCAD:J`JOJVJNJYKGJ`IJK`K]K[LDKRKNKNK^IIKXK`KUIHKNKOKVKVKXKYK_KUK]KWK]IIKZKO
 70
     0
 71
     0
  0
MLINESTYLE
  5
31A8F
102
{ACAD_REACTORS
330
31A8E
102
}
330
31A8E
100
AcDbMlineStyle
  2
Standard
 70
     0
  3

 62
   256
 51
90.0
 52
90.0
 71
     2
 49
0.5
 62
   256
  6
BYLAYER
 49
-0.5
 62
   256
  6
BYLAYER
  0
XRECORD
  5
320FE
102
{ACAD_REACTORS
330
320F5
102
}
330
320F5
100
AcDbXrecord
 90
        0
  0
XRECORD
  5
32115
102
{ACAD_REACTORS
330
320F5
102
}
330
320F5
100
AcDbXrecord
340
1A5E1
  0
XRECORD
  5
32114
102
{ACAD_REACTORS
330
320F5
102
}
330
320F5
100
AcDbXrecord
1000
DSTYLE
1002
{
1070
   278
 70
     0
1070
   371
 70
     0
1070
   372
 70
     0
1070
   340
340
31A89
1002
}
  0
XRECORD
  5
320FF
102
{ACAD_REACTORS
330
320F5
102
}
330
320F5
100
AcDbXrecord
  1

  0
XRECORD
  5
320F8
102
{ACAD_REACTORS
330
320F5
102
}
330
320F5
100
AcDbXrecord
  1

  0
XRECORD
  5
320FD
102
{ACAD_REACTORS
330
320F5
102
}
330
320F5
100
AcDbXrecord
 90
        0
  0
XRECORD
  5
320FA
102
{ACAD_REACTORS
330
320F5
102
}
330
320F5
100
AcDbXrecord
340
31A91
  0
XRECORD
  5
320FC
102
{ACAD_REACTORS
330
320F5
102
}
330
320F5
100
AcDbXrecord
 90
    10781
  0
XRECORD
  5
32116
102
{ACAD_REACTORS
330
320F5
102
}
330
320F5
100
AcDbXrecord
340
1A5E2
  0
XRECORD
  5
320FB
102
{ACAD_REACTORS
330
320F5
102
}
330
320F5
100
AcDbXrecord
340
19
  0
XRECORD
  5
32101
102
{ACAD_REACTORS
330
320F5
102
}
330
320F5
100
AcDbXrecord
 40
0.0
  0
XRECORD
  5
32104
102
{ACAD_REACTORS
330
320F5
102
}
330
320F5
100
AcDbXrecord
340
0
  0
XRECORD
  5
3210A
102
{ACAD_REACTORS
330
320F5
102
}
330
320F5
100
AcDbXrecord
 10
0.0
 20
0.0
 30
0.0
  0
XRECORD
  5
32106
102
{ACAD_REACTORS
330
320F5
102
}
330
320F5
100
AcDbXrecord
 10
0.0
 20
0.0
 30
0.0
  0
XRECORD
  5
32109
102
{ACAD_REACTORS
330
320F5
102
}
330
320F5
100
AcDbXrecord
 10
0.0
 20
0.0
 30
0.0
  0
XRECORD
  5
32107
102
{ACAD_REACTORS
330
320F5
102
}
330
320F5
100
AcDbXrecord
 10
0.0
 20
0.0
 30
0.0
  0
XRECORD
  5
32108
102
{ACAD_REACTORS
330
320F5
102
}
330
320F5
100
AcDbXrecord
 10
0.0
 20
0.0
 30
0.0
  0
XRECORD
  5
32105
102
{ACAD_REACTORS
330
320F5
102
}
330
320F5
100
AcDbXrecord
 10
0.0
 20
0.0
 30
0.0
  0
XRECORD
  5
32102
102
{ACAD_REACTORS
330
320F5
102
}
330
320F5
100
AcDbXrecord
340
0
  0
XRECORD
  5
32103
102
{ACAD_REACTORS
330
320F5
102
}
330
320F5
100
AcDbXrecord
 70
     0
  0
XRECORD
  5
320F9
102
{ACAD_REACTORS
330
320F5
102
}
330
320F5
100
AcDbXrecord
  1

  0
XRECORD
  5
320F6
102
{ACAD_REACTORS
330
320F5
102
}
330
320F5
100
AcDbXrecord
 90
        1
  0
XRECORD
  5
320F7
102
{ACAD_REACTORS
330
320F5
102
}
330
320F5
100
AcDbXrecord
 90
       70
  0
XRECORD
  5
3210D
102
{ACAD_REACTORS
330
320F5
102
}
330
320F5
100
AcDbXrecord
340
0
  0
XRECORD
  5
32113
102
{ACAD_REACTORS
330
320F5
102
}
330
320F5
100
AcDbXrecord
 10
0.0
 20
0.0
 30
0.0
  0
XRECORD
  5
3210F
102
{ACAD_REACTORS
330
320F5
102
}
330
320F5
100
AcDbXrecord
 10
0.0
 20
0.0
 30
0.0
  0
XRECORD
  5
32112
102
{ACAD_REACTORS
330
320F5
102
}
330
320F5
100
AcDbXrecord
 10
0.0
 20
0.0
 30
0.0
  0
XRECORD
  5
32110
102
{ACAD_REACTORS
330
320F5
102
}
330
320F5
100
AcDbXrecord
 10
0.0
 20
0.0
 30
0.0
  0
XRECORD
  5
32111
102
{ACAD_REACTORS
330
320F5
102
}
330
320F5
100
AcDbXrecord
 10
0.0
 20
0.0
 30
0.0
  0
XRECORD
  5
3210E
102
{ACAD_REACTORS
330
320F5
102
}
330
320F5
100
AcDbXrecord
 10
0.0
 20
0.0
 30
0.0
  0
XRECORD
  5
3210B
102
{ACAD_REACTORS
330
320F5
102
}
330
320F5
100
AcDbXrecord
340
0
  0
XRECORD
  5
3210C
102
{ACAD_REACTORS
330
320F5
102
}
330
320F5
100
AcDbXrecord
 70
     0
  0
XRECORD
  5
32100
102
{ACAD_REACTORS
330
320F5
102
}
330
320F5
100
AcDbXrecord
  1

  0
ENDSEC
  0
EOF
