  0
SECTION
  2
HEADER
  9
$ACADVER
  1
AC1014
  9
$ACADMAINTVER
 70
     9
  9
$DWGCODEPAGE
  3
ANSI_1252
  9
$INSBASE
 10
0.0
 20
0.0
 30
0.0
  9
$EXTMIN
 10
-27.5
 20
-25.5
 30
0.0
  9
$EXTMAX
 10
27.5
 20
17.0
 30
0.0
  9
$LIMMIN
 10
0.0
 20
0.0
  9
$LIMMAX
 10
12.0
 20
9.0
  9
$ORTHOMODE
 70
     1
  9
$REGENMODE
 70
     1
  9
$FILLMODE
 70
     1
  9
$QTEXTMODE
 70
     0
  9
$MIRRTEXT
 70
     0
  9
$DRAGMODE
 70
     2
  9
$LTSCALE
 40
1.0
  9
$OSMODE
 70
    37
  9
$ATTMODE
 70
     1
  9
$TEXTSIZE
 40
1.0
  9
$TRACEWID
 40
0.05
  9
$TEXTSTYLE
  7
STANDARD
  9
$CLAYER
  8
CUTOUT_TEMPLATE
  9
$CELTYPE
  6
BYLAYER
  9
$CECOLOR
 62
   256
  9
$CELTSCALE
 40
1.0
  9
$DELOBJ
 70
     1
  9
$DISPSILH
 70
     0
  9
$DIMSCALE
 40
10.0
  9
$DIMASZ
 40
0.18
  9
$DIMEXO
 40
0.0625
  9
$DIMDLI
 40
0.38
  9
$DIMRND
 40
0.0
  9
$DIMDLE
 40
0.0
  9
$DIMEXE
 40
0.18
  9
$DIMTP
 40
0.0
  9
$DIMTM
 40
0.0
  9
$DIMTXT
 40
0.18
  9
$DIMCEN
 40
0.09
  9
$DIMTSZ
 40
0.0
  9
$DIMTOL
 70
     0
  9
$DIMLIM
 70
     0
  9
$DIMTIH
 70
     1
  9
$DIMTOH
 70
     1
  9
$DIMSE1
 70
     0
  9
$DIMSE2
 70
     0
  9
$DIMTAD
 70
     0
  9
$DIMZIN
 70
     0
  9
$DIMBLK
  1

  9
$DIMASO
 70
     1
  9
$DIMSHO
 70
     1
  9
$DIMPOST
  1

  9
$DIMAPOST
  1

  9
$DIMALT
 70
     0
  9
$DIMALTD
 70
     2
  9
$DIMALTF
 40
25.4
  9
$DIMLFAC
 40
1.0
  9
$DIMTOFL
 70
     0
  9
$DIMTVP
 40
0.0
  9
$DIMTIX
 70
     0
  9
$DIMSOXD
 70
     0
  9
$DIMSAH
 70
     0
  9
$DIMBLK1
  1

  9
$DIMBLK2
  1

  9
$DIMSTYLE
  2
STANDARD
  9
$DIMCLRD
 70
     0
  9
$DIMCLRE
 70
     0
  9
$DIMCLRT
 70
     0
  9
$DIMTFAC
 40
1.0
  9
$DIMGAP
 40
0.09
  9
$DIMJUST
 70
     0
  9
$DIMSD1
 70
     0
  9
$DIMSD2
 70
     0
  9
$DIMTOLJ
 70
     1
  9
$DIMTZIN
 70
     0
  9
$DIMALTZ
 70
     0
  9
$DIMALTTZ
 70
     0
  9
$DIMFIT
 70
     3
  9
$DIMUPT
 70
     0
  9
$DIMUNIT
 70
     2
  9
$DIMDEC
 70
     4
  9
$DIMTDEC
 70
     4
  9
$DIMALTU
 70
     2
  9
$DIMALTTD
 70
     2
  9
$DIMTXSTY
  7
STANDARD
  9
$DIMAUNIT
 70
     0
  9
$LUNITS
 70
     2
  9
$LUPREC
 70
     2
  9
$SKETCHINC
 40
0.1
  9
$FILLETRAD
 40
0.0
  9
$AUNITS
 70
     0
  9
$AUPREC
 70
     0
  9
$MENU
  1
acad
  9
$ELEVATION
 40
0.0
  9
$PELEVATION
 40
0.0
  9
$THICKNESS
 40
0.0
  9
$LIMCHECK
 70
     0
  9
$CHAMFERA
 40
0.0
  9
$CHAMFERB
 40
0.0
  9
$CHAMFERC
 40
1.0
  9
$CHAMFERD
 40
0.0
  9
$SKPOLY
 70
     0
  9
$TDCREATE
 40
2447892.791666667
  9
$TDUPDATE
 40
2447892.791666667
  9
$TDINDWG
 40
0.0
  9
$TDUSRTIMER
 40
0.0
  9
$USRTIMER
 70
     1
  9
$ANGBASE
 50
0.0
  9
$ANGDIR
 70
     0
  9
$PDMODE
 70
    34
  9
$PDSIZE
 40
0.0
  9
$PLINEWID
 40
0.0
  9
$COORDS
 70
     1
  9
$SPLFRAME
 70
     0
  9
$SPLINETYPE
 70
     6
  9
$SPLINESEGS
 70
     8
  9
$ATTDIA
 70
     0
  9
$ATTREQ
 70
     1
  9
$HANDLING
 70
     1
  9
$HANDSEED
  5
33379
  9
$SURFTAB1
 70
     6
  9
$SURFTAB2
 70
     6
  9
$SURFTYPE
 70
     6
  9
$SURFU
 70
     6
  9
$SURFV
 70
     6
  9
$UCSNAME
  2

  9
$UCSORG
 10
0.0
 20
0.0
 30
0.0
  9
$UCSXDIR
 10
1.0
 20
0.0
 30
0.0
  9
$UCSYDIR
 10
0.0
 20
1.0
 30
0.0
  9
$PUCSNAME
  2

  9
$PUCSORG
 10
0.0
 20
0.0
 30
0.0
  9
$PUCSXDIR
 10
1.0
 20
0.0
 30
0.0
  9
$PUCSYDIR
 10
0.0
 20
1.0
 30
0.0
  9
$USERI1
 70
     0
  9
$USERI2
 70
     0
  9
$USERI3
 70
     0
  9
$USERI4
 70
     0
  9
$USERI5
 70
     0
  9
$USERR1
 40
0.0
  9
$USERR2
 40
0.0
  9
$USERR3
 40
0.0
  9
$USERR4
 40
0.0
  9
$USERR5
 40
0.0
  9
$WORLDVIEW
 70
     1
  9
$SHADEDGE
 70
     1
  9
$SHADEDIF
 70
    70
  9
$TILEMODE
 70
     1
  9
$MAXACTVP
 70
    16
  9
$PINSBASE
 10
0.0
 20
0.0
 30
0.0
  9
$PLIMCHECK
 70
     0
  9
$PEXTMIN
 10
1.000000E+20
 20
1.000000E+20
 30
1.000000E+20
  9
$PEXTMAX
 10
-1.000000E+20
 20
-1.000000E+20
 30
-1.000000E+20
  9
$PLIMMIN
 10
0.0
 20
0.0
  9
$PLIMMAX
 10
12.0
 20
9.0
  9
$UNITMODE
 70
     0
  9
$VISRETAIN
 70
     0
  9
$PLINEGEN
 70
     0
  9
$PSLTSCALE
 70
     0
  9
$TREEDEPTH
 70
  3020
  9
$PICKSTYLE
 70
     1
  9
$CMLSTYLE
  2
STANDARD
  9
$CMLJUST
 70
     0
  9
$CMLSCALE
 40
1.0
  9
$PROXYGRAPHICS
 70
     1
  9
$MEASUREMENT
 70
     0
  0
ENDSEC
  0
SECTION
  2
CLASSES
  0
CLASS
  1
ACDBDICTIONARYWDFLT
  2
AcDbDictionaryWithDefault
  3
ObjectDBX Classes
 90
        0
280
     0
281
     0
  0
CLASS
  1
XRECORD
  2
AcDbXrecord
  3
AutoCAD 2000
 90
        0
280
     0
281
     0
  0
CLASS
  1
LWPOLYLINE
  2
AcDbPolyline
  3
AutoCAD 2000
 90
        0
280
     0
281
     1
  0
CLASS
  1
HATCH
  2
AcDbHatch
  3
AutoCAD 2000
 90
        0
280
     0
281
     1
  0
CLASS
  1
ACDBPLACEHOLDER
  2
AcDbPlaceHolder
  3
ObjectDBX Classes
 90
        0
280
     0
281
     0
  0
CLASS
  1
LAYOUT
  2
AcDbLayout
  3
ObjectDBX Classes
 90
        0
280
     0
281
     0
  0
ENDSEC
  0
SECTION
  2
TABLES
  0
TABLE
  2
VPORT
  5
32CEF
330
0
100
AcDbSymbolTable
 70
     2
  0
VPORT
  5
32D2F
330
32CEF
100
AcDbSymbolTableRecord
100
AcDbViewportTableRecord
  2
*ACTIVE
 70
     0
 10
0.0
 20
0.0
 11
1.0
 21
1.0
 12
-21.425104
 22
-4.25
 13
0.0
 23
0.0
 14
1.0
 24
1.0
 15
1.0
 25
1.0
 16
0.0
 26
0.0
 36
1.0
 17
0.0
 27
0.0
 37
0.0
 40
44.625
 41
1.294118
 42
50.0
 43
0.0
 44
0.0
 50
0.0
 51
0.0
 71
     0
 72
   100
 73
     1
 74
     1
 75
     0
 76
     0
 77
     0
 78
     0
  0
ENDTAB
  0
TABLE
  2
LTYPE
  5
32CEC
330
0
100
AcDbSymbolTable
 70
     3
  0
LTYPE
  5
32CFA
330
32CEC
100
AcDbSymbolTableRecord
100
AcDbLinetypeTableRecord
  2
BYBLOCK
 70
     0
  3

 72
    65
 73
     0
 40
0.0
  0
LTYPE
  5
32CFB
330
32CEC
100
AcDbSymbolTableRecord
100
AcDbLinetypeTableRecord
  2
BYLAYER
 70
     0
  3

 72
    65
 73
     0
 40
0.0
  0
LTYPE
  5
32CFC
330
32CEC
100
AcDbSymbolTableRecord
100
AcDbLinetypeTableRecord
  2
CONTINUOUS
 70
     0
  3
Solid Line
 72
    65
 73
     0
 40
0.0
  0
LTYPE
  5
32D15
330
32CEC
100
AcDbSymbolTableRecord
100
AcDbLinetypeTableRecord
  2
DRAW
 70
     0
  3
 on template _________________________________
 72
    65
 73
     2
 40
1.25
 49
1.25
 74
     0
 49
0.0
 74
     0
  0
LTYPE
  5
32D16
330
32CEC
100
AcDbSymbolTableRecord
100
AcDbLinetypeTableRecord
  2
EUROPEANCUT
 70
     0
  3
 on template _________________________________
 72
    65
 73
     2
 40
1.25
 49
1.25
 74
     0
 49
0.0
 74
     0
  0
ENDTAB
  0
TABLE
  2
LAYER
  5
32CE9
330
0
100
AcDbSymbolTable
 70
     5
  0
LAYER
  5
32CF7
330
32CE9
100
AcDbSymbolTableRecord
100
AcDbLayerTableRecord
  2
0
 70
     0
 62
     7
  6
CONTINUOUS
  0
LAYER
  5
32D17
330
32CE9
100
AcDbSymbolTableRecord
100
AcDbLayerTableRecord
  2
1
 70
     0
 62
     7
  6
CONTINUOUS
  0
LAYER
  5
32D18
330
32CE9
100
AcDbSymbolTableRecord
100
AcDbLayerTableRecord
  2
CUTOUT_TEMPLATE
 70
     0
 62
     7
  6
CONTINUOUS
  0
LAYER
  5
32D19
330
32CE9
100
AcDbSymbolTableRecord
100
AcDbLayerTableRecord
  2
DEFPOINTS
 70
     0
 62
     7
  6
CONTINUOUS
  0
LAYER
  5
32D1A
330
32CE9
100
AcDbSymbolTableRecord
100
AcDbLayerTableRecord
  2
TITLE_BLOCK
 70
     0
 62
     7
  6
CONTINUOUS
  0
ENDTAB
  0
TABLE
  2
STYLE
  5
32CEA
330
0
100
AcDbSymbolTable
 70
     1
  0
STYLE
  5
32CF8
330
32CEA
100
AcDbSymbolTableRecord
100
AcDbTextStyleTableRecord
  2
STANDARD
 70
     0
 40
0.0
 41
1.0
 50
0.0
 71
     0
 42
1.0
  3
TXT.SHX
  4

  0
ENDTAB
  0
TABLE
  2
VIEW
  5
32CED
330
0
100
AcDbSymbolTable
 70
     0
  0
ENDTAB
  0
TABLE
  2
UCS
  5
32CEE
330
0
100
AcDbSymbolTable
 70
     0
  0
ENDTAB
  0
TABLE
  2
APPID
  5
32CF0
330
0
100
AcDbSymbolTable
 70
    21
  0
APPID
  5
32CF9
330
32CF0
100
AcDbSymbolTableRecord
100
AcDbRegAppTableRecord
  2
ACAD
 70
     0
  0
APPID
  5
32D1B
330
32CF0
100
AcDbSymbolTableRecord
100
AcDbRegAppTableRecord
  2
ACAD_DSTYLE_DIM_EXT1_LINET
 70
     0
  0
APPID
  5
32D1C
330
32CF0
100
AcDbSymbolTableRecord
100
AcDbRegAppTableRecord
  2
ACAD_DSTYLE_DIM_EXT2_LINET
 70
     0
  0
APPID
  5
32D1D
330
32CF0
100
AcDbSymbolTableRecord
100
AcDbRegAppTableRecord
  2
ACAD_DSTYLE_DIM_LINETYPE
 70
     0
  0
APPID
  5
32D1E
330
32CF0
100
AcDbSymbolTableRecord
100
AcDbRegAppTableRecord
  2
ACAD_DSTYLE_DIMARC_LENGTH_
 70
     0
  0
APPID
  5
32D1F
330
32CF0
100
AcDbSymbolTableRecord
100
AcDbRegAppTableRecord
  2
ACAD_DSTYLE_DIMEXT_ENABLED
 70
     0
  0
APPID
  5
32D20
330
32CF0
100
AcDbSymbolTableRecord
100
AcDbRegAppTableRecord
  2
ACAD_DSTYLE_DIMEXT_LENGTH
 70
     0
  0
APPID
  5
32D21
330
32CF0
100
AcDbSymbolTableRecord
100
AcDbRegAppTableRecord
  2
ACAD_DSTYLE_DIMJOGGED_JOGA
 70
     0
  0
APPID
  5
32D22
330
32CF0
100
AcDbSymbolTableRecord
100
AcDbRegAppTableRecord
  2
ACAD_DSTYLE_DIMTEXT_FILL
 70
     0
  0
APPID
  5
32D23
330
32CF0
100
AcDbSymbolTableRecord
100
AcDbRegAppTableRecord
  2
ACAD_EXEMPT_FROM_CAD_STAND
 70
     0
  0
APPID
  5
32D24
330
32CF0
100
AcDbSymbolTableRecord
100
AcDbRegAppTableRecord
  2
ACAD_MLEADERVER
 70
     0
  0
APPID
  5
32D25
330
32CF0
100
AcDbSymbolTableRecord
100
AcDbRegAppTableRecord
  2
ACAD_PSEXT
 70
     0
  0
APPID
  5
32D26
330
32CF0
100
AcDbSymbolTableRecord
100
AcDbRegAppTableRecord
  2
ACADANNOTATIVE
 70
     0
  0
APPID
  5
32D27
330
32CF0
100
AcDbSymbolTableRecord
100
AcDbRegAppTableRecord
  2
ACAECLAYERSTANDARD
 70
     0
  0
APPID
  5
32D28
330
32CF0
100
AcDbSymbolTableRecord
100
AcDbRegAppTableRecord
  2
ACAUTHENVIRON
 70
     0
  0
APPID
  5
32D29
330
32CF0
100
AcDbSymbolTableRecord
100
AcDbRegAppTableRecord
  2
ACDBBLOCKREPETAG
 70
     0
  0
APPID
  5
32D2A
330
32CF0
100
AcDbSymbolTableRecord
100
AcDbRegAppTableRecord
  2
ACDBDYNAMICBLOCKGUID
 70
     0
  0
APPID
  5
32D2B
330
32CF0
100
AcDbSymbolTableRecord
100
AcDbRegAppTableRecord
  2
ACDBDYNAMICBLOCKTRUENAME
 70
     0
  0
APPID
  5
32D2C
330
32CF0
100
AcDbSymbolTableRecord
100
AcDbRegAppTableRecord
  2
ARROW_TEXT
 70
     0
  0
APPID
  5
32D2D
330
32CF0
100
AcDbSymbolTableRecord
100
AcDbRegAppTableRecord
  2
DCO15
 70
     0
  0
APPID
  5
32D2E
330
32CF0
100
AcDbSymbolTableRecord
100
AcDbRegAppTableRecord
  2
TCAD
 70
     0
  0
ENDTAB
  0
TABLE
  2
DIMSTYLE
  5
32CF1
330
0
100
AcDbSymbolTable
 70
     1
  0
DIMSTYLE
105
32D0D
330
32CF1
100
AcDbSymbolTableRecord
100
AcDbDimStyleTableRecord
  2
STANDARD
 70
     0
  3

  4

  5

  6

  7

 40
1.0
 41
0.18
 42
0.0625
 43
0.38
 44
0.18
 45
0.0
 46
0.0
 47
0.0
 48
0.0
140
0.18
141
0.09
142
0.0
143
25.4
144
1.0
145
0.0
146
1.0
147
0.09
 71
     0
 72
     0
 73
     1
 74
     1
 75
     0
 76
     0
 77
     0
 78
     0
170
     0
171
     2
172
     0
173
     0
174
     0
175
     0
176
     0
177
     0
178
     0
270
     2
271
     4
272
     4
273
     2
274
     2
340
32CF8
275
     0
280
     0
281
     0
282
     0
283
     1
284
     0
285
     0
286
     0
287
     3
288
     0
  0
ENDTAB
  0
TABLE
  2
BLOCK_RECORD
  5
32CE8
330
0
100
AcDbSymbolTable
 70
     2
  0
BLOCK_RECORD
  5
32D05
330
32CE8
100
AcDbSymbolTableRecord
100
AcDbBlockTableRecord
  2
*MODEL_SPACE
  0
BLOCK_RECORD
  5
32D01
330
32CE8
100
AcDbSymbolTableRecord
100
AcDbBlockTableRecord
  2
*PAPER_SPACE
  0
BLOCK_RECORD
  5
32D12
330
32CE8
100
AcDbSymbolTableRecord
100
AcDbBlockTableRecord
  2
ARROW
  0
ENDTAB
  0
ENDSEC
  0
SECTION
  2
BLOCKS
  0
BLOCK
  5
32D06
330
32D05
100
AcDbEntity
  8
0
100
AcDbBlockBegin
  2
*MODEL_SPACE
 70
     0
 71
     0
 10
0.0
 20
0.0
 30
0.0
  3
*MODEL_SPACE
  1

  0
ENDBLK
  5
32D07
330
32D05
100
AcDbEntity
  8
0
100
AcDbBlockEnd
  0
BLOCK
  5
32D02
330
32D01
100
AcDbEntity
 67
     1
  8
0
100
AcDbBlockBegin
  2
*PAPER_SPACE
 70
     0
 71
     0
 10
0.0
 20
0.0
 30
0.0
  3
*PAPER_SPACE
  1

  0
ENDBLK
  5
32D03
330
32D01
100
AcDbEntity
 67
     1
  8
0
100
AcDbBlockEnd
  0
BLOCK
  5
32D13
330
32D12
100
AcDbEntity
  8
0
100
AcDbBlockBegin
  2
ARROW
 70
     0
 71
     0
 10
0.0
 20
0.0
 30
0.0
  3
ARROW
  1

  0
SOLID
  5
1A33D
330
32D12
100
AcDbEntity
  8
0
  6
CONTINUOUS
 62
     0
100
AcDbTrace
 10
-1.0
 20
0.176
 30
0.0
 11
-1.0
 21
-0.176
 31
0.0
 12
0.0
 22
0.0
 32
0.0
 13
0.0
 23
0.0
 33
0.0
  0
ENDBLK
  5
32D14
330
32D12
100
AcDbEntity
  8
0
100
AcDbBlockEnd
  0
ENDSEC
  0
SECTION
  2
ENTITIES
  0
LINE
  5
19CFE
330
32D05
100
AcDbEntity
  8
TITLE_BLOCK
  6
CONTINUOUS
 62
     7
100
AcDbLine
 10
-27.5
 20
17.0
 30
0.0
 11
-27.5
 21
-25.5
 31
0.0
  0
LINE
  5
19CFF
330
32D05
100
AcDbEntity
  8
TITLE_BLOCK
  6
CONTINUOUS
 62
     7
100
AcDbLine
 10
-27.5
 20
-25.5
 30
0.0
 11
27.5
 21
-25.5
 31
0.0
  0
LINE
  5
19D00
330
32D05
100
AcDbEntity
  8
TITLE_BLOCK
  6
CONTINUOUS
 62
     7
100
AcDbLine
 10
27.5
 20
-25.5
 30
0.0
 11
27.5
 21
17.0
 31
0.0
  0
LINE
  5
19D01
330
32D05
100
AcDbEntity
  8
TITLE_BLOCK
  6
CONTINUOUS
 62
     7
100
AcDbLine
 10
27.5
 20
17.0
 30
0.0
 11
-27.5
 21
17.0
 31
0.0
  0
LINE
  5
19D02
330
32D05
100
AcDbEntity
  8
TITLE_BLOCK
  6
CONTINUOUS
 62
     7
100
AcDbLine
 10
-27.5
 20
-17.0
 30
0.0
 11
27.5
 21
-17.0
 31
0.0
  0
LINE
  5
19D03
330
32D05
100
AcDbEntity
  8
TITLE_BLOCK
  6
CONTINUOUS
 62
     7
100
AcDbLine
 10
-27.0
 20
16.5
 30
0.0
 11
-27.0
 21
-16.5
 31
0.0
  0
LINE
  5
19D04
330
32D05
100
AcDbEntity
  8
TITLE_BLOCK
  6
CONTINUOUS
 62
     7
100
AcDbLine
 10
27.0
 20
16.5
 30
0.0
 11
-27.0
 21
16.5
 31
0.0
  0
LINE
  5
19D05
330
32D05
100
AcDbEntity
  8
TITLE_BLOCK
  6
CONTINUOUS
 62
     7
100
AcDbLine
 10
-27.0
 20
-16.5
 30
0.0
 11
27.0
 21
-16.5
 31
0.0
  0
LINE
  5
19D06
330
32D05
100
AcDbEntity
  8
TITLE_BLOCK
  6
CONTINUOUS
 62
     7
100
AcDbLine
 10
-27.0
 20
-17.5
 30
0.0
 11
-9.62
 21
-17.5
 31
0.0
  0
LINE
  5
19D07
330
32D05
100
AcDbEntity
  8
TITLE_BLOCK
  6
CONTINUOUS
 62
     7
100
AcDbLine
 10
-27.0
 20
-25.0
 30
0.0
 11
-9.62
 21
-25.0
 31
0.0
  0
LINE
  5
19D08
330
32D05
100
AcDbEntity
  8
TITLE_BLOCK
  6
CONTINUOUS
 62
     7
100
AcDbLine
 10
27.0
 20
-16.5
 30
0.0
 11
27.0
 21
16.5
 31
0.0
  0
LINE
  5
19D09
330
32D05
100
AcDbEntity
  8
TITLE_BLOCK
  6
CONTINUOUS
 62
     7
100
AcDbLine
 10
-27.0
 20
-17.5
 30
0.0
 11
-27.0
 21
-25.0
 31
0.0
  0
LINE
  5
19D0A
330
32D05
100
AcDbEntity
  8
TITLE_BLOCK
  6
CONTINUOUS
 62
     7
100
AcDbLine
 10
27.0
 20
-25.0
 30
0.0
 11
27.0
 21
-17.5
 31
0.0
  0
POLYLINE
  5
19D0B
330
32D05
100
AcDbEntity
  8
TITLE_BLOCK
  6
CONTINUOUS
 62
     7
100
AcDb2dPolyline
 66
     1
 10
0.0
 20
0.0
 30
0.0
 70
     5
 75
     5
  0
VERTEX
  5
32D30
330
19D0B
100
AcDbEntity
  8
TITLE_BLOCK
  6
CONTINUOUS
 62
     7
100
AcDbVertex
100
AcDb2dVertex
 10
-22.714945
 20
-19.623364
 30
0.0
 70
     8
  0
VERTEX
  5
32D31
330
19D0B
100
AcDbEntity
  8
TITLE_BLOCK
  6
CONTINUOUS
 62
     7
100
AcDbVertex
100
AcDb2dVertex
 10
-22.12179
 20
-19.286717
 30
0.0
 70
     8
  0
VERTEX
  5
32D32
330
19D0B
100
AcDbEntity
  8
TITLE_BLOCK
  6
CONTINUOUS
 62
     7
100
AcDbVertex
100
AcDb2dVertex
 10
-21.502943
 20
-19.000248
 30
0.0
 70
     8
  0
VERTEX
  5
32D33
330
19D0B
100
AcDbEntity
  8
TITLE_BLOCK
  6
CONTINUOUS
 62
     7
100
AcDbVertex
100
AcDb2dVertex
 10
-20.862787
 20
-18.765127
 30
0.0
 70
     8
  0
VERTEX
  5
32D34
330
19D0B
100
AcDbEntity
  8
TITLE_BLOCK
  6
CONTINUOUS
 62
     7
100
AcDbVertex
100
AcDb2dVertex
 10
-20.205704
 20
-18.582519
 30
0.0
 70
     8
  0
VERTEX
  5
32D35
330
19D0B
100
AcDbEntity
  8
TITLE_BLOCK
  6
CONTINUOUS
 62
     7
100
AcDbVertex
100
AcDb2dVertex
 10
-19.536078
 20
-18.453592
 30
0.0
 70
     8
  0
VERTEX
  5
32D36
330
19D0B
100
AcDbEntity
  8
TITLE_BLOCK
  6
CONTINUOUS
 62
     7
100
AcDbVertex
100
AcDb2dVertex
 10
-18.858291
 20
-18.379514
 30
0.0
 70
     8
  0
VERTEX
  5
32D37
330
19D0B
100
AcDbEntity
  8
TITLE_BLOCK
  6
CONTINUOUS
 62
     7
100
AcDbVertex
100
AcDb2dVertex
 10
-18.176725
 20
-18.361451
 30
0.0
 70
     8
  0
VERTEX
  5
32D38
330
19D0B
100
AcDbEntity
  8
TITLE_BLOCK
  6
CONTINUOUS
 62
     7
100
AcDbVertex
100
AcDb2dVertex
 10
-17.495765
 20
-18.400571
 30
0.0
 70
     8
  0
VERTEX
  5
32D39
330
19D0B
100
AcDbEntity
  8
TITLE_BLOCK
  6
CONTINUOUS
 62
     7
100
AcDbVertex
100
AcDb2dVertex
 10
-16.724623
 20
-18.508402
 30
0.0
 70
     8
  0
VERTEX
  5
32D3A
330
19D0B
100
AcDbEntity
  8
TITLE_BLOCK
  6
CONTINUOUS
 62
     7
100
AcDbVertex
100
AcDb2dVertex
 10
-15.968325
 20
-18.68976
 30
0.0
 70
     8
  0
VERTEX
  5
32D3B
330
19D0B
100
AcDbEntity
  8
TITLE_BLOCK
  6
CONTINUOUS
 62
     7
100
AcDbVertex
100
AcDb2dVertex
 10
-15.232405
 20
-18.941149
 30
0.0
 70
     8
  0
VERTEX
  5
32D3C
330
19D0B
100
AcDbEntity
  8
TITLE_BLOCK
  6
CONTINUOUS
 62
     7
100
AcDbVertex
100
AcDb2dVertex
 10
-14.522396
 20
-19.259072
 30
0.0
 70
     8
  0
VERTEX
  5
32D3D
330
19D0B
100
AcDbEntity
  8
TITLE_BLOCK
  6
CONTINUOUS
 62
     7
100
AcDbVertex
100
AcDb2dVertex
 10
-13.843834
 20
-19.640032
 30
0.0
 70
     8
  0
VERTEX
  5
32D3E
330
19D0B
100
AcDbEntity
  8
TITLE_BLOCK
  6
CONTINUOUS
 62
     7
100
AcDbVertex
100
AcDb2dVertex
 10
-13.202253
 20
-20.080534
 30
0.0
 70
     8
  0
VERTEX
  5
32D3F
330
19D0B
100
AcDbEntity
  8
TITLE_BLOCK
  6
CONTINUOUS
 62
     7
100
AcDbVertex
100
AcDb2dVertex
 10
-12.603188
 20
-20.577081
 30
0.0
 70
     8
  0
VERTEX
  5
32D40
330
19D0B
100
AcDbEntity
  8
TITLE_BLOCK
  6
CONTINUOUS
 62
     7
100
AcDbVertex
100
AcDb2dVertex
 10
-12.052172
 20
-21.126176
 30
0.0
 70
     8
  0
VERTEX
  5
32D41
330
19D0B
100
AcDbEntity
  8
TITLE_BLOCK
  6
CONTINUOUS
 62
     7
100
AcDbVertex
100
AcDb2dVertex
 10
-11.525129
 20
-21.755985
 30
0.0
 70
     8
  0
VERTEX
  5
32D42
330
19D0B
100
AcDbEntity
  8
TITLE_BLOCK
  6
CONTINUOUS
 62
     7
100
AcDbVertex
100
AcDb2dVertex
 10
-11.060013
 20
-22.432932
 30
0.0
 70
     8
  0
VERTEX
  5
32D43
330
19D0B
100
AcDbEntity
  8
TITLE_BLOCK
  6
CONTINUOUS
 62
     7
100
AcDbVertex
100
AcDb2dVertex
 10
-10.661269
 20
-23.150904
 30
0.0
 70
     8
  0
VERTEX
  5
32D44
330
19D0B
100
AcDbEntity
  8
TITLE_BLOCK
  6
CONTINUOUS
 62
     7
100
AcDbVertex
100
AcDb2dVertex
 10
-10.333343
 20
-23.903793
 30
0.0
 70
     8
  0
VERTEX
  5
32D45
330
19D0B
100
AcDbEntity
  8
TITLE_BLOCK
  6
CONTINUOUS
 62
     7
100
AcDbVertex
100
AcDb2dVertex
 10
-10.360531
 20
-23.906957
 30
0.0
 70
     8
  0
VERTEX
  5
32D46
330
19D0B
100
AcDbEntity
  8
TITLE_BLOCK
  6
CONTINUOUS
 62
     7
100
AcDbVertex
100
AcDb2dVertex
 10
-10.756699
 20
-23.069782
 30
0.0
 70
     8
  0
VERTEX
  5
32D47
330
19D0B
100
AcDbEntity
  8
TITLE_BLOCK
  6
CONTINUOUS
 62
     7
100
AcDbVertex
100
AcDb2dVertex
 10
-11.235404
 20
-22.276818
 30
0.0
 70
     8
  0
VERTEX
  5
32D48
330
19D0B
100
AcDbEntity
  8
TITLE_BLOCK
  6
CONTINUOUS
 62
     7
100
AcDbVertex
100
AcDb2dVertex
 10
-11.795774
 20
-21.540027
 30
0.0
 70
     8
  0
VERTEX
  5
32D49
330
19D0B
100
AcDbEntity
  8
TITLE_BLOCK
  6
CONTINUOUS
 62
     7
100
AcDbVertex
100
AcDb2dVertex
 10
-12.436937
 20
-20.871372
 30
0.0
 70
     8
  0
VERTEX
  5
32D4A
330
19D0B
100
AcDbEntity
  8
TITLE_BLOCK
  6
CONTINUOUS
 62
     7
100
AcDbVertex
100
AcDb2dVertex
 10
-13.035497
 20
-20.352562
 30
0.0
 70
     8
  0
VERTEX
  5
32D4B
330
19D0B
100
AcDbEntity
  8
TITLE_BLOCK
  6
CONTINUOUS
 62
     7
100
AcDbVertex
100
AcDb2dVertex
 10
-13.68061
 20
-19.893471
 30
0.0
 70
     8
  0
VERTEX
  5
32D4C
330
19D0B
100
AcDbEntity
  8
TITLE_BLOCK
  6
CONTINUOUS
 62
     7
100
AcDbVertex
100
AcDb2dVertex
 10
-14.365921
 20
-19.496705
 30
0.0
 70
     8
  0
VERTEX
  5
32D4D
330
19D0B
100
AcDbEntity
  8
TITLE_BLOCK
  6
CONTINUOUS
 62
     7
100
AcDbVertex
100
AcDb2dVertex
 10
-15.085072
 20
-19.16487
 30
0.0
 70
     8
  0
VERTEX
  5
32D4E
330
19D0B
100
AcDbEntity
  8
TITLE_BLOCK
  6
CONTINUOUS
 62
     7
100
AcDbVertex
100
AcDb2dVertex
 10
-15.831707
 20
-18.900573
 30
0.0
 70
     8
  0
VERTEX
  5
32D4F
330
19D0B
100
AcDbEntity
  8
TITLE_BLOCK
  6
CONTINUOUS
 62
     7
100
AcDbVertex
100
AcDb2dVertex
 10
-16.59947
 20
-18.706419
 30
0.0
 70
     8
  0
VERTEX
  5
32D50
330
19D0B
100
AcDbEntity
  8
TITLE_BLOCK
  6
CONTINUOUS
 62
     7
100
AcDbVertex
100
AcDb2dVertex
 10
-17.382004
 20
-18.585016
 30
0.0
 70
     8
  0
VERTEX
  5
32D51
330
19D0B
100
AcDbEntity
  8
TITLE_BLOCK
  6
CONTINUOUS
 62
     7
100
AcDbVertex
100
AcDb2dVertex
 10
-18.172953
 20
-18.538969
 30
0.0
 70
     8
  0
VERTEX
  5
32D52
330
19D0B
100
AcDbEntity
  8
TITLE_BLOCK
  6
CONTINUOUS
 62
     7
100
AcDbVertex
100
AcDb2dVertex
 10
-19.010169
 20
-18.567702
 30
0.0
 70
     8
  0
VERTEX
  5
32D53
330
19D0B
100
AcDbEntity
  8
TITLE_BLOCK
  6
CONTINUOUS
 62
     7
100
AcDbVertex
100
AcDb2dVertex
 10
-19.840558
 20
-18.67852
 30
0.0
 70
     8
  0
VERTEX
  5
32D54
330
19D0B
100
AcDbEntity
  8
TITLE_BLOCK
  6
CONTINUOUS
 62
     7
100
AcDbVertex
100
AcDb2dVertex
 10
-20.655943
 20
-18.870564
 30
0.0
 70
     8
  0
VERTEX
  5
32D55
330
19D0B
100
AcDbEntity
  8
TITLE_BLOCK
  6
CONTINUOUS
 62
     7
100
AcDbVertex
100
AcDb2dVertex
 10
-21.448148
 20
-19.142973
 30
0.0
 70
     8
  0
VERTEX
  5
32D56
330
19D0B
100
AcDbEntity
  8
TITLE_BLOCK
  6
CONTINUOUS
 62
     7
100
AcDbVertex
100
AcDb2dVertex
 10
-22.132945
 20
-19.450879
 30
0.0
 70
     8
  0
VERTEX
  5
32D57
330
19D0B
100
AcDbEntity
  8
TITLE_BLOCK
  6
CONTINUOUS
 62
     7
100
AcDbVertex
100
AcDb2dVertex
 10
-22.787328
 20
-19.818583
 30
0.0
 70
     8
  0
VERTEX
  5
32D58
330
19D0B
100
AcDbEntity
  8
TITLE_BLOCK
  6
CONTINUOUS
 62
     7
100
AcDbVertex
100
AcDb2dVertex
 10
-23.406947
 20
-20.24232
 30
0.0
 70
     8
  0
VERTEX
  5
32D59
330
19D0B
100
AcDbEntity
  8
TITLE_BLOCK
  6
CONTINUOUS
 62
     7
100
AcDbVertex
100
AcDb2dVertex
 10
-23.987452
 20
-20.718327
 30
0.0
 70
     8
  0
VERTEX
  5
32D5A
330
19D0B
100
AcDbEntity
  8
TITLE_BLOCK
  6
CONTINUOUS
 62
     7
100
AcDbVertex
100
AcDb2dVertex
 10
-24.524495
 20
-21.242839
 30
0.0
 70
     8
  0
VERTEX
  5
32D5B
330
19D0B
100
AcDbEntity
  8
TITLE_BLOCK
  6
CONTINUOUS
 62
     7
100
AcDbVertex
100
AcDb2dVertex
 10
-25.013725
 20
-21.812093
 30
0.0
 70
     8
  0
VERTEX
  5
32D5C
330
19D0B
100
AcDbEntity
  8
TITLE_BLOCK
  6
CONTINUOUS
 62
     7
100
AcDbVertex
100
AcDb2dVertex
 10
-25.450794
 20
-22.422325
 30
0.0
 70
     8
  0
VERTEX
  5
32D5D
330
19D0B
100
AcDbEntity
  8
TITLE_BLOCK
  6
CONTINUOUS
 62
     7
100
AcDbVertex
100
AcDb2dVertex
 10
-25.831351
 20
-23.06977
 30
0.0
 70
     8
  0
VERTEX
  5
32D5E
330
19D0B
100
AcDbEntity
  8
TITLE_BLOCK
  6
CONTINUOUS
 62
     7
100
AcDbVertex
100
AcDb2dVertex
 10
-26.218558
 20
-23.893364
 30
0.0
 70
     8
  0
VERTEX
  5
32D5F
330
19D0B
100
AcDbEntity
  8
TITLE_BLOCK
  6
CONTINUOUS
 62
     7
100
AcDbVertex
100
AcDb2dVertex
 10
-26.2043
 20
-23.767163
 30
0.0
 70
     8
  0
VERTEX
  5
32D60
330
19D0B
100
AcDbEntity
  8
TITLE_BLOCK
  6
CONTINUOUS
 62
     7
100
AcDbVertex
100
AcDb2dVertex
 10
-26.154945
 20
-23.648168
 30
0.0
 70
     8
  0
VERTEX
  5
32D61
330
19D0B
100
AcDbEntity
  8
TITLE_BLOCK
  6
CONTINUOUS
 62
     7
100
AcDbVertex
100
AcDb2dVertex
 10
-25.870867
 20
-23.038607
 30
0.0
 70
     8
  0
VERTEX
  5
32D62
330
19D0B
100
AcDbEntity
  8
TITLE_BLOCK
  6
CONTINUOUS
 62
     7
100
AcDbVertex
100
AcDb2dVertex
 10
-25.540164
 20
-22.453137
 30
0.0
 70
     8
  0
VERTEX
  5
32D63
330
19D0B
100
AcDbEntity
  8
TITLE_BLOCK
  6
CONTINUOUS
 62
     7
100
AcDbVertex
100
AcDb2dVertex
 10
-25.165304
 20
-21.89492
 30
0.0
 70
     8
  0
VERTEX
  5
32D64
330
19D0B
100
AcDbEntity
  8
TITLE_BLOCK
  6
CONTINUOUS
 62
     7
100
AcDbVertex
100
AcDb2dVertex
 10
-24.748751
 20
-21.367121
 30
0.0
 70
     8
  0
VERTEX
  5
32D65
330
19D0B
100
AcDbEntity
  8
TITLE_BLOCK
  6
CONTINUOUS
 62
     7
100
AcDbVertex
100
AcDb2dVertex
 10
-24.292973
 20
-20.872902
 30
0.0
 70
     8
  0
VERTEX
  5
32D66
330
19D0B
100
AcDbEntity
  8
TITLE_BLOCK
  6
CONTINUOUS
 62
     7
100
AcDbVertex
100
AcDb2dVertex
 10
-23.800435
 20
-20.415428
 30
0.0
 70
     8
  0
VERTEX
  5
32D67
330
19D0B
100
AcDbEntity
  8
TITLE_BLOCK
  6
CONTINUOUS
 62
     7
100
AcDbVertex
100
AcDb2dVertex
 10
-23.273603
 20
-19.99786
 30
0.0
 70
     8
  0
VERTEX
  5
32D68
330
19D0B
100
AcDbEntity
  8
TITLE_BLOCK
  6
CONTINUOUS
 62
     7
100
AcDbVertex
100
AcDb2dVertex
 10
-22.714945
 20
-19.623364
 30
0.0
 70
     8
  0
VERTEX
  5
32D69
330
19D0B
100
AcDbEntity
  8
TITLE_BLOCK
  6
CONTINUOUS
 62
     7
100
AcDbVertex
100
AcDb2dVertex
 10
-22.714945
 20
-19.623364
 30
0.0
 70
     8
  0
VERTEX
  5
32D6A
330
19D0B
100
AcDbEntity
  8
TITLE_BLOCK
  6
CONTINUOUS
 62
     7
100
AcDbVertex
100
AcDb2dVertex
 10
-22.714945
 20
-19.623364
 30
0.0
 70
    16
  0
VERTEX
  5
32D6B
330
19D0B
100
AcDbEntity
  8
TITLE_BLOCK
  6
CONTINUOUS
 62
     7
100
AcDbVertex
100
AcDb2dVertex
 10
-21.171351
 20
-18.65977
 30
0.0
 70
    16
  0
VERTEX
  5
32D6C
330
19D0B
100
AcDbEntity
  8
TITLE_BLOCK
  6
CONTINUOUS
 62
     7
100
AcDbVertex
100
AcDb2dVertex
 10
-19.306957
 20
-18.218969
 30
0.0
 70
    16
  0
VERTEX
  5
32D6D
330
19D0B
100
AcDbEntity
  8
TITLE_BLOCK
  6
CONTINUOUS
 62
     7
100
AcDbVertex
100
AcDb2dVertex
 10
-17.495765
 20
-18.400571
 30
0.0
 70
    16
  0
VERTEX
  5
32D6E
330
19D0B
100
AcDbEntity
  8
TITLE_BLOCK
  6
CONTINUOUS
 62
     7
100
AcDbVertex
100
AcDb2dVertex
 10
-15.424515
 20
-18.586977
 30
0.0
 70
    16
  0
VERTEX
  5
32D6F
330
19D0B
100
AcDbEntity
  8
TITLE_BLOCK
  6
CONTINUOUS
 62
     7
100
AcDbVertex
100
AcDb2dVertex
 10
-13.452562
 20
-19.594965
 30
0.0
 70
    16
  0
VERTEX
  5
32D70
330
19D0B
100
AcDbEntity
  8
TITLE_BLOCK
  6
CONTINUOUS
 62
     7
100
AcDbVertex
100
AcDb2dVertex
 10
-12.052172
 20
-21.126176
 30
0.0
 70
    16
  0
VERTEX
  5
32D71
330
19D0B
100
AcDbEntity
  8
TITLE_BLOCK
  6
CONTINUOUS
 62
     7
100
AcDbVertex
100
AcDb2dVertex
 10
-11.31014
 20
-21.931782
 30
0.0
 70
    16
  0
VERTEX
  5
32D72
330
19D0B
100
AcDbEntity
  8
TITLE_BLOCK
  6
CONTINUOUS
 62
     7
100
AcDbVertex
100
AcDb2dVertex
 10
-10.72139
 20
-22.879379
 30
0.0
 70
    16
  0
VERTEX
  5
32D73
330
19D0B
100
AcDbEntity
  8
TITLE_BLOCK
  6
CONTINUOUS
 62
     7
100
AcDbVertex
100
AcDb2dVertex
 10
-10.333343
 20
-23.903793
 30
0.0
 70
    16
  0
VERTEX
  5
32D74
330
19D0B
100
AcDbEntity
  8
TITLE_BLOCK
  6
CONTINUOUS
 62
     7
100
AcDbVertex
100
AcDb2dVertex
 10
-10.34014
 20
-23.904575
 30
0.0
 70
    16
  0
VERTEX
  5
32D75
330
19D0B
100
AcDbEntity
  8
TITLE_BLOCK
  6
CONTINUOUS
 62
     7
100
AcDbVertex
100
AcDb2dVertex
 10
-10.353734
 20
-23.906176
 30
0.0
 70
    16
  0
VERTEX
  5
32D76
330
19D0B
100
AcDbEntity
  8
TITLE_BLOCK
  6
CONTINUOUS
 62
     7
100
AcDbVertex
100
AcDb2dVertex
 10
-10.360531
 20
-23.906957
 30
0.0
 70
    16
  0
VERTEX
  5
32D77
330
19D0B
100
AcDbEntity
  8
TITLE_BLOCK
  6
CONTINUOUS
 62
     7
100
AcDbVertex
100
AcDb2dVertex
 10
-10.833343
 20
-22.766567
 30
0.0
 70
    16
  0
VERTEX
  5
32D78
330
19D0B
100
AcDbEntity
  8
TITLE_BLOCK
  6
CONTINUOUS
 62
     7
100
AcDbVertex
100
AcDb2dVertex
 10
-11.528578
 20
-21.712172
 30
0.0
 70
    16
  0
VERTEX
  5
32D79
330
19D0B
100
AcDbEntity
  8
TITLE_BLOCK
  6
CONTINUOUS
 62
     7
100
AcDbVertex
100
AcDb2dVertex
 10
-12.436937
 20
-20.871372
 30
0.0
 70
    16
  0
VERTEX
  5
32D7A
330
19D0B
100
AcDbEntity
  8
TITLE_BLOCK
  6
CONTINUOUS
 62
     7
100
AcDbVertex
100
AcDb2dVertex
 10
-13.965375
 20
-19.410571
 30
0.0
 70
    16
  0
VERTEX
  5
32D7B
330
19D0B
100
AcDbEntity
  8
TITLE_BLOCK
  6
CONTINUOUS
 62
     7
100
AcDbVertex
100
AcDb2dVertex
 10
-16.058187
 20
-18.558969
 30
0.0
 70
    16
  0
VERTEX
  5
32D7C
330
19D0B
100
AcDbEntity
  8
TITLE_BLOCK
  6
CONTINUOUS
 62
     7
100
AcDbVertex
100
AcDb2dVertex
 10
-18.172953
 20
-18.538969
 30
0.0
 70
    16
  0
VERTEX
  5
32D7D
330
19D0B
100
AcDbEntity
  8
TITLE_BLOCK
  6
CONTINUOUS
 62
     7
100
AcDbVertex
100
AcDb2dVertex
 10
-19.29016
 20
-18.522172
 30
0.0
 70
    16
  0
VERTEX
  5
32D7E
330
19D0B
100
AcDbEntity
  8
TITLE_BLOCK
  6
CONTINUOUS
 62
     7
100
AcDbVertex
100
AcDb2dVertex
 10
-20.410961
 20
-18.726567
 30
0.0
 70
    16
  0
VERTEX
  5
32D7F
330
19D0B
100
AcDbEntity
  8
TITLE_BLOCK
  6
CONTINUOUS
 62
     7
100
AcDbVertex
100
AcDb2dVertex
 10
-21.448148
 20
-19.142973
 30
0.0
 70
    16
  0
VERTEX
  5
32D80
330
19D0B
100
AcDbEntity
  8
TITLE_BLOCK
  6
CONTINUOUS
 62
     7
100
AcDbVertex
100
AcDb2dVertex
 10
-23.310961
 20
-19.880981
 30
0.0
 70
    16
  0
VERTEX
  5
32D81
330
19D0B
100
AcDbEntity
  8
TITLE_BLOCK
  6
CONTINUOUS
 62
     7
100
AcDbVertex
100
AcDb2dVertex
 10
-24.895746
 20
-21.296977
 30
0.0
 70
    16
  0
VERTEX
  5
32D82
330
19D0B
100
AcDbEntity
  8
TITLE_BLOCK
  6
CONTINUOUS
 62
     7
100
AcDbVertex
100
AcDb2dVertex
 10
-25.831351
 20
-23.06977
 30
0.0
 70
    16
  0
VERTEX
  5
32D83
330
19D0B
100
AcDbEntity
  8
TITLE_BLOCK
  6
CONTINUOUS
 62
     7
100
AcDbVertex
100
AcDb2dVertex
 10
-25.978949
 20
-23.335356
 30
0.0
 70
    16
  0
VERTEX
  5
32D84
330
19D0B
100
AcDbEntity
  8
TITLE_BLOCK
  6
CONTINUOUS
 62
     7
100
AcDbVertex
100
AcDb2dVertex
 10
-26.091761
 20
-23.617778
 30
0.0
 70
    16
  0
VERTEX
  5
32D85
330
19D0B
100
AcDbEntity
  8
TITLE_BLOCK
  6
CONTINUOUS
 62
     7
100
AcDbVertex
100
AcDb2dVertex
 10
-26.218558
 20
-23.893364
 30
0.0
 70
    16
  0
VERTEX
  5
32D86
330
19D0B
100
AcDbEntity
  8
TITLE_BLOCK
  6
CONTINUOUS
 62
     7
100
AcDbVertex
100
AcDb2dVertex
 10
-26.236547
 20
-23.805356
 30
0.0
 70
    16
  0
VERTEX
  5
32D87
330
19D0B
100
AcDbEntity
  8
TITLE_BLOCK
  6
CONTINUOUS
 62
     7
100
AcDbVertex
100
AcDb2dVertex
 10
-26.183754
 20
-23.726567
 30
0.0
 70
    16
  0
VERTEX
  5
32D88
330
19D0B
100
AcDbEntity
  8
TITLE_BLOCK
  6
CONTINUOUS
 62
     7
100
AcDbVertex
100
AcDb2dVertex
 10
-26.154945
 20
-23.648168
 30
0.0
 70
    16
  0
VERTEX
  5
32D89
330
19D0B
100
AcDbEntity
  8
TITLE_BLOCK
  6
CONTINUOUS
 62
     7
100
AcDbVertex
100
AcDb2dVertex
 10
-25.461761
 20
-21.993364
 30
0.0
 70
    16
  0
VERTEX
  5
32D8A
330
19D0B
100
AcDbEntity
  8
TITLE_BLOCK
  6
CONTINUOUS
 62
     7
100
AcDbVertex
100
AcDb2dVertex
 10
-24.244945
 20
-20.561782
 30
0.0
 70
    16
  0
VERTEX
  5
32D8B
330
19D0B
100
AcDbEntity
  8
TITLE_BLOCK
  6
CONTINUOUS
 62
     7
100
AcDbVertex
100
AcDb2dVertex
 10
-22.714945
 20
-19.623364
 30
0.0
 70
    16
  0
VERTEX
  5
32D8C
330
19D0B
100
AcDbEntity
  8
TITLE_BLOCK
  6
CONTINUOUS
 62
     7
100
AcDbVertex
100
AcDb2dVertex
 10
-22.714945
 20
-19.623364
 30
0.0
 70
    16
  0
VERTEX
  5
32D8D
330
19D0B
100
AcDbEntity
  8
TITLE_BLOCK
  6
CONTINUOUS
 62
     7
100
AcDbVertex
100
AcDb2dVertex
 10
-22.714945
 20
-19.623364
 30
0.0
 70
    16
  0
VERTEX
  5
32D8E
330
19D0B
100
AcDbEntity
  8
TITLE_BLOCK
  6
CONTINUOUS
 62
     7
100
AcDbVertex
100
AcDb2dVertex
 10
-22.714945
 20
-19.623364
 30
0.0
 70
    16
  0
SEQEND
  5
32D8F
330
19D0B
100
AcDbEntity
  8
TITLE_BLOCK
  6
CONTINUOUS
 62
     7
  0
POLYLINE
  5
19D6B
330
32D05
100
AcDbEntity
  8
TITLE_BLOCK
  6
CONTINUOUS
 62
     7
100
AcDb2dPolyline
 66
     1
 10
0.0
 20
0.0
 30
0.0
 70
     5
 75
     5
  0
VERTEX
  5
32D90
330
19D6B
100
AcDbEntity
  8
TITLE_BLOCK
  6
CONTINUOUS
 62
     7
100
AcDbVertex
100
AcDb2dVertex
 10
-19.223617
 20
-19.314575
 30
0.0
 70
     8
  0
VERTEX
  5
32D91
330
19D6B
100
AcDbEntity
  8
TITLE_BLOCK
  6
CONTINUOUS
 62
     7
100
AcDbVertex
100
AcDb2dVertex
 10
-18.929533
 20
-19.115321
 30
0.0
 70
     8
  0
VERTEX
  5
32D92
330
19D6B
100
AcDbEntity
  8
TITLE_BLOCK
  6
CONTINUOUS
 62
     7
100
AcDbVertex
100
AcDb2dVertex
 10
-18.776685
 20
-19.023096
 30
0.0
 70
     8
  0
VERTEX
  5
32D93
330
19D6B
100
AcDbEntity
  8
TITLE_BLOCK
  6
CONTINUOUS
 62
     7
100
AcDbVertex
100
AcDb2dVertex
 10
-18.619662
 20
-18.938825
 30
0.0
 70
     8
  0
VERTEX
  5
32D94
330
19D6B
100
AcDbEntity
  8
TITLE_BLOCK
  6
CONTINUOUS
 62
     7
100
AcDbVertex
100
AcDb2dVertex
 10
-18.458233
 20
-18.864772
 30
0.0
 70
     8
  0
VERTEX
  5
32D95
330
19D6B
100
AcDbEntity
  8
TITLE_BLOCK
  6
CONTINUOUS
 62
     7
100
AcDbVertex
100
AcDb2dVertex
 10
-18.292168
 20
-18.803202
 30
0.0
 70
     8
  0
VERTEX
  5
32D96
330
19D6B
100
AcDbEntity
  8
TITLE_BLOCK
  6
CONTINUOUS
 62
     7
100
AcDbVertex
100
AcDb2dVertex
 10
-18.12124
 20
-18.756379
 30
0.0
 70
     8
  0
VERTEX
  5
32D97
330
19D6B
100
AcDbEntity
  8
TITLE_BLOCK
  6
CONTINUOUS
 62
     7
100
AcDbVertex
100
AcDb2dVertex
 10
-17.945218
 20
-18.726567
 30
0.0
 70
     8
  0
VERTEX
  5
32D98
330
19D6B
100
AcDbEntity
  8
TITLE_BLOCK
  6
CONTINUOUS
 62
     7
100
AcDbVertex
100
AcDb2dVertex
 10
-17.66328
 20
-18.703474
 30
0.0
 70
     8
  0
VERTEX
  5
32D99
330
19D6B
100
AcDbEntity
  8
TITLE_BLOCK
  6
CONTINUOUS
 62
     7
100
AcDbVertex
100
AcDb2dVertex
 10
-17.522173
 20
-18.70497
 30
0.0
 70
     8
  0
VERTEX
  5
32D9A
330
19D6B
100
AcDbEntity
  8
TITLE_BLOCK
  6
CONTINUOUS
 62
     7
100
AcDbVertex
100
AcDb2dVertex
 10
-17.382836
 20
-18.726567
 30
0.0
 70
     8
  0
VERTEX
  5
32D9B
330
19D6B
100
AcDbEntity
  8
TITLE_BLOCK
  6
CONTINUOUS
 62
     7
100
AcDbVertex
100
AcDb2dVertex
 10
-17.327466
 20
-18.753977
 30
0.0
 70
     8
  0
VERTEX
  5
32D9C
330
19D6B
100
AcDbEntity
  8
TITLE_BLOCK
  6
CONTINUOUS
 62
     7
100
AcDbVertex
100
AcDb2dVertex
 10
-17.279115
 20
-18.791033
 30
0.0
 70
     8
  0
VERTEX
  5
32D9D
330
19D6B
100
AcDbEntity
  8
TITLE_BLOCK
  6
CONTINUOUS
 62
     7
100
AcDbVertex
100
AcDb2dVertex
 10
-17.238461
 20
-18.836131
 30
0.0
 70
     8
  0
VERTEX
  5
32D9E
330
19D6B
100
AcDbEntity
  8
TITLE_BLOCK
  6
CONTINUOUS
 62
     7
100
AcDbVertex
100
AcDb2dVertex
 10
-17.206185
 20
-18.88767
 30
0.0
 70
     8
  0
VERTEX
  5
32D9F
330
19D6B
100
AcDbEntity
  8
TITLE_BLOCK
  6
CONTINUOUS
 62
     7
100
AcDbVertex
100
AcDb2dVertex
 10
-17.182965
 20
-18.944047
 30
0.0
 70
     8
  0
VERTEX
  5
32DA0
330
19D6B
100
AcDbEntity
  8
TITLE_BLOCK
  6
CONTINUOUS
 62
     7
100
AcDbVertex
100
AcDb2dVertex
 10
-17.169481
 20
-19.003659
 30
0.0
 70
     8
  0
VERTEX
  5
32DA1
330
19D6B
100
AcDbEntity
  8
TITLE_BLOCK
  6
CONTINUOUS
 62
     7
100
AcDbVertex
100
AcDb2dVertex
 10
-17.166412
 20
-19.064903
 30
0.0
 70
     8
  0
VERTEX
  5
32DA2
330
19D6B
100
AcDbEntity
  8
TITLE_BLOCK
  6
CONTINUOUS
 62
     7
100
AcDbVertex
100
AcDb2dVertex
 10
-17.174437
 20
-19.126176
 30
0.0
 70
     8
  0
VERTEX
  5
32DA3
330
19D6B
100
AcDbEntity
  8
TITLE_BLOCK
  6
CONTINUOUS
 62
     7
100
AcDbVertex
100
AcDb2dVertex
 10
-17.206035
 20
-19.231586
 30
0.0
 70
     8
  0
VERTEX
  5
32DA4
330
19D6B
100
AcDbEntity
  8
TITLE_BLOCK
  6
CONTINUOUS
 62
     7
100
AcDbVertex
100
AcDb2dVertex
 10
-17.25237
 20
-19.329566
 30
0.0
 70
     8
  0
VERTEX
  5
32DA5
330
19D6B
100
AcDbEntity
  8
TITLE_BLOCK
  6
CONTINUOUS
 62
     7
100
AcDbVertex
100
AcDb2dVertex
 10
-17.311375
 20
-19.420339
 30
0.0
 70
     8
  0
VERTEX
  5
32DA6
330
19D6B
100
AcDbEntity
  8
TITLE_BLOCK
  6
CONTINUOUS
 62
     7
100
AcDbVertex
100
AcDb2dVertex
 10
-17.38098
 20
-19.504123
 30
0.0
 70
     8
  0
VERTEX
  5
32DA7
330
19D6B
100
AcDbEntity
  8
TITLE_BLOCK
  6
CONTINUOUS
 62
     7
100
AcDbVertex
100
AcDb2dVertex
 10
-17.459118
 20
-19.581139
 30
0.0
 70
     8
  0
VERTEX
  5
32DA8
330
19D6B
100
AcDbEntity
  8
TITLE_BLOCK
  6
CONTINUOUS
 62
     7
100
AcDbVertex
100
AcDb2dVertex
 10
-17.543721
 20
-19.651606
 30
0.0
 70
     8
  0
VERTEX
  5
32DA9
330
19D6B
100
AcDbEntity
  8
TITLE_BLOCK
  6
CONTINUOUS
 62
     7
100
AcDbVertex
100
AcDb2dVertex
 10
-17.724047
 20
-19.773774
 30
0.0
 70
     8
  0
VERTEX
  5
32DAA
330
19D6B
100
AcDbEntity
  8
TITLE_BLOCK
  6
CONTINUOUS
 62
     7
100
AcDbVertex
100
AcDb2dVertex
 10
-17.910427
 20
-19.878335
 30
0.0
 70
     8
  0
VERTEX
  5
32DAB
330
19D6B
100
AcDbEntity
  8
TITLE_BLOCK
  6
CONTINUOUS
 62
     7
100
AcDbVertex
100
AcDb2dVertex
 10
-18.102341
 20
-19.970876
 30
0.0
 70
     8
  0
VERTEX
  5
32DAC
330
19D6B
100
AcDbEntity
  8
TITLE_BLOCK
  6
CONTINUOUS
 62
     7
100
AcDbVertex
100
AcDb2dVertex
 10
-18.29884
 20
-20.053141
 30
0.0
 70
     8
  0
VERTEX
  5
32DAD
330
19D6B
100
AcDbEntity
  8
TITLE_BLOCK
  6
CONTINUOUS
 62
     7
100
AcDbVertex
100
AcDb2dVertex
 10
-18.498971
 20
-20.126874
 30
0.0
 70
     8
  0
VERTEX
  5
32DAE
330
19D6B
100
AcDbEntity
  8
TITLE_BLOCK
  6
CONTINUOUS
 62
     7
100
AcDbVertex
100
AcDb2dVertex
 10
-18.906326
 20
-20.255722
 30
0.0
 70
     8
  0
VERTEX
  5
32DAF
330
19D6B
100
AcDbEntity
  8
TITLE_BLOCK
  6
CONTINUOUS
 62
     7
100
AcDbVertex
100
AcDb2dVertex
 10
-19.3168
 20
-20.371372
 30
0.0
 70
     8
  0
VERTEX
  5
32DB0
330
19D6B
100
AcDbEntity
  8
TITLE_BLOCK
  6
CONTINUOUS
 62
     7
100
AcDbVertex
100
AcDb2dVertex
 10
-19.408935
 20
-20.540126
 30
0.0
 70
     8
  0
VERTEX
  5
32DB1
330
19D6B
100
AcDbEntity
  8
TITLE_BLOCK
  6
CONTINUOUS
 62
     7
100
AcDbVertex
100
AcDb2dVertex
 10
-19.490414
 20
-20.714575
 30
0.0
 70
     8
  0
VERTEX
  5
32DB2
330
19D6B
100
AcDbEntity
  8
TITLE_BLOCK
  6
CONTINUOUS
 62
     7
100
AcDbVertex
100
AcDb2dVertex
 10
-19.557786
 20
-20.894722
 30
0.0
 70
     8
  0
VERTEX
  5
32DB3
330
19D6B
100
AcDbEntity
  8
TITLE_BLOCK
  6
CONTINUOUS
 62
     7
100
AcDbVertex
100
AcDb2dVertex
 10
-19.607601
 20
-21.080571
 30
0.0
 70
     8
  0
VERTEX
  5
32DB4
330
19D6B
100
AcDbEntity
  8
TITLE_BLOCK
  6
CONTINUOUS
 62
     7
100
AcDbVertex
100
AcDb2dVertex
 10
-19.608533
 20
-21.15793
 30
0.0
 70
     8
  0
VERTEX
  5
32DB5
330
19D6B
100
AcDbEntity
  8
TITLE_BLOCK
  6
CONTINUOUS
 62
     7
100
AcDbVertex
100
AcDb2dVertex
 10
-19.595103
 20
-21.237506
 30
0.0
 70
     8
  0
VERTEX
  5
32DB6
330
19D6B
100
AcDbEntity
  8
TITLE_BLOCK
  6
CONTINUOUS
 62
     7
100
AcDbVertex
100
AcDb2dVertex
 10
-19.568172
 20
-21.315101
 30
0.0
 70
     8
  0
VERTEX
  5
32DB7
330
19D6B
100
AcDbEntity
  8
TITLE_BLOCK
  6
CONTINUOUS
 62
     7
100
AcDbVertex
100
AcDb2dVertex
 10
-19.528605
 20
-21.386523
 30
0.0
 70
     8
  0
VERTEX
  5
32DB8
330
19D6B
100
AcDbEntity
  8
TITLE_BLOCK
  6
CONTINUOUS
 62
     7
100
AcDbVertex
100
AcDb2dVertex
 10
-19.477262
 20
-21.447575
 30
0.0
 70
     8
  0
VERTEX
  5
32DB9
330
19D6B
100
AcDbEntity
  8
TITLE_BLOCK
  6
CONTINUOUS
 62
     7
100
AcDbVertex
100
AcDb2dVertex
 10
-19.415008
 20
-21.494063
 30
0.0
 70
     8
  0
VERTEX
  5
32DBA
330
19D6B
100
AcDbEntity
  8
TITLE_BLOCK
  6
CONTINUOUS
 62
     7
100
AcDbVertex
100
AcDb2dVertex
 10
-19.342705
 20
-21.521792
 30
0.0
 70
     8
  0
VERTEX
  5
32DBB
330
19D6B
100
AcDbEntity
  8
TITLE_BLOCK
  6
CONTINUOUS
 62
     7
100
AcDbVertex
100
AcDb2dVertex
 10
-19.261214
 20
-21.526567
 30
0.0
 70
     8
  0
VERTEX
  5
32DBC
330
19D6B
100
AcDbEntity
  8
TITLE_BLOCK
  6
CONTINUOUS
 62
     7
100
AcDbVertex
100
AcDb2dVertex
 10
-19.140443
 20
-21.52087
 30
0.0
 70
     8
  0
VERTEX
  5
32DBD
330
19D6B
100
AcDbEntity
  8
TITLE_BLOCK
  6
CONTINUOUS
 62
     7
100
AcDbVertex
100
AcDb2dVertex
 10
-19.022154
 20
-21.502041
 30
0.0
 70
     8
  0
VERTEX
  5
32DBE
330
19D6B
100
AcDbEntity
  8
TITLE_BLOCK
  6
CONTINUOUS
 62
     7
100
AcDbVertex
100
AcDb2dVertex
 10
-18.906547
 20
-21.471539
 30
0.0
 70
     8
  0
VERTEX
  5
32DBF
330
19D6B
100
AcDbEntity
  8
TITLE_BLOCK
  6
CONTINUOUS
 62
     7
100
AcDbVertex
100
AcDb2dVertex
 10
-18.793817
 20
-21.430822
 30
0.0
 70
     8
  0
VERTEX
  5
32DC0
330
19D6B
100
AcDbEntity
  8
TITLE_BLOCK
  6
CONTINUOUS
 62
     7
100
AcDbVertex
100
AcDb2dVertex
 10
-18.684161
 20
-21.381348
 30
0.0
 70
     8
  0
VERTEX
  5
32DC1
330
19D6B
100
AcDbEntity
  8
TITLE_BLOCK
  6
CONTINUOUS
 62
     7
100
AcDbVertex
100
AcDb2dVertex
 10
-18.577777
 20
-21.324575
 30
0.0
 70
     8
  0
VERTEX
  5
32DC2
330
19D6B
100
AcDbEntity
  8
TITLE_BLOCK
  6
CONTINUOUS
 62
     7
100
AcDbVertex
100
AcDb2dVertex
 10
-18.375609
 20
-21.194965
 30
0.0
 70
     8
  0
VERTEX
  5
32DC3
330
19D6B
100
AcDbEntity
  8
TITLE_BLOCK
  6
CONTINUOUS
 62
     7
100
AcDbVertex
100
AcDb2dVertex
 10
-18.143262
 20
-21.021166
 30
0.0
 70
     8
  0
VERTEX
  5
32DC4
330
19D6B
100
AcDbEntity
  8
TITLE_BLOCK
  6
CONTINUOUS
 62
     7
100
AcDbVertex
100
AcDb2dVertex
 10
-17.921909
 20
-20.834892
 30
0.0
 70
     8
  0
VERTEX
  5
32DC5
330
19D6B
100
AcDbEntity
  8
TITLE_BLOCK
  6
CONTINUOUS
 62
     7
100
AcDbVertex
100
AcDb2dVertex
 10
-17.709611
 20
-20.638446
 30
0.0
 70
     8
  0
VERTEX
  5
32DC6
330
19D6B
100
AcDbEntity
  8
TITLE_BLOCK
  6
CONTINUOUS
 62
     7
100
AcDbVertex
100
AcDb2dVertex
 10
-17.504427
 20
-20.434128
 30
0.0
 70
     8
  0
VERTEX
  5
32DC7
330
19D6B
100
AcDbEntity
  8
TITLE_BLOCK
  6
CONTINUOUS
 62
     7
100
AcDbVertex
100
AcDb2dVertex
 10
-17.107644
 20
-20.011087
 30
0.0
 70
     8
  0
VERTEX
  5
32DC8
330
19D6B
100
AcDbEntity
  8
TITLE_BLOCK
  6
CONTINUOUS
 62
     7
100
AcDbVertex
100
AcDb2dVertex
 10
-16.716039
 20
-19.584184
 30
0.0
 70
     8
  0
VERTEX
  5
32DC9
330
19D6B
100
AcDbEntity
  8
TITLE_BLOCK
  6
CONTINUOUS
 62
     7
100
AcDbVertex
100
AcDb2dVertex
 10
-16.558968
 20
-19.408181
 30
0.0
 70
     8
  0
VERTEX
  5
32DCA
330
19D6B
100
AcDbEntity
  8
TITLE_BLOCK
  6
CONTINUOUS
 62
     7
100
AcDbVertex
100
AcDb2dVertex
 10
-16.473417
 20
-19.328238
 30
0.0
 70
     8
  0
VERTEX
  5
32DCB
330
19D6B
100
AcDbEntity
  8
TITLE_BLOCK
  6
CONTINUOUS
 62
     7
100
AcDbVertex
100
AcDb2dVertex
 10
-16.42549
 20
-19.29504
 30
0.0
 70
     8
  0
VERTEX
  5
32DCC
330
19D6B
100
AcDbEntity
  8
TITLE_BLOCK
  6
CONTINUOUS
 62
     7
100
AcDbVertex
100
AcDb2dVertex
 10
-16.372836
 20
-19.268168
 30
0.0
 70
     8
  0
VERTEX
  5
32DCD
330
19D6B
100
AcDbEntity
  8
TITLE_BLOCK
  6
CONTINUOUS
 62
     7
100
AcDbVertex
100
AcDb2dVertex
 10
-16.457629
 20
-19.406504
 30
0.0
 70
     8
  0
VERTEX
  5
32DCE
330
19D6B
100
AcDbEntity
  8
TITLE_BLOCK
  6
CONTINUOUS
 62
     7
100
AcDbVertex
100
AcDb2dVertex
 10
-16.550362
 20
-19.539132
 30
0.0
 70
     8
  0
VERTEX
  5
32DCF
330
19D6B
100
AcDbEntity
  8
TITLE_BLOCK
  6
CONTINUOUS
 62
     7
100
AcDbVertex
100
AcDb2dVertex
 10
-16.752684
 20
-19.792172
 30
0.0
 70
     8
  0
VERTEX
  5
32DD0
330
19D6B
100
AcDbEntity
  8
TITLE_BLOCK
  6
CONTINUOUS
 62
     7
100
AcDbVertex
100
AcDb2dVertex
 10
-17.176039
 20
-20.283774
 30
0.0
 70
     8
  0
VERTEX
  5
32DD1
330
19D6B
100
AcDbEntity
  8
TITLE_BLOCK
  6
CONTINUOUS
 62
     7
100
AcDbVertex
100
AcDb2dVertex
 10
-17.501809
 20
-20.65216
 30
0.0
 70
     8
  0
VERTEX
  5
32DD2
330
19D6B
100
AcDbEntity
  8
TITLE_BLOCK
  6
CONTINUOUS
 62
     7
100
AcDbVertex
100
AcDb2dVertex
 10
-17.839469
 20
-21.011774
 30
0.0
 70
     8
  0
VERTEX
  5
32DD3
330
19D6B
100
AcDbEntity
  8
TITLE_BLOCK
  6
CONTINUOUS
 62
     7
100
AcDbVertex
100
AcDb2dVertex
 10
-18.018065
 20
-21.180533
 30
0.0
 70
     8
  0
VERTEX
  5
32DD4
330
19D6B
100
AcDbEntity
  8
TITLE_BLOCK
  6
CONTINUOUS
 62
     7
100
AcDbVertex
100
AcDb2dVertex
 10
-18.206004
 20
-21.337788
 30
0.0
 70
     8
  0
VERTEX
  5
32DD5
330
19D6B
100
AcDbEntity
  8
TITLE_BLOCK
  6
CONTINUOUS
 62
     7
100
AcDbVertex
100
AcDb2dVertex
 10
-18.405409
 20
-21.480437
 30
0.0
 70
     8
  0
VERTEX
  5
32DD6
330
19D6B
100
AcDbEntity
  8
TITLE_BLOCK
  6
CONTINUOUS
 62
     7
100
AcDbVertex
100
AcDb2dVertex
 10
-18.618402
 20
-21.605375
 30
0.0
 70
     8
  0
VERTEX
  5
32DD7
330
19D6B
100
AcDbEntity
  8
TITLE_BLOCK
  6
CONTINUOUS
 62
     7
100
AcDbVertex
100
AcDb2dVertex
 10
-18.752947
 20
-21.667499
 30
0.0
 70
     8
  0
VERTEX
  5
32DD8
330
19D6B
100
AcDbEntity
  8
TITLE_BLOCK
  6
CONTINUOUS
 62
     7
100
AcDbVertex
100
AcDb2dVertex
 10
-18.893915
 20
-21.713042
 30
0.0
 70
     8
  0
VERTEX
  5
32DD9
330
19D6B
100
AcDbEntity
  8
TITLE_BLOCK
  6
CONTINUOUS
 62
     7
100
AcDbVertex
100
AcDb2dVertex
 10
-19.039252
 20
-21.741813
 30
0.0
 70
     8
  0
VERTEX
  5
32DDA
330
19D6B
100
AcDbEntity
  8
TITLE_BLOCK
  6
CONTINUOUS
 62
     7
100
AcDbVertex
100
AcDb2dVertex
 10
-19.186905
 20
-21.75362
 30
0.0
 70
     8
  0
VERTEX
  5
32DDB
330
19D6B
100
AcDbEntity
  8
TITLE_BLOCK
  6
CONTINUOUS
 62
     7
100
AcDbVertex
100
AcDb2dVertex
 10
-19.334821
 20
-21.748271
 30
0.0
 70
     8
  0
VERTEX
  5
32DDC
330
19D6B
100
AcDbEntity
  8
TITLE_BLOCK
  6
CONTINUOUS
 62
     7
100
AcDbVertex
100
AcDb2dVertex
 10
-19.480947
 20
-21.725574
 30
0.0
 70
     8
  0
VERTEX
  5
32DDD
330
19D6B
100
AcDbEntity
  8
TITLE_BLOCK
  6
CONTINUOUS
 62
     7
100
AcDbVertex
100
AcDb2dVertex
 10
-19.623228
 20
-21.685337
 30
0.0
 70
     8
  0
VERTEX
  5
32DDE
330
19D6B
100
AcDbEntity
  8
TITLE_BLOCK
  6
CONTINUOUS
 62
     7
100
AcDbVertex
100
AcDb2dVertex
 10
-19.759613
 20
-21.627368
 30
0.0
 70
     8
  0
VERTEX
  5
32DDF
330
19D6B
100
AcDbEntity
  8
TITLE_BLOCK
  6
CONTINUOUS
 62
     7
100
AcDbVertex
100
AcDb2dVertex
 10
-19.824761
 20
-21.589695
 30
0.0
 70
     8
  0
VERTEX
  5
32DE0
330
19D6B
100
AcDbEntity
  8
TITLE_BLOCK
  6
CONTINUOUS
 62
     7
100
AcDbVertex
100
AcDb2dVertex
 10
-19.884709
 20
-21.545897
 30
0.0
 70
     8
  0
VERTEX
  5
32DE1
330
19D6B
100
AcDbEntity
  8
TITLE_BLOCK
  6
CONTINUOUS
 62
     7
100
AcDbVertex
100
AcDb2dVertex
 10
-19.988727
 20
-21.44217
 30
0.0
 70
     8
  0
VERTEX
  5
32DE2
330
19D6B
100
AcDbEntity
  8
TITLE_BLOCK
  6
CONTINUOUS
 62
     7
100
AcDbVertex
100
AcDb2dVertex
 10
-20.071098
 20
-21.320666
 30
0.0
 70
     8
  0
VERTEX
  5
32DE3
330
19D6B
100
AcDbEntity
  8
TITLE_BLOCK
  6
CONTINUOUS
 62
     7
100
AcDbVertex
100
AcDb2dVertex
 10
-20.131256
 20
-21.185869
 30
0.0
 70
     8
  0
VERTEX
  5
32DE4
330
19D6B
100
AcDbEntity
  8
TITLE_BLOCK
  6
CONTINUOUS
 62
     7
100
AcDbVertex
100
AcDb2dVertex
 10
-20.168633
 20
-21.042258
 30
0.0
 70
     8
  0
VERTEX
  5
32DE5
330
19D6B
100
AcDbEntity
  8
TITLE_BLOCK
  6
CONTINUOUS
 62
     7
100
AcDbVertex
100
AcDb2dVertex
 10
-20.182661
 20
-20.894316
 30
0.0
 70
     8
  0
VERTEX
  5
32DE6
330
19D6B
100
AcDbEntity
  8
TITLE_BLOCK
  6
CONTINUOUS
 62
     7
100
AcDbVertex
100
AcDb2dVertex
 10
-20.172773
 20
-20.746524
 30
0.0
 70
     8
  0
VERTEX
  5
32DE7
330
19D6B
100
AcDbEntity
  8
TITLE_BLOCK
  6
CONTINUOUS
 62
     7
100
AcDbVertex
100
AcDb2dVertex
 10
-20.138402
 20
-20.603364
 30
0.0
 70
     8
  0
VERTEX
  5
32DE8
330
19D6B
100
AcDbEntity
  8
TITLE_BLOCK
  6
CONTINUOUS
 62
     7
100
AcDbVertex
100
AcDb2dVertex
 10
-20.078049
 20
-20.410307
 30
0.0
 70
     8
  0
VERTEX
  5
32DE9
330
19D6B
100
AcDbEntity
  8
TITLE_BLOCK
  6
CONTINUOUS
 62
     7
100
AcDbVertex
100
AcDb2dVertex
 10
-19.999578
 20
-20.224918
 30
0.0
 70
     8
  0
VERTEX
  5
32DEA
330
19D6B
100
AcDbEntity
  8
TITLE_BLOCK
  6
CONTINUOUS
 62
     7
100
AcDbVertex
100
AcDb2dVertex
 10
-19.904334
 20
-20.04793
 30
0.0
 70
     8
  0
VERTEX
  5
32DEB
330
19D6B
100
AcDbEntity
  8
TITLE_BLOCK
  6
CONTINUOUS
 62
     7
100
AcDbVertex
100
AcDb2dVertex
 10
-19.793663
 20
-19.880073
 30
0.0
 70
     8
  0
VERTEX
  5
32DEC
330
19D6B
100
AcDbEntity
  8
TITLE_BLOCK
  6
CONTINUOUS
 62
     7
100
AcDbVertex
100
AcDb2dVertex
 10
-19.66891
 20
-19.722077
 30
0.0
 70
     8
  0
VERTEX
  5
32DED
330
19D6B
100
AcDbEntity
  8
TITLE_BLOCK
  6
CONTINUOUS
 62
     7
100
AcDbVertex
100
AcDb2dVertex
 10
-19.531421
 20
-19.574675
 30
0.0
 70
     8
  0
VERTEX
  5
32DEE
330
19D6B
100
AcDbEntity
  8
TITLE_BLOCK
  6
CONTINUOUS
 62
     7
100
AcDbVertex
100
AcDb2dVertex
 10
-19.382541
 20
-19.438597
 30
0.0
 70
     8
  0
VERTEX
  5
32DEF
330
19D6B
100
AcDbEntity
  8
TITLE_BLOCK
  6
CONTINUOUS
 62
     7
100
AcDbVertex
100
AcDb2dVertex
 10
-19.223617
 20
-19.314575
 30
0.0
 70
     8
  0
VERTEX
  5
32DF0
330
19D6B
100
AcDbEntity
  8
TITLE_BLOCK
  6
CONTINUOUS
 62
     7
100
AcDbVertex
100
AcDb2dVertex
 10
-19.223617
 20
-19.314575
 30
0.0
 70
     8
  0
VERTEX
  5
32DF1
330
19D6B
100
AcDbEntity
  8
TITLE_BLOCK
  6
CONTINUOUS
 62
     7
100
AcDbVertex
100
AcDb2dVertex
 10
-19.223617
 20
-19.314575
 30
0.0
 70
    16
  0
VERTEX
  5
32DF2
330
19D6B
100
AcDbEntity
  8
TITLE_BLOCK
  6
CONTINUOUS
 62
     7
100
AcDbVertex
100
AcDb2dVertex
 10
-18.841214
 20
-19.041782
 30
0.0
 70
    16
  0
VERTEX
  5
32DF3
330
19D6B
100
AcDbEntity
  8
TITLE_BLOCK
  6
CONTINUOUS
 62
     7
100
AcDbVertex
100
AcDb2dVertex
 10
-18.421605
 20
-18.781372
 30
0.0
 70
    16
  0
VERTEX
  5
32DF4
330
19D6B
100
AcDbEntity
  8
TITLE_BLOCK
  6
CONTINUOUS
 62
     7
100
AcDbVertex
100
AcDb2dVertex
 10
-17.945218
 20
-18.726567
 30
0.0
 70
    16
  0
VERTEX
  5
32DF5
330
19D6B
100
AcDbEntity
  8
TITLE_BLOCK
  6
CONTINUOUS
 62
     7
100
AcDbVertex
100
AcDb2dVertex
 10
-17.759242
 20
-18.710981
 30
0.0
 70
    16
  0
VERTEX
  5
32DF6
330
19D6B
100
AcDbEntity
  8
TITLE_BLOCK
  6
CONTINUOUS
 62
     7
100
AcDbVertex
100
AcDb2dVertex
 10
-17.56682
 20
-18.680571
 30
0.0
 70
    16
  0
VERTEX
  5
32DF7
330
19D6B
100
AcDbEntity
  8
TITLE_BLOCK
  6
CONTINUOUS
 62
     7
100
AcDbVertex
100
AcDb2dVertex
 10
-17.382836
 20
-18.726567
 30
0.0
 70
    16
  0
VERTEX
  5
32DF8
330
19D6B
100
AcDbEntity
  8
TITLE_BLOCK
  6
CONTINUOUS
 62
     7
100
AcDbVertex
100
AcDb2dVertex
 10
-17.226429
 20
-18.785375
 30
0.0
 70
    16
  0
VERTEX
  5
32DF9
330
19D6B
100
AcDbEntity
  8
TITLE_BLOCK
  6
CONTINUOUS
 62
     7
100
AcDbVertex
100
AcDb2dVertex
 10
-17.13764
 20
-18.964165
 30
0.0
 70
    16
  0
VERTEX
  5
32DFA
330
19D6B
100
AcDbEntity
  8
TITLE_BLOCK
  6
CONTINUOUS
 62
     7
100
AcDbVertex
100
AcDb2dVertex
 10
-17.174437
 20
-19.126176
 30
0.0
 70
    16
  0
VERTEX
  5
32DFB
330
19D6B
100
AcDbEntity
  8
TITLE_BLOCK
  6
CONTINUOUS
 62
     7
100
AcDbVertex
100
AcDb2dVertex
 10
-17.237211
 20
-19.417368
 30
0.0
 70
    16
  0
VERTEX
  5
32DFC
330
19D6B
100
AcDbEntity
  8
TITLE_BLOCK
  6
CONTINUOUS
 62
     7
100
AcDbVertex
100
AcDb2dVertex
 10
-17.479242
 20
-19.626977
 30
0.0
 70
    16
  0
VERTEX
  5
32DFD
330
19D6B
100
AcDbEntity
  8
TITLE_BLOCK
  6
CONTINUOUS
 62
     7
100
AcDbVertex
100
AcDb2dVertex
 10
-17.724047
 20
-19.773774
 30
0.0
 70
    16
  0
VERTEX
  5
32DFE
330
19D6B
100
AcDbEntity
  8
TITLE_BLOCK
  6
CONTINUOUS
 62
     7
100
AcDbVertex
100
AcDb2dVertex
 10
-18.212836
 20
-20.07018
 30
0.0
 70
    16
  0
VERTEX
  5
32DFF
330
19D6B
100
AcDbEntity
  8
TITLE_BLOCK
  6
CONTINUOUS
 62
     7
100
AcDbVertex
100
AcDb2dVertex
 10
-18.770804
 20
-20.21977
 30
0.0
 70
    16
  0
VERTEX
  5
32E00
330
19D6B
100
AcDbEntity
  8
TITLE_BLOCK
  6
CONTINUOUS
 62
     7
100
AcDbVertex
100
AcDb2dVertex
 10
-19.3168
 20
-20.371372
 30
0.0
 70
    16
  0
VERTEX
  5
32E01
330
19D6B
100
AcDbEntity
  8
TITLE_BLOCK
  6
CONTINUOUS
 62
     7
100
AcDbVertex
100
AcDb2dVertex
 10
-19.445218
 20
-20.592582
 30
0.0
 70
    16
  0
VERTEX
  5
32E02
330
19D6B
100
AcDbEntity
  8
TITLE_BLOCK
  6
CONTINUOUS
 62
     7
100
AcDbVertex
100
AcDb2dVertex
 10
-19.554418
 20
-20.828969
 30
0.0
 70
    16
  0
VERTEX
  5
32E03
330
19D6B
100
AcDbEntity
  8
TITLE_BLOCK
  6
CONTINUOUS
 62
     7
100
AcDbVertex
100
AcDb2dVertex
 10
-19.607601
 20
-21.080571
 30
0.0
 70
    16
  0
VERTEX
  5
32E04
330
19D6B
100
AcDbEntity
  8
TITLE_BLOCK
  6
CONTINUOUS
 62
     7
100
AcDbVertex
100
AcDb2dVertex
 10
-19.630004
 20
-21.28018
 30
0.0
 70
    16
  0
VERTEX
  5
32E05
330
19D6B
100
AcDbEntity
  8
TITLE_BLOCK
  6
CONTINUOUS
 62
     7
100
AcDbVertex
100
AcDb2dVertex
 10
-19.490004
 20
-21.548168
 30
0.0
 70
    16
  0
VERTEX
  5
32E06
330
19D6B
100
AcDbEntity
  8
TITLE_BLOCK
  6
CONTINUOUS
 62
     7
100
AcDbVertex
100
AcDb2dVertex
 10
-19.261214
 20
-21.526567
 30
0.0
 70
    16
  0
VERTEX
  5
32E07
330
19D6B
100
AcDbEntity
  8
TITLE_BLOCK
  6
CONTINUOUS
 62
     7
100
AcDbVertex
100
AcDb2dVertex
 10
-18.936019
 20
-21.53018
 30
0.0
 70
    16
  0
VERTEX
  5
32E08
330
19D6B
100
AcDbEntity
  8
TITLE_BLOCK
  6
CONTINUOUS
 62
     7
100
AcDbVertex
100
AcDb2dVertex
 10
-18.635218
 20
-21.378168
 30
0.0
 70
    16
  0
VERTEX
  5
32E09
330
19D6B
100
AcDbEntity
  8
TITLE_BLOCK
  6
CONTINUOUS
 62
     7
100
AcDbVertex
100
AcDb2dVertex
 10
-18.375609
 20
-21.194965
 30
0.0
 70
    16
  0
VERTEX
  5
32E0A
330
19D6B
100
AcDbEntity
  8
TITLE_BLOCK
  6
CONTINUOUS
 62
     7
100
AcDbVertex
100
AcDb2dVertex
 10
-17.739632
 20
-20.75018
 30
0.0
 70
    16
  0
VERTEX
  5
32E0B
330
19D6B
100
AcDbEntity
  8
TITLE_BLOCK
  6
CONTINUOUS
 62
     7
100
AcDbVertex
100
AcDb2dVertex
 10
-17.241625
 20
-20.147778
 30
0.0
 70
    16
  0
VERTEX
  5
32E0C
330
19D6B
100
AcDbEntity
  8
TITLE_BLOCK
  6
CONTINUOUS
 62
     7
100
AcDbVertex
100
AcDb2dVertex
 10
-16.716039
 20
-19.584184
 30
0.0
 70
    16
  0
VERTEX
  5
32E0D
330
19D6B
100
AcDbEntity
  8
TITLE_BLOCK
  6
CONTINUOUS
 62
     7
100
AcDbVertex
100
AcDb2dVertex
 10
-16.607211
 20
-19.474184
 30
0.0
 70
    16
  0
VERTEX
  5
32E0E
330
19D6B
100
AcDbEntity
  8
TITLE_BLOCK
  6
CONTINUOUS
 62
     7
100
AcDbVertex
100
AcDb2dVertex
 10
-16.520414
 20
-19.33018
 30
0.0
 70
    16
  0
VERTEX
  5
32E0F
330
19D6B
100
AcDbEntity
  8
TITLE_BLOCK
  6
CONTINUOUS
 62
     7
100
AcDbVertex
100
AcDb2dVertex
 10
-16.372836
 20
-19.268168
 30
0.0
 70
    16
  0
VERTEX
  5
32E10
330
19D6B
100
AcDbEntity
  8
TITLE_BLOCK
  6
CONTINUOUS
 62
     7
100
AcDbVertex
100
AcDb2dVertex
 10
-16.58682
 20
-19.645766
 30
0.0
 70
    16
  0
VERTEX
  5
32E11
330
19D6B
100
AcDbEntity
  8
TITLE_BLOCK
  6
CONTINUOUS
 62
     7
100
AcDbVertex
100
AcDb2dVertex
 10
-16.904047
 20
-19.949379
 30
0.0
 70
    16
  0
VERTEX
  5
32E12
330
19D6B
100
AcDbEntity
  8
TITLE_BLOCK
  6
CONTINUOUS
 62
     7
100
AcDbVertex
100
AcDb2dVertex
 10
-17.176039
 20
-20.283774
 30
0.0
 70
    16
  0
VERTEX
  5
32E13
330
19D6B
100
AcDbEntity
  8
TITLE_BLOCK
  6
CONTINUOUS
 62
     7
100
AcDbVertex
100
AcDb2dVertex
 10
-17.610023
 20
-20.76977
 30
0.0
 70
    16
  0
VERTEX
  5
32E14
330
19D6B
100
AcDbEntity
  8
TITLE_BLOCK
  6
CONTINUOUS
 62
     7
100
AcDbVertex
100
AcDb2dVertex
 10
-18.030414
 20
-21.298579
 30
0.0
 70
    16
  0
VERTEX
  5
32E15
330
19D6B
100
AcDbEntity
  8
TITLE_BLOCK
  6
CONTINUOUS
 62
     7
100
AcDbVertex
100
AcDb2dVertex
 10
-18.618402
 20
-21.605375
 30
0.0
 70
    16
  0
VERTEX
  5
32E16
330
19D6B
100
AcDbEntity
  8
TITLE_BLOCK
  6
CONTINUOUS
 62
     7
100
AcDbVertex
100
AcDb2dVertex
 10
-18.9668
 20
-21.792973
 30
0.0
 70
    16
  0
VERTEX
  5
32E17
330
19D6B
100
AcDbEntity
  8
TITLE_BLOCK
  6
CONTINUOUS
 62
     7
100
AcDbVertex
100
AcDb2dVertex
 10
-19.405609
 20
-21.805766
 30
0.0
 70
    16
  0
VERTEX
  5
32E18
330
19D6B
100
AcDbEntity
  8
TITLE_BLOCK
  6
CONTINUOUS
 62
     7
100
AcDbVertex
100
AcDb2dVertex
 10
-19.759613
 20
-21.627368
 30
0.0
 70
    16
  0
VERTEX
  5
32E19
330
19D6B
100
AcDbEntity
  8
TITLE_BLOCK
  6
CONTINUOUS
 62
     7
100
AcDbVertex
100
AcDb2dVertex
 10
-20.120804
 20
-21.443774
 30
0.0
 70
    16
  0
VERTEX
  5
32E1A
330
19D6B
100
AcDbEntity
  8
TITLE_BLOCK
  6
CONTINUOUS
 62
     7
100
AcDbVertex
100
AcDb2dVertex
 10
-20.263207
 20
-20.974965
 30
0.0
 70
    16
  0
VERTEX
  5
32E1B
330
19D6B
100
AcDbEntity
  8
TITLE_BLOCK
  6
CONTINUOUS
 62
     7
100
AcDbVertex
100
AcDb2dVertex
 10
-20.138402
 20
-20.603364
 30
0.0
 70
    16
  0
VERTEX
  5
32E1C
330
19D6B
100
AcDbEntity
  8
TITLE_BLOCK
  6
CONTINUOUS
 62
     7
100
AcDbVertex
100
AcDb2dVertex
 10
-20.002816
 20
-20.078969
 30
0.0
 70
    16
  0
VERTEX
  5
32E1D
330
19D6B
100
AcDbEntity
  8
TITLE_BLOCK
  6
CONTINUOUS
 62
     7
100
AcDbVertex
100
AcDb2dVertex
 10
-19.659613
 20
-19.628579
 30
0.0
 70
    16
  0
VERTEX
  5
32E1E
330
19D6B
100
AcDbEntity
  8
TITLE_BLOCK
  6
CONTINUOUS
 62
     7
100
AcDbVertex
100
AcDb2dVertex
 10
-19.223617
 20
-19.314575
 30
0.0
 70
    16
  0
VERTEX
  5
32E1F
330
19D6B
100
AcDbEntity
  8
TITLE_BLOCK
  6
CONTINUOUS
 62
     7
100
AcDbVertex
100
AcDb2dVertex
 10
-19.223617
 20
-19.314575
 30
0.0
 70
    16
  0
VERTEX
  5
32E20
330
19D6B
100
AcDbEntity
  8
TITLE_BLOCK
  6
CONTINUOUS
 62
     7
100
AcDbVertex
100
AcDb2dVertex
 10
-19.223617
 20
-19.314575
 30
0.0
 70
    16
  0
VERTEX
  5
32E21
330
19D6B
100
AcDbEntity
  8
TITLE_BLOCK
  6
CONTINUOUS
 62
     7
100
AcDbVertex
100
AcDb2dVertex
 10
-19.223617
 20
-19.314575
 30
0.0
 70
    16
  0
SEQEND
  5
32E22
330
19D6B
100
AcDbEntity
  8
TITLE_BLOCK
  6
CONTINUOUS
 62
     7
  0
POLYLINE
  5
19DFE
330
32D05
100
AcDbEntity
  8
TITLE_BLOCK
  6
CONTINUOUS
 62
     7
100
AcDb2dPolyline
 66
     1
 10
0.0
 20
0.0
 30
0.0
 70
     5
 75
     5
  0
VERTEX
  5
32E23
330
19DFE
100
AcDbEntity
  8
TITLE_BLOCK
  6
CONTINUOUS
 62
     7
100
AcDbVertex
100
AcDb2dVertex
 10
-18.366214
 20
-19.303774
 30
0.0
 70
     8
  0
VERTEX
  5
32E24
330
19DFE
100
AcDbEntity
  8
TITLE_BLOCK
  6
CONTINUOUS
 62
     7
100
AcDbVertex
100
AcDb2dVertex
 10
-18.179884
 20
-19.152389
 30
0.0
 70
     8
  0
VERTEX
  5
32E25
330
19DFE
100
AcDbEntity
  8
TITLE_BLOCK
  6
CONTINUOUS
 62
     7
100
AcDbVertex
100
AcDb2dVertex
 10
-18.08244
 20
-19.081139
 30
0.0
 70
     8
  0
VERTEX
  5
32E26
330
19DFE
100
AcDbEntity
  8
TITLE_BLOCK
  6
CONTINUOUS
 62
     7
100
AcDbVertex
100
AcDb2dVertex
 10
-17.981749
 20
-19.014919
 30
0.0
 70
     8
  0
VERTEX
  5
32E27
330
19DFE
100
AcDbEntity
  8
TITLE_BLOCK
  6
CONTINUOUS
 62
     7
100
AcDbVertex
100
AcDb2dVertex
 10
-17.877516
 20
-18.955281
 30
0.0
 70
     8
  0
VERTEX
  5
32E28
330
19DFE
100
AcDbEntity
  8
TITLE_BLOCK
  6
CONTINUOUS
 62
     7
100
AcDbVertex
100
AcDb2dVertex
 10
-17.769445
 20
-18.903775
 30
0.0
 70
     8
  0
VERTEX
  5
32E29
330
19DFE
100
AcDbEntity
  8
TITLE_BLOCK
  6
CONTINUOUS
 62
     7
100
AcDbVertex
100
AcDb2dVertex
 10
-17.657242
 20
-18.861955
 30
0.0
 70
     8
  0
VERTEX
  5
32E2A
330
19DFE
100
AcDbEntity
  8
TITLE_BLOCK
  6
CONTINUOUS
 62
     7
100
AcDbVertex
100
AcDb2dVertex
 10
-17.540609
 20
-18.831372
 30
0.0
 70
     8
  0
VERTEX
  5
32E2B
330
19DFE
100
AcDbEntity
  8
TITLE_BLOCK
  6
CONTINUOUS
 62
     7
100
AcDbVertex
100
AcDb2dVertex
 10
-17.518005
 20
-18.867081
 30
0.0
 70
     8
  0
VERTEX
  5
32E2C
330
19DFE
100
AcDbEntity
  8
TITLE_BLOCK
  6
CONTINUOUS
 62
     7
100
AcDbVertex
100
AcDb2dVertex
 10
-17.501508
 20
-18.903448
 30
0.0
 70
     8
  0
VERTEX
  5
32E2D
330
19DFE
100
AcDbEntity
  8
TITLE_BLOCK
  6
CONTINUOUS
 62
     7
100
AcDbVertex
100
AcDb2dVertex
 10
-17.490697
 20
-18.940306
 30
0.0
 70
     8
  0
VERTEX
  5
32E2E
330
19DFE
100
AcDbEntity
  8
TITLE_BLOCK
  6
CONTINUOUS
 62
     7
100
AcDbVertex
100
AcDb2dVertex
 10
-17.485156
 20
-18.977488
 30
0.0
 70
     8
  0
VERTEX
  5
32E2F
330
19DFE
100
AcDbEntity
  8
TITLE_BLOCK
  6
CONTINUOUS
 62
     7
100
AcDbVertex
100
AcDb2dVertex
 10
-17.484466
 20
-19.014828
 30
0.0
 70
     8
  0
VERTEX
  5
32E30
330
19DFE
100
AcDbEntity
  8
TITLE_BLOCK
  6
CONTINUOUS
 62
     7
100
AcDbVertex
100
AcDb2dVertex
 10
-17.488208
 20
-19.052157
 30
0.0
 70
     8
  0
VERTEX
  5
32E31
330
19DFE
100
AcDbEntity
  8
TITLE_BLOCK
  6
CONTINUOUS
 62
     7
100
AcDbVertex
100
AcDb2dVertex
 10
-17.495965
 20
-19.089309
 30
0.0
 70
     8
  0
VERTEX
  5
32E32
330
19DFE
100
AcDbEntity
  8
TITLE_BLOCK
  6
CONTINUOUS
 62
     7
100
AcDbVertex
100
AcDb2dVertex
 10
-17.507318
 20
-19.126118
 30
0.0
 70
     8
  0
VERTEX
  5
32E33
330
19DFE
100
AcDbEntity
  8
TITLE_BLOCK
  6
CONTINUOUS
 62
     7
100
AcDbVertex
100
AcDb2dVertex
 10
-17.539139
 20
-19.198035
 30
0.0
 70
     8
  0
VERTEX
  5
32E34
330
19DFE
100
AcDbEntity
  8
TITLE_BLOCK
  6
CONTINUOUS
 62
     7
100
AcDbVertex
100
AcDb2dVertex
 10
-17.580325
 20
-19.266573
 30
0.0
 70
     8
  0
VERTEX
  5
32E35
330
19DFE
100
AcDbEntity
  8
TITLE_BLOCK
  6
CONTINUOUS
 62
     7
100
AcDbVertex
100
AcDb2dVertex
 10
-17.627529
 20
-19.330396
 30
0.0
 70
     8
  0
VERTEX
  5
32E36
330
19DFE
100
AcDbEntity
  8
TITLE_BLOCK
  6
CONTINUOUS
 62
     7
100
AcDbVertex
100
AcDb2dVertex
 10
-17.677406
 20
-19.388168
 30
0.0
 70
     8
  0
VERTEX
  5
32E37
330
19DFE
100
AcDbEntity
  8
TITLE_BLOCK
  6
CONTINUOUS
 62
     7
100
AcDbVertex
100
AcDb2dVertex
 10
-17.749249
 20
-19.45931
 30
0.0
 70
     8
  0
VERTEX
  5
32E38
330
19DFE
100
AcDbEntity
  8
TITLE_BLOCK
  6
CONTINUOUS
 62
     7
100
AcDbVertex
100
AcDb2dVertex
 10
-17.823961
 20
-19.526855
 30
0.0
 70
     8
  0
VERTEX
  5
32E39
330
19DFE
100
AcDbEntity
  8
TITLE_BLOCK
  6
CONTINUOUS
 62
     7
100
AcDbVertex
100
AcDb2dVertex
 10
-17.901364
 20
-19.59091
 30
0.0
 70
     8
  0
VERTEX
  5
32E3A
330
19DFE
100
AcDbEntity
  8
TITLE_BLOCK
  6
CONTINUOUS
 62
     7
100
AcDbVertex
100
AcDb2dVertex
 10
-17.98128
 20
-19.651582
 30
0.0
 70
     8
  0
VERTEX
  5
32E3B
330
19DFE
100
AcDbEntity
  8
TITLE_BLOCK
  6
CONTINUOUS
 62
     7
100
AcDbVertex
100
AcDb2dVertex
 10
-18.063531
 20
-19.708978
 30
0.0
 70
     8
  0
VERTEX
  5
32E3C
330
19DFE
100
AcDbEntity
  8
TITLE_BLOCK
  6
CONTINUOUS
 62
     7
100
AcDbVertex
100
AcDb2dVertex
 10
-18.147938
 20
-19.763204
 30
0.0
 70
     8
  0
VERTEX
  5
32E3D
330
19DFE
100
AcDbEntity
  8
TITLE_BLOCK
  6
CONTINUOUS
 62
     7
100
AcDbVertex
100
AcDb2dVertex
 10
-18.234323
 20
-19.814367
 30
0.0
 70
     8
  0
VERTEX
  5
32E3E
330
19DFE
100
AcDbEntity
  8
TITLE_BLOCK
  6
CONTINUOUS
 62
     7
100
AcDbVertex
100
AcDb2dVertex
 10
-18.322508
 20
-19.862573
 30
0.0
 70
     8
  0
VERTEX
  5
32E3F
330
19DFE
100
AcDbEntity
  8
TITLE_BLOCK
  6
CONTINUOUS
 62
     7
100
AcDbVertex
100
AcDb2dVertex
 10
-18.503566
 20
-19.950541
 30
0.0
 70
     8
  0
VERTEX
  5
32E40
330
19DFE
100
AcDbEntity
  8
TITLE_BLOCK
  6
CONTINUOUS
 62
     7
100
AcDbVertex
100
AcDb2dVertex
 10
-18.689686
 20
-20.027963
 30
0.0
 70
     8
  0
VERTEX
  5
32E41
330
19DFE
100
AcDbEntity
  8
TITLE_BLOCK
  6
CONTINUOUS
 62
     7
100
AcDbVertex
100
AcDb2dVertex
 10
-18.879442
 20
-20.09569
 30
0.0
 70
     8
  0
VERTEX
  5
32E42
330
19DFE
100
AcDbEntity
  8
TITLE_BLOCK
  6
CONTINUOUS
 62
     7
100
AcDbVertex
100
AcDb2dVertex
 10
-19.07141
 20
-20.154575
 30
0.0
 70
     8
  0
VERTEX
  5
32E43
330
19DFE
100
AcDbEntity
  8
TITLE_BLOCK
  6
CONTINUOUS
 62
     7
100
AcDbVertex
100
AcDb2dVertex
 10
-18.741158
 20
-19.70997
 30
0.0
 70
     8
  0
VERTEX
  5
32E44
330
19DFE
100
AcDbEntity
  8
TITLE_BLOCK
  6
CONTINUOUS
 62
     7
100
AcDbVertex
100
AcDb2dVertex
 10
-18.654624
 20
-19.602007
 30
0.0
 70
     8
  0
VERTEX
  5
32E45
330
19DFE
100
AcDbEntity
  8
TITLE_BLOCK
  6
CONTINUOUS
 62
     7
100
AcDbVertex
100
AcDb2dVertex
 10
-18.564091
 20
-19.49757
 30
0.0
 70
     8
  0
VERTEX
  5
32E46
330
19DFE
100
AcDbEntity
  8
TITLE_BLOCK
  6
CONTINUOUS
 62
     7
100
AcDbVertex
100
AcDb2dVertex
 10
-18.468356
 20
-19.397784
 30
0.0
 70
     8
  0
VERTEX
  5
32E47
330
19DFE
100
AcDbEntity
  8
TITLE_BLOCK
  6
CONTINUOUS
 62
     7
100
AcDbVertex
100
AcDb2dVertex
 10
-18.366214
 20
-19.303774
 30
0.0
 70
     8
  0
VERTEX
  5
32E48
330
19DFE
100
AcDbEntity
  8
TITLE_BLOCK
  6
CONTINUOUS
 62
     7
100
AcDbVertex
100
AcDb2dVertex
 10
-18.366214
 20
-19.303774
 30
0.0
 70
     8
  0
VERTEX
  5
32E49
330
19DFE
100
AcDbEntity
  8
TITLE_BLOCK
  6
CONTINUOUS
 62
     7
100
AcDbVertex
100
AcDb2dVertex
 10
-18.366214
 20
-19.303774
 30
0.0
 70
    16
  0
VERTEX
  5
32E4A
330
19DFE
100
AcDbEntity
  8
TITLE_BLOCK
  6
CONTINUOUS
 62
     7
100
AcDbVertex
100
AcDb2dVertex
 10
-18.124593
 20
-19.098168
 30
0.0
 70
    16
  0
VERTEX
  5
32E4B
330
19DFE
100
AcDbEntity
  8
TITLE_BLOCK
  6
CONTINUOUS
 62
     7
100
AcDbVertex
100
AcDb2dVertex
 10
-17.857797
 20
-18.896567
 30
0.0
 70
    16
  0
VERTEX
  5
32E4C
330
19DFE
100
AcDbEntity
  8
TITLE_BLOCK
  6
CONTINUOUS
 62
     7
100
AcDbVertex
100
AcDb2dVertex
 10
-17.540609
 20
-18.831372
 30
0.0
 70
    16
  0
VERTEX
  5
32E4D
330
19DFE
100
AcDbEntity
  8
TITLE_BLOCK
  6
CONTINUOUS
 62
     7
100
AcDbVertex
100
AcDb2dVertex
 10
-17.403031
 20
-19.01977
 30
0.0
 70
    16
  0
VERTEX
  5
32E4E
330
19DFE
100
AcDbEntity
  8
TITLE_BLOCK
  6
CONTINUOUS
 62
     7
100
AcDbVertex
100
AcDb2dVertex
 10
-17.543812
 20
-19.243364
 30
0.0
 70
    16
  0
VERTEX
  5
32E4F
330
19DFE
100
AcDbEntity
  8
TITLE_BLOCK
  6
CONTINUOUS
 62
     7
100
AcDbVertex
100
AcDb2dVertex
 10
-17.677406
 20
-19.388168
 30
0.0
 70
    16
  0
VERTEX
  5
32E50
330
19DFE
100
AcDbEntity
  8
TITLE_BLOCK
  6
CONTINUOUS
 62
     7
100
AcDbVertex
100
AcDb2dVertex
 10
-18.052601
 20
-19.777368
 30
0.0
 70
    16
  0
VERTEX
  5
32E51
330
19DFE
100
AcDbEntity
  8
TITLE_BLOCK
  6
CONTINUOUS
 62
     7
100
AcDbVertex
100
AcDb2dVertex
 10
-18.557816
 20
-20.008579
 30
0.0
 70
    16
  0
VERTEX
  5
32E52
330
19DFE
100
AcDbEntity
  8
TITLE_BLOCK
  6
CONTINUOUS
 62
     7
100
AcDbVertex
100
AcDb2dVertex
 10
-19.07141
 20
-20.154575
 30
0.0
 70
    16
  0
VERTEX
  5
32E53
330
19DFE
100
AcDbEntity
  8
TITLE_BLOCK
  6
CONTINUOUS
 62
     7
100
AcDbVertex
100
AcDb2dVertex
 10
-18.849007
 20
-19.861372
 30
0.0
 70
    16
  0
VERTEX
  5
32E54
330
19DFE
100
AcDbEntity
  8
TITLE_BLOCK
  6
CONTINUOUS
 62
     7
100
AcDbVertex
100
AcDb2dVertex
 10
-18.648207
 20
-19.545766
 30
0.0
 70
    16
  0
VERTEX
  5
32E55
330
19DFE
100
AcDbEntity
  8
TITLE_BLOCK
  6
CONTINUOUS
 62
     7
100
AcDbVertex
100
AcDb2dVertex
 10
-18.366214
 20
-19.303774
 30
0.0
 70
    16
  0
VERTEX
  5
32E56
330
19DFE
100
AcDbEntity
  8
TITLE_BLOCK
  6
CONTINUOUS
 62
     7
100
AcDbVertex
100
AcDb2dVertex
 10
-18.366214
 20
-19.303774
 30
0.0
 70
    16
  0
VERTEX
  5
32E57
330
19DFE
100
AcDbEntity
  8
TITLE_BLOCK
  6
CONTINUOUS
 62
     7
100
AcDbVertex
100
AcDb2dVertex
 10
-18.366214
 20
-19.303774
 30
0.0
 70
    16
  0
VERTEX
  5
32E58
330
19DFE
100
AcDbEntity
  8
TITLE_BLOCK
  6
CONTINUOUS
 62
     7
100
AcDbVertex
100
AcDb2dVertex
 10
-18.366214
 20
-19.303774
 30
0.0
 70
    16
  0
SEQEND
  5
32E59
330
19DFE
100
AcDbEntity
  8
TITLE_BLOCK
  6
CONTINUOUS
 62
     7
  0
POLYLINE
  5
19E35
330
32D05
100
AcDbEntity
  8
TITLE_BLOCK
  6
CONTINUOUS
 62
     7
100
AcDb2dPolyline
 66
     1
 10
0.0
 20
0.0
 30
0.0
 70
     5
 75
     5
  0
VERTEX
  5
32E5A
330
19E35
100
AcDbEntity
  8
TITLE_BLOCK
  6
CONTINUOUS
 62
     7
100
AcDbVertex
100
AcDb2dVertex
 10
-23.601371
 20
-22.763793
 30
0.0
 70
     8
  0
VERTEX
  5
32E5B
330
19E35
100
AcDbEntity
  8
TITLE_BLOCK
  6
CONTINUOUS
 62
     7
100
AcDbVertex
100
AcDb2dVertex
 10
-23.04057
 20
-22.765356
 30
0.0
 70
     8
  0
VERTEX
  5
32E5C
330
19E35
100
AcDbEntity
  8
TITLE_BLOCK
  6
CONTINUOUS
 62
     7
100
AcDbVertex
100
AcDb2dVertex
 10
-23.041761
 20
-22.927387
 30
0.0
 70
     8
  0
VERTEX
  5
32E5D
330
19E35
100
AcDbEntity
  8
TITLE_BLOCK
  6
CONTINUOUS
 62
     7
100
AcDbVertex
100
AcDb2dVertex
 10
-23.221761
 20
-22.924575
 30
0.0
 70
     8
  0
VERTEX
  5
32E5E
330
19E35
100
AcDbEntity
  8
TITLE_BLOCK
  6
CONTINUOUS
 62
     7
100
AcDbVertex
100
AcDb2dVertex
 10
-23.401761
 20
-22.92059
 30
0.0
 70
     8
  0
VERTEX
  5
32E5F
330
19E35
100
AcDbEntity
  8
TITLE_BLOCK
  6
CONTINUOUS
 62
     7
100
AcDbVertex
100
AcDb2dVertex
 10
-23.404554
 20
-23.004184
 30
0.0
 70
     8
  0
VERTEX
  5
32E60
330
19E35
100
AcDbEntity
  8
TITLE_BLOCK
  6
CONTINUOUS
 62
     7
100
AcDbVertex
100
AcDb2dVertex
 10
-23.242364
 20
-23.004824
 30
0.0
 70
     8
  0
VERTEX
  5
32E61
330
19E35
100
AcDbEntity
  8
TITLE_BLOCK
  6
CONTINUOUS
 62
     7
100
AcDbVertex
100
AcDb2dVertex
 10
-23.08016
 20
-23.006957
 30
0.0
 70
     8
  0
VERTEX
  5
32E62
330
19E35
100
AcDbEntity
  8
TITLE_BLOCK
  6
CONTINUOUS
 62
     7
100
AcDbVertex
100
AcDb2dVertex
 10
-23.084554
 20
-23.164965
 30
0.0
 70
     8
  0
VERTEX
  5
32E63
330
19E35
100
AcDbEntity
  8
TITLE_BLOCK
  6
CONTINUOUS
 62
     7
100
AcDbVertex
100
AcDb2dVertex
 10
-23.244767
 20
-23.166123
 30
0.0
 70
     8
  0
VERTEX
  5
32E64
330
19E35
100
AcDbEntity
  8
TITLE_BLOCK
  6
CONTINUOUS
 62
     7
100
AcDbVertex
100
AcDb2dVertex
 10
-23.404964
 20
-23.165786
 30
0.0
 70
     8
  0
VERTEX
  5
32E65
330
19E35
100
AcDbEntity
  8
TITLE_BLOCK
  6
CONTINUOUS
 62
     7
100
AcDbVertex
100
AcDb2dVertex
 10
-23.401761
 20
-23.287387
 30
0.0
 70
     8
  0
VERTEX
  5
32E66
330
19E35
100
AcDbEntity
  8
TITLE_BLOCK
  6
CONTINUOUS
 62
     7
100
AcDbVertex
100
AcDb2dVertex
 10
-23.310624
 20
-23.285281
 30
0.0
 70
     8
  0
VERTEX
  5
32E67
330
19E35
100
AcDbEntity
  8
TITLE_BLOCK
  6
CONTINUOUS
 62
     7
100
AcDbVertex
100
AcDb2dVertex
 10
-23.219564
 20
-23.284721
 30
0.0
 70
     8
  0
VERTEX
  5
32E68
330
19E35
100
AcDbEntity
  8
TITLE_BLOCK
  6
CONTINUOUS
 62
     7
100
AcDbVertex
100
AcDb2dVertex
 10
-23.037367
 20
-23.286567
 30
0.0
 70
     8
  0
VERTEX
  5
32E69
330
19E35
100
AcDbEntity
  8
TITLE_BLOCK
  6
CONTINUOUS
 62
     7
100
AcDbVertex
100
AcDb2dVertex
 10
-23.048558
 20
-23.447387
 30
0.0
 70
     8
  0
VERTEX
  5
32E6A
330
19E35
100
AcDbEntity
  8
TITLE_BLOCK
  6
CONTINUOUS
 62
     7
100
AcDbVertex
100
AcDb2dVertex
 10
-23.186201
 20
-23.445124
 30
0.0
 70
     8
  0
VERTEX
  5
32E6B
330
19E35
100
AcDbEntity
  8
TITLE_BLOCK
  6
CONTINUOUS
 62
     7
100
AcDbVertex
100
AcDb2dVertex
 10
-23.323763
 20
-23.44437
 30
0.0
 70
     8
  0
VERTEX
  5
32E6C
330
19E35
100
AcDbEntity
  8
TITLE_BLOCK
  6
CONTINUOUS
 62
     7
100
AcDbVertex
100
AcDb2dVertex
 10
-23.461326
 20
-23.445124
 30
0.0
 70
     8
  0
VERTEX
  5
32E6D
330
19E35
100
AcDbEntity
  8
TITLE_BLOCK
  6
CONTINUOUS
 62
     7
100
AcDbVertex
100
AcDb2dVertex
 10
-23.598968
 20
-23.447387
 30
0.0
 70
     8
  0
VERTEX
  5
32E6E
330
19E35
100
AcDbEntity
  8
TITLE_BLOCK
  6
CONTINUOUS
 62
     7
100
AcDbVertex
100
AcDb2dVertex
 10
-23.602939
 20
-23.276388
 30
0.0
 70
     8
  0
VERTEX
  5
32E6F
330
19E35
100
AcDbEntity
  8
TITLE_BLOCK
  6
CONTINUOUS
 62
     7
100
AcDbVertex
100
AcDb2dVertex
 10
-23.603766
 20
-23.105429
 30
0.0
 70
     8
  0
VERTEX
  5
32E70
330
19E35
100
AcDbEntity
  8
TITLE_BLOCK
  6
CONTINUOUS
 62
     7
100
AcDbVertex
100
AcDb2dVertex
 10
-23.601371
 20
-22.763793
 30
0.0
 70
     8
  0
VERTEX
  5
32E71
330
19E35
100
AcDbEntity
  8
TITLE_BLOCK
  6
CONTINUOUS
 62
     7
100
AcDbVertex
100
AcDb2dVertex
 10
-23.601371
 20
-22.763793
 30
0.0
 70
     8
  0
VERTEX
  5
32E72
330
19E35
100
AcDbEntity
  8
TITLE_BLOCK
  6
CONTINUOUS
 62
     7
100
AcDbVertex
100
AcDb2dVertex
 10
-23.601371
 20
-22.763793
 30
0.0
 70
    16
  0
VERTEX
  5
32E73
330
19E35
100
AcDbEntity
  8
TITLE_BLOCK
  6
CONTINUOUS
 62
     7
100
AcDbVertex
100
AcDb2dVertex
 10
-23.414164
 20
-22.762973
 30
0.0
 70
    16
  0
VERTEX
  5
32E74
330
19E35
100
AcDbEntity
  8
TITLE_BLOCK
  6
CONTINUOUS
 62
     7
100
AcDbVertex
100
AcDb2dVertex
 10
-23.227367
 20
-22.765786
 30
0.0
 70
    16
  0
VERTEX
  5
32E75
330
19E35
100
AcDbEntity
  8
TITLE_BLOCK
  6
CONTINUOUS
 62
     7
100
AcDbVertex
100
AcDb2dVertex
 10
-23.04057
 20
-22.765356
 30
0.0
 70
    16
  0
VERTEX
  5
32E76
330
19E35
100
AcDbEntity
  8
TITLE_BLOCK
  6
CONTINUOUS
 62
     7
100
AcDbVertex
100
AcDb2dVertex
 10
-23.041371
 20
-22.819379
 30
0.0
 70
    16
  0
VERTEX
  5
32E77
330
19E35
100
AcDbEntity
  8
TITLE_BLOCK
  6
CONTINUOUS
 62
     7
100
AcDbVertex
100
AcDb2dVertex
 10
-23.041761
 20
-22.873364
 30
0.0
 70
    16
  0
VERTEX
  5
32E78
330
19E35
100
AcDbEntity
  8
TITLE_BLOCK
  6
CONTINUOUS
 62
     7
100
AcDbVertex
100
AcDb2dVertex
 10
-23.041761
 20
-22.927387
 30
0.0
 70
    16
  0
VERTEX
  5
32E79
330
19E35
100
AcDbEntity
  8
TITLE_BLOCK
  6
CONTINUOUS
 62
     7
100
AcDbVertex
100
AcDb2dVertex
 10
-23.161761
 20
-22.924965
 30
0.0
 70
    16
  0
VERTEX
  5
32E7A
330
19E35
100
AcDbEntity
  8
TITLE_BLOCK
  6
CONTINUOUS
 62
     7
100
AcDbVertex
100
AcDb2dVertex
 10
-23.281761
 20
-22.924575
 30
0.0
 70
    16
  0
VERTEX
  5
32E7B
330
19E35
100
AcDbEntity
  8
TITLE_BLOCK
  6
CONTINUOUS
 62
     7
100
AcDbVertex
100
AcDb2dVertex
 10
-23.401761
 20
-22.92059
 30
0.0
 70
    16
  0
VERTEX
  5
32E7C
330
19E35
100
AcDbEntity
  8
TITLE_BLOCK
  6
CONTINUOUS
 62
     7
100
AcDbVertex
100
AcDb2dVertex
 10
-23.402562
 20
-22.941372
 30
0.0
 70
    16
  0
VERTEX
  5
32E7D
330
19E35
100
AcDbEntity
  8
TITLE_BLOCK
  6
CONTINUOUS
 62
     7
100
AcDbVertex
100
AcDb2dVertex
 10
-23.403754
 20
-22.983364
 30
0.0
 70
    16
  0
VERTEX
  5
32E7E
330
19E35
100
AcDbEntity
  8
TITLE_BLOCK
  6
CONTINUOUS
 62
     7
100
AcDbVertex
100
AcDb2dVertex
 10
-23.404554
 20
-23.004184
 30
0.0
 70
    16
  0
VERTEX
  5
32E7F
330
19E35
100
AcDbEntity
  8
TITLE_BLOCK
  6
CONTINUOUS
 62
     7
100
AcDbVertex
100
AcDb2dVertex
 10
-23.296566
 20
-23.004575
 30
0.0
 70
    16
  0
VERTEX
  5
32E80
330
19E35
100
AcDbEntity
  8
TITLE_BLOCK
  6
CONTINUOUS
 62
     7
100
AcDbVertex
100
AcDb2dVertex
 10
-23.188168
 20
-23.004575
 30
0.0
 70
    16
  0
VERTEX
  5
32E81
330
19E35
100
AcDbEntity
  8
TITLE_BLOCK
  6
CONTINUOUS
 62
     7
100
AcDbVertex
100
AcDb2dVertex
 10
-23.08016
 20
-23.006957
 30
0.0
 70
    16
  0
VERTEX
  5
32E82
330
19E35
100
AcDbEntity
  8
TITLE_BLOCK
  6
CONTINUOUS
 62
     7
100
AcDbVertex
100
AcDb2dVertex
 10
-23.082172
 20
-23.059379
 30
0.0
 70
    16
  0
VERTEX
  5
32E83
330
19E35
100
AcDbEntity
  8
TITLE_BLOCK
  6
CONTINUOUS
 62
     7
100
AcDbVertex
100
AcDb2dVertex
 10
-23.083363
 20
-23.112192
 30
0.0
 70
    16
  0
VERTEX
  5
32E84
330
19E35
100
AcDbEntity
  8
TITLE_BLOCK
  6
CONTINUOUS
 62
     7
100
AcDbVertex
100
AcDb2dVertex
 10
-23.084554
 20
-23.164965
 30
0.0
 70
    16
  0
VERTEX
  5
32E85
330
19E35
100
AcDbEntity
  8
TITLE_BLOCK
  6
CONTINUOUS
 62
     7
100
AcDbVertex
100
AcDb2dVertex
 10
-23.191371
 20
-23.166176
 30
0.0
 70
    16
  0
VERTEX
  5
32E86
330
19E35
100
AcDbEntity
  8
TITLE_BLOCK
  6
CONTINUOUS
 62
     7
100
AcDbVertex
100
AcDb2dVertex
 10
-23.298168
 20
-23.166567
 30
0.0
 70
    16
  0
VERTEX
  5
32E87
330
19E35
100
AcDbEntity
  8
TITLE_BLOCK
  6
CONTINUOUS
 62
     7
100
AcDbVertex
100
AcDb2dVertex
 10
-23.404964
 20
-23.165786
 30
0.0
 70
    16
  0
VERTEX
  5
32E88
330
19E35
100
AcDbEntity
  8
TITLE_BLOCK
  6
CONTINUOUS
 62
     7
100
AcDbVertex
100
AcDb2dVertex
 10
-23.404164
 20
-23.196176
 30
0.0
 70
    16
  0
VERTEX
  5
32E89
330
19E35
100
AcDbEntity
  8
TITLE_BLOCK
  6
CONTINUOUS
 62
     7
100
AcDbVertex
100
AcDb2dVertex
 10
-23.402562
 20
-23.256957
 30
0.0
 70
    16
  0
VERTEX
  5
32E8A
330
19E35
100
AcDbEntity
  8
TITLE_BLOCK
  6
CONTINUOUS
 62
     7
100
AcDbVertex
100
AcDb2dVertex
 10
-23.401761
 20
-23.287387
 30
0.0
 70
    16
  0
VERTEX
  5
32E8B
330
19E35
100
AcDbEntity
  8
TITLE_BLOCK
  6
CONTINUOUS
 62
     7
100
AcDbVertex
100
AcDb2dVertex
 10
-23.28016
 20
-23.283364
 30
0.0
 70
    16
  0
VERTEX
  5
32E8C
330
19E35
100
AcDbEntity
  8
TITLE_BLOCK
  6
CONTINUOUS
 62
     7
100
AcDbVertex
100
AcDb2dVertex
 10
-23.158968
 20
-23.284575
 30
0.0
 70
    16
  0
VERTEX
  5
32E8D
330
19E35
100
AcDbEntity
  8
TITLE_BLOCK
  6
CONTINUOUS
 62
     7
100
AcDbVertex
100
AcDb2dVertex
 10
-23.037367
 20
-23.286567
 30
0.0
 70
    16
  0
VERTEX
  5
32E8E
330
19E35
100
AcDbEntity
  8
TITLE_BLOCK
  6
CONTINUOUS
 62
     7
100
AcDbVertex
100
AcDb2dVertex
 10
-23.040961
 20
-23.340161
 30
0.0
 70
    16
  0
VERTEX
  5
32E8F
330
19E35
100
AcDbEntity
  8
TITLE_BLOCK
  6
CONTINUOUS
 62
     7
100
AcDbVertex
100
AcDb2dVertex
 10
-23.044964
 20
-23.393793
 30
0.0
 70
    16
  0
VERTEX
  5
32E90
330
19E35
100
AcDbEntity
  8
TITLE_BLOCK
  6
CONTINUOUS
 62
     7
100
AcDbVertex
100
AcDb2dVertex
 10
-23.048558
 20
-23.447387
 30
0.0
 70
    16
  0
VERTEX
  5
32E91
330
19E35
100
AcDbEntity
  8
TITLE_BLOCK
  6
CONTINUOUS
 62
     7
100
AcDbVertex
100
AcDb2dVertex
 10
-23.232172
 20
-23.443364
 30
0.0
 70
    16
  0
VERTEX
  5
32E92
330
19E35
100
AcDbEntity
  8
TITLE_BLOCK
  6
CONTINUOUS
 62
     7
100
AcDbVertex
100
AcDb2dVertex
 10
-23.415355
 20
-23.443364
 30
0.0
 70
    16
  0
VERTEX
  5
32E93
330
19E35
100
AcDbEntity
  8
TITLE_BLOCK
  6
CONTINUOUS
 62
     7
100
AcDbVertex
100
AcDb2dVertex
 10
-23.598968
 20
-23.447387
 30
0.0
 70
    16
  0
VERTEX
  5
32E94
330
19E35
100
AcDbEntity
  8
TITLE_BLOCK
  6
CONTINUOUS
 62
     7
100
AcDbVertex
100
AcDb2dVertex
 10
-23.606957
 20
-23.219379
 30
0.0
 70
    16
  0
VERTEX
  5
32E95
330
19E35
100
AcDbEntity
  8
TITLE_BLOCK
  6
CONTINUOUS
 62
     7
100
AcDbVertex
100
AcDb2dVertex
 10
-23.602972
 20
-22.991372
 30
0.0
 70
    16
  0
VERTEX
  5
32E96
330
19E35
100
AcDbEntity
  8
TITLE_BLOCK
  6
CONTINUOUS
 62
     7
100
AcDbVertex
100
AcDb2dVertex
 10
-23.601371
 20
-22.763793
 30
0.0
 70
    16
  0
VERTEX
  5
32E97
330
19E35
100
AcDbEntity
  8
TITLE_BLOCK
  6
CONTINUOUS
 62
     7
100
AcDbVertex
100
AcDb2dVertex
 10
-23.601371
 20
-22.763793
 30
0.0
 70
    16
  0
VERTEX
  5
32E98
330
19E35
100
AcDbEntity
  8
TITLE_BLOCK
  6
CONTINUOUS
 62
     7
100
AcDbVertex
100
AcDb2dVertex
 10
-23.601371
 20
-22.763793
 30
0.0
 70
    16
  0
VERTEX
  5
32E99
330
19E35
100
AcDbEntity
  8
TITLE_BLOCK
  6
CONTINUOUS
 62
     7
100
AcDbVertex
100
AcDb2dVertex
 10
-23.601371
 20
-22.763793
 30
0.0
 70
    16
  0
SEQEND
  5
32E9A
330
19E35
100
AcDbEntity
  8
TITLE_BLOCK
  6
CONTINUOUS
 62
     7
  0
POLYLINE
  5
19E76
330
32D05
100
AcDbEntity
  8
TITLE_BLOCK
  6
CONTINUOUS
 62
     7
100
AcDb2dPolyline
 66
     1
 10
0.0
 20
0.0
 30
0.0
 70
     5
 75
     5
  0
VERTEX
  5
32E9B
330
19E76
100
AcDbEntity
  8
TITLE_BLOCK
  6
CONTINUOUS
 62
     7
100
AcDbVertex
100
AcDb2dVertex
 10
-22.842562
 20
-22.843364
 30
0.0
 70
     8
  0
VERTEX
  5
32E9C
330
19E76
100
AcDbEntity
  8
TITLE_BLOCK
  6
CONTINUOUS
 62
     7
100
AcDbVertex
100
AcDb2dVertex
 10
-22.809248
 20
-22.820535
 30
0.0
 70
     8
  0
VERTEX
  5
32E9D
330
19E76
100
AcDbEntity
  8
TITLE_BLOCK
  6
CONTINUOUS
 62
     7
100
AcDbVertex
100
AcDb2dVertex
 10
-22.773393
 20
-22.801701
 30
0.0
 70
     8
  0
VERTEX
  5
32E9E
330
19E76
100
AcDbEntity
  8
TITLE_BLOCK
  6
CONTINUOUS
 62
     7
100
AcDbVertex
100
AcDb2dVertex
 10
-22.735502
 20
-22.786869
 30
0.0
 70
     8
  0
VERTEX
  5
32E9F
330
19E76
100
AcDbEntity
  8
TITLE_BLOCK
  6
CONTINUOUS
 62
     7
100
AcDbVertex
100
AcDb2dVertex
 10
-22.696081
 20
-22.776052
 30
0.0
 70
     8
  0
VERTEX
  5
32EA0
330
19E76
100
AcDbEntity
  8
TITLE_BLOCK
  6
CONTINUOUS
 62
     7
100
AcDbVertex
100
AcDb2dVertex
 10
-22.655636
 20
-22.769258
 30
0.0
 70
     8
  0
VERTEX
  5
32EA1
330
19E76
100
AcDbEntity
  8
TITLE_BLOCK
  6
CONTINUOUS
 62
     7
100
AcDbVertex
100
AcDb2dVertex
 10
-22.614672
 20
-22.766498
 30
0.0
 70
     8
  0
VERTEX
  5
32EA2
330
19E76
100
AcDbEntity
  8
TITLE_BLOCK
  6
CONTINUOUS
 62
     7
100
AcDbVertex
100
AcDb2dVertex
 10
-22.573695
 20
-22.767782
 30
0.0
 70
     8
  0
VERTEX
  5
32EA3
330
19E76
100
AcDbEntity
  8
TITLE_BLOCK
  6
CONTINUOUS
 62
     7
100
AcDbVertex
100
AcDb2dVertex
 10
-22.533212
 20
-22.77312
 30
0.0
 70
     8
  0
VERTEX
  5
32EA4
330
19E76
100
AcDbEntity
  8
TITLE_BLOCK
  6
CONTINUOUS
 62
     7
100
AcDbVertex
100
AcDb2dVertex
 10
-22.493726
 20
-22.782521
 30
0.0
 70
     8
  0
VERTEX
  5
32EA5
330
19E76
100
AcDbEntity
  8
TITLE_BLOCK
  6
CONTINUOUS
 62
     7
100
AcDbVertex
100
AcDb2dVertex
 10
-22.455745
 20
-22.795997
 30
0.0
 70
     8
  0
VERTEX
  5
32EA6
330
19E76
100
AcDbEntity
  8
TITLE_BLOCK
  6
CONTINUOUS
 62
     7
100
AcDbVertex
100
AcDb2dVertex
 10
-22.419773
 20
-22.813558
 30
0.0
 70
     8
  0
VERTEX
  5
32EA7
330
19E76
100
AcDbEntity
  8
TITLE_BLOCK
  6
CONTINUOUS
 62
     7
100
AcDbVertex
100
AcDb2dVertex
 10
-22.386316
 20
-22.835212
 30
0.0
 70
     8
  0
VERTEX
  5
32EA8
330
19E76
100
AcDbEntity
  8
TITLE_BLOCK
  6
CONTINUOUS
 62
     7
100
AcDbVertex
100
AcDb2dVertex
 10
-22.355881
 20
-22.860971
 30
0.0
 70
     8
  0
VERTEX
  5
32EA9
330
19E76
100
AcDbEntity
  8
TITLE_BLOCK
  6
CONTINUOUS
 62
     7
100
AcDbVertex
100
AcDb2dVertex
 10
-22.328972
 20
-22.890844
 30
0.0
 70
     8
  0
VERTEX
  5
32EAA
330
19E76
100
AcDbEntity
  8
TITLE_BLOCK
  6
CONTINUOUS
 62
     7
100
AcDbVertex
100
AcDb2dVertex
 10
-22.306096
 20
-22.924841
 30
0.0
 70
     8
  0
VERTEX
  5
32EAB
330
19E76
100
AcDbEntity
  8
TITLE_BLOCK
  6
CONTINUOUS
 62
     7
100
AcDbVertex
100
AcDb2dVertex
 10
-22.296328
 20
-22.94339
 30
0.0
 70
     8
  0
VERTEX
  5
32EAC
330
19E76
100
AcDbEntity
  8
TITLE_BLOCK
  6
CONTINUOUS
 62
     7
100
AcDbVertex
100
AcDb2dVertex
 10
-22.287757
 20
-22.962973
 30
0.0
 70
     8
  0
VERTEX
  5
32EAD
330
19E76
100
AcDbEntity
  8
TITLE_BLOCK
  6
CONTINUOUS
 62
     7
100
AcDbVertex
100
AcDb2dVertex
 10
-22.377062
 20
-22.977275
 30
0.0
 70
     8
  0
VERTEX
  5
32EAE
330
19E76
100
AcDbEntity
  8
TITLE_BLOCK
  6
CONTINUOUS
 62
     7
100
AcDbVertex
100
AcDb2dVertex
 10
-22.465765
 20
-22.993364
 30
0.0
 70
     8
  0
VERTEX
  5
32EAF
330
19E76
100
AcDbEntity
  8
TITLE_BLOCK
  6
CONTINUOUS
 62
     7
100
AcDbVertex
100
AcDb2dVertex
 10
-22.477367
 20
-22.978206
 30
0.0
 70
     8
  0
VERTEX
  5
32EB0
330
19E76
100
AcDbEntity
  8
TITLE_BLOCK
  6
CONTINUOUS
 62
     7
100
AcDbVertex
100
AcDb2dVertex
 10
-22.490325
 20
-22.964949
 30
0.0
 70
     8
  0
VERTEX
  5
32EB1
330
19E76
100
AcDbEntity
  8
TITLE_BLOCK
  6
CONTINUOUS
 62
     7
100
AcDbVertex
100
AcDb2dVertex
 10
-22.504484
 20
-22.953553
 30
0.0
 70
     8
  0
VERTEX
  5
32EB2
330
19E76
100
AcDbEntity
  8
TITLE_BLOCK
  6
CONTINUOUS
 62
     7
100
AcDbVertex
100
AcDb2dVertex
 10
-22.51969
 20
-22.943977
 30
0.0
 70
     8
  0
VERTEX
  5
32EB3
330
19E76
100
AcDbEntity
  8
TITLE_BLOCK
  6
CONTINUOUS
 62
     7
100
AcDbVertex
100
AcDb2dVertex
 10
-22.53579
 20
-22.936181
 30
0.0
 70
     8
  0
VERTEX
  5
32EB4
330
19E76
100
AcDbEntity
  8
TITLE_BLOCK
  6
CONTINUOUS
 62
     7
100
AcDbVertex
100
AcDb2dVertex
 10
-22.552628
 20
-22.930126
 30
0.0
 70
     8
  0
VERTEX
  5
32EB5
330
19E76
100
AcDbEntity
  8
TITLE_BLOCK
  6
CONTINUOUS
 62
     7
100
AcDbVertex
100
AcDb2dVertex
 10
-22.570052
 20
-22.925773
 30
0.0
 70
     8
  0
VERTEX
  5
32EB6
330
19E76
100
AcDbEntity
  8
TITLE_BLOCK
  6
CONTINUOUS
 62
     7
100
AcDbVertex
100
AcDb2dVertex
 10
-22.587906
 20
-22.923081
 30
0.0
 70
     8
  0
VERTEX
  5
32EB7
330
19E76
100
AcDbEntity
  8
TITLE_BLOCK
  6
CONTINUOUS
 62
     7
100
AcDbVertex
100
AcDb2dVertex
 10
-22.624291
 20
-22.92252
 30
0.0
 70
     8
  0
VERTEX
  5
32EB8
330
19E76
100
AcDbEntity
  8
TITLE_BLOCK
  6
CONTINUOUS
 62
     7
100
AcDbVertex
100
AcDb2dVertex
 10
-22.66055
 20
-22.928127
 30
0.0
 70
     8
  0
VERTEX
  5
32EB9
330
19E76
100
AcDbEntity
  8
TITLE_BLOCK
  6
CONTINUOUS
 62
     7
100
AcDbVertex
100
AcDb2dVertex
 10
-22.69545
 20
-22.939582
 30
0.0
 70
     8
  0
VERTEX
  5
32EBA
330
19E76
100
AcDbEntity
  8
TITLE_BLOCK
  6
CONTINUOUS
 62
     7
100
AcDbVertex
100
AcDb2dVertex
 10
-22.727757
 20
-22.956567
 30
0.0
 70
     8
  0
VERTEX
  5
32EBB
330
19E76
100
AcDbEntity
  8
TITLE_BLOCK
  6
CONTINUOUS
 62
     7
100
AcDbVertex
100
AcDb2dVertex
 10
-22.742867
 20
-22.979024
 30
0.0
 70
     8
  0
VERTEX
  5
32EBC
330
19E76
100
AcDbEntity
  8
TITLE_BLOCK
  6
CONTINUOUS
 62
     7
100
AcDbVertex
100
AcDb2dVertex
 10
-22.753083
 20
-23.003478
 30
0.0
 70
     8
  0
VERTEX
  5
32EBD
330
19E76
100
AcDbEntity
  8
TITLE_BLOCK
  6
CONTINUOUS
 62
     7
100
AcDbVertex
100
AcDb2dVertex
 10
-22.759288
 20
-23.029451
 30
0.0
 70
     8
  0
VERTEX
  5
32EBE
330
19E76
100
AcDbEntity
  8
TITLE_BLOCK
  6
CONTINUOUS
 62
     7
100
AcDbVertex
100
AcDb2dVertex
 10
-22.762362
 20
-23.056464
 30
0.0
 70
     8
  0
VERTEX
  5
32EBF
330
19E76
100
AcDbEntity
  8
TITLE_BLOCK
  6
CONTINUOUS
 62
     7
100
AcDbVertex
100
AcDb2dVertex
 10
-22.762639
 20
-23.111699
 30
0.0
 70
     8
  0
VERTEX
  5
32EC0
330
19E76
100
AcDbEntity
  8
TITLE_BLOCK
  6
CONTINUOUS
 62
     7
100
AcDbVertex
100
AcDb2dVertex
 10
-22.760961
 20
-23.165356
 30
0.0
 70
     8
  0
VERTEX
  5
32EC1
330
19E76
100
AcDbEntity
  8
TITLE_BLOCK
  6
CONTINUOUS
 62
     7
100
AcDbVertex
100
AcDb2dVertex
 10
-22.759549
 20
-23.194644
 30
0.0
 70
     8
  0
VERTEX
  5
32EC2
330
19E76
100
AcDbEntity
  8
TITLE_BLOCK
  6
CONTINUOUS
 62
     7
100
AcDbVertex
100
AcDb2dVertex
 10
-22.75249
 20
-23.219714
 30
0.0
 70
     8
  0
VERTEX
  5
32EC3
330
19E76
100
AcDbEntity
  8
TITLE_BLOCK
  6
CONTINUOUS
 62
     7
100
AcDbVertex
100
AcDb2dVertex
 10
-22.740503
 20
-23.240662
 30
0.0
 70
     8
  0
VERTEX
  5
32EC4
330
19E76
100
AcDbEntity
  8
TITLE_BLOCK
  6
CONTINUOUS
 62
     7
100
AcDbVertex
100
AcDb2dVertex
 10
-22.724307
 20
-23.257584
 30
0.0
 70
     8
  0
VERTEX
  5
32EC5
330
19E76
100
AcDbEntity
  8
TITLE_BLOCK
  6
CONTINUOUS
 62
     7
100
AcDbVertex
100
AcDb2dVertex
 10
-22.704621
 20
-23.270575
 30
0.0
 70
     8
  0
VERTEX
  5
32EC6
330
19E76
100
AcDbEntity
  8
TITLE_BLOCK
  6
CONTINUOUS
 62
     7
100
AcDbVertex
100
AcDb2dVertex
 10
-22.682164
 20
-23.27973
 30
0.0
 70
     8
  0
VERTEX
  5
32EC7
330
19E76
100
AcDbEntity
  8
TITLE_BLOCK
  6
CONTINUOUS
 62
     7
100
AcDbVertex
100
AcDb2dVertex
 10
-22.657655
 20
-23.285147
 30
0.0
 70
     8
  0
VERTEX
  5
32EC8
330
19E76
100
AcDbEntity
  8
TITLE_BLOCK
  6
CONTINUOUS
 62
     7
100
AcDbVertex
100
AcDb2dVertex
 10
-22.631813
 20
-23.286918
 30
0.0
 70
     8
  0
VERTEX
  5
32EC9
330
19E76
100
AcDbEntity
  8
TITLE_BLOCK
  6
CONTINUOUS
 62
     7
100
AcDbVertex
100
AcDb2dVertex
 10
-22.605356
 20
-23.285142
 30
0.0
 70
     8
  0
VERTEX
  5
32ECA
330
19E76
100
AcDbEntity
  8
TITLE_BLOCK
  6
CONTINUOUS
 62
     7
100
AcDbVertex
100
AcDb2dVertex
 10
-22.579005
 20
-23.279912
 30
0.0
 70
     8
  0
VERTEX
  5
32ECB
330
19E76
100
AcDbEntity
  8
TITLE_BLOCK
  6
CONTINUOUS
 62
     7
100
AcDbVertex
100
AcDb2dVertex
 10
-22.553477
 20
-23.271325
 30
0.0
 70
     8
  0
VERTEX
  5
32ECC
330
19E76
100
AcDbEntity
  8
TITLE_BLOCK
  6
CONTINUOUS
 62
     7
100
AcDbVertex
100
AcDb2dVertex
 10
-22.529492
 20
-23.259476
 30
0.0
 70
     8
  0
VERTEX
  5
32ECD
330
19E76
100
AcDbEntity
  8
TITLE_BLOCK
  6
CONTINUOUS
 62
     7
100
AcDbVertex
100
AcDb2dVertex
 10
-22.50777
 20
-23.24446
 30
0.0
 70
     8
  0
VERTEX
  5
32ECE
330
19E76
100
AcDbEntity
  8
TITLE_BLOCK
  6
CONTINUOUS
 62
     7
100
AcDbVertex
100
AcDb2dVertex
 10
-22.489028
 20
-23.226374
 30
0.0
 70
     8
  0
VERTEX
  5
32ECF
330
19E76
100
AcDbEntity
  8
TITLE_BLOCK
  6
CONTINUOUS
 62
     7
100
AcDbVertex
100
AcDb2dVertex
 10
-22.473986
 20
-23.205313
 30
0.0
 70
     8
  0
VERTEX
  5
32ED0
330
19E76
100
AcDbEntity
  8
TITLE_BLOCK
  6
CONTINUOUS
 62
     7
100
AcDbVertex
100
AcDb2dVertex
 10
-22.463363
 20
-23.181372
 30
0.0
 70
     8
  0
VERTEX
  5
32ED1
330
19E76
100
AcDbEntity
  8
TITLE_BLOCK
  6
CONTINUOUS
 62
     7
100
AcDbVertex
100
AcDb2dVertex
 10
-22.29057
 20
-23.211372
 30
0.0
 70
     8
  0
VERTEX
  5
32ED2
330
19E76
100
AcDbEntity
  8
TITLE_BLOCK
  6
CONTINUOUS
 62
     7
100
AcDbVertex
100
AcDb2dVertex
 10
-22.294861
 20
-23.235572
 30
0.0
 70
     8
  0
VERTEX
  5
32ED3
330
19E76
100
AcDbEntity
  8
TITLE_BLOCK
  6
CONTINUOUS
 62
     7
100
AcDbVertex
100
AcDb2dVertex
 10
-22.301474
 20
-23.258132
 30
0.0
 70
     8
  0
VERTEX
  5
32ED4
330
19E76
100
AcDbEntity
  8
TITLE_BLOCK
  6
CONTINUOUS
 62
     7
100
AcDbVertex
100
AcDb2dVertex
 10
-22.310237
 20
-23.279136
 30
0.0
 70
     8
  0
VERTEX
  5
32ED5
330
19E76
100
AcDbEntity
  8
TITLE_BLOCK
  6
CONTINUOUS
 62
     7
100
AcDbVertex
100
AcDb2dVertex
 10
-22.320977
 20
-23.298668
 30
0.0
 70
     8
  0
VERTEX
  5
32ED6
330
19E76
100
AcDbEntity
  8
TITLE_BLOCK
  6
CONTINUOUS
 62
     7
100
AcDbVertex
100
AcDb2dVertex
 10
-22.333522
 20
-23.316813
 30
0.0
 70
     8
  0
VERTEX
  5
32ED7
330
19E76
100
AcDbEntity
  8
TITLE_BLOCK
  6
CONTINUOUS
 62
     7
100
AcDbVertex
100
AcDb2dVertex
 10
-22.3477
 20
-23.333656
 30
0.0
 70
     8
  0
VERTEX
  5
32ED8
330
19E76
100
AcDbEntity
  8
TITLE_BLOCK
  6
CONTINUOUS
 62
     7
100
AcDbVertex
100
AcDb2dVertex
 10
-22.363338
 20
-23.349279
 30
0.0
 70
     8
  0
VERTEX
  5
32ED9
330
19E76
100
AcDbEntity
  8
TITLE_BLOCK
  6
CONTINUOUS
 62
     7
100
AcDbVertex
100
AcDb2dVertex
 10
-22.380265
 20
-23.363769
 30
0.0
 70
     8
  0
VERTEX
  5
32EDA
330
19E76
100
AcDbEntity
  8
TITLE_BLOCK
  6
CONTINUOUS
 62
     7
100
AcDbVertex
100
AcDb2dVertex
 10
-22.417293
 20
-23.389684
 30
0.0
 70
     8
  0
VERTEX
  5
32EDB
330
19E76
100
AcDbEntity
  8
TITLE_BLOCK
  6
CONTINUOUS
 62
     7
100
AcDbVertex
100
AcDb2dVertex
 10
-22.457406
 20
-23.412075
 30
0.0
 70
     8
  0
VERTEX
  5
32EDC
330
19E76
100
AcDbEntity
  8
TITLE_BLOCK
  6
CONTINUOUS
 62
     7
100
AcDbVertex
100
AcDb2dVertex
 10
-22.499224
 20
-23.431619
 30
0.0
 70
     8
  0
VERTEX
  5
32EDD
330
19E76
100
AcDbEntity
  8
TITLE_BLOCK
  6
CONTINUOUS
 62
     7
100
AcDbVertex
100
AcDb2dVertex
 10
-22.541371
 20
-23.448989
 30
0.0
 70
     8
  0
VERTEX
  5
32EDE
330
19E76
100
AcDbEntity
  8
TITLE_BLOCK
  6
CONTINUOUS
 62
     7
100
AcDbVertex
100
AcDb2dVertex
 10
-22.633814
 20
-23.439504
 30
0.0
 70
     8
  0
VERTEX
  5
32EDF
330
19E76
100
AcDbEntity
  8
TITLE_BLOCK
  6
CONTINUOUS
 62
     7
100
AcDbVertex
100
AcDb2dVertex
 10
-22.680917
 20
-23.432537
 30
0.0
 70
     8
  0
VERTEX
  5
32EE0
330
19E76
100
AcDbEntity
  8
TITLE_BLOCK
  6
CONTINUOUS
 62
     7
100
AcDbVertex
100
AcDb2dVertex
 10
-22.727159
 20
-23.422416
 30
0.0
 70
     8
  0
VERTEX
  5
32EE1
330
19E76
100
AcDbEntity
  8
TITLE_BLOCK
  6
CONTINUOUS
 62
     7
100
AcDbVertex
100
AcDb2dVertex
 10
-22.771452
 20
-23.407891
 30
0.0
 70
     8
  0
VERTEX
  5
32EE2
330
19E76
100
AcDbEntity
  8
TITLE_BLOCK
  6
CONTINUOUS
 62
     7
100
AcDbVertex
100
AcDb2dVertex
 10
-22.792528
 20
-23.398584
 30
0.0
 70
     8
  0
VERTEX
  5
32EE3
330
19E76
100
AcDbEntity
  8
TITLE_BLOCK
  6
CONTINUOUS
 62
     7
100
AcDbVertex
100
AcDb2dVertex
 10
-22.812708
 20
-23.387707
 30
0.0
 70
     8
  0
VERTEX
  5
32EE4
330
19E76
100
AcDbEntity
  8
TITLE_BLOCK
  6
CONTINUOUS
 62
     7
100
AcDbVertex
100
AcDb2dVertex
 10
-22.831858
 20
-23.375102
 30
0.0
 70
     8
  0
VERTEX
  5
32EE5
330
19E76
100
AcDbEntity
  8
TITLE_BLOCK
  6
CONTINUOUS
 62
     7
100
AcDbVertex
100
AcDb2dVertex
 10
-22.849841
 20
-23.360613
 30
0.0
 70
     8
  0
VERTEX
  5
32EE6
330
19E76
100
AcDbEntity
  8
TITLE_BLOCK
  6
CONTINUOUS
 62
     7
100
AcDbVertex
100
AcDb2dVertex
 10
-22.86652
 20
-23.344083
 30
0.0
 70
     8
  0
VERTEX
  5
32EE7
330
19E76
100
AcDbEntity
  8
TITLE_BLOCK
  6
CONTINUOUS
 62
     7
100
AcDbVertex
100
AcDb2dVertex
 10
-22.881761
 20
-23.325356
 30
0.0
 70
     8
  0
VERTEX
  5
32EE8
330
19E76
100
AcDbEntity
  8
TITLE_BLOCK
  6
CONTINUOUS
 62
     7
100
AcDbVertex
100
AcDb2dVertex
 10
-22.901742
 20
-23.298639
 30
0.0
 70
     8
  0
VERTEX
  5
32EE9
330
19E76
100
AcDbEntity
  8
TITLE_BLOCK
  6
CONTINUOUS
 62
     7
100
AcDbVertex
100
AcDb2dVertex
 10
-22.918778
 20
-23.269997
 30
0.0
 70
     8
  0
VERTEX
  5
32EEA
330
19E76
100
AcDbEntity
  8
TITLE_BLOCK
  6
CONTINUOUS
 62
     7
100
AcDbVertex
100
AcDb2dVertex
 10
-22.932859
 20
-23.239745
 30
0.0
 70
     8
  0
VERTEX
  5
32EEB
330
19E76
100
AcDbEntity
  8
TITLE_BLOCK
  6
CONTINUOUS
 62
     7
100
AcDbVertex
100
AcDb2dVertex
 10
-22.943977
 20
-23.208198
 30
0.0
 70
     8
  0
VERTEX
  5
32EEC
330
19E76
100
AcDbEntity
  8
TITLE_BLOCK
  6
CONTINUOUS
 62
     7
100
AcDbVertex
100
AcDb2dVertex
 10
-22.95212
 20
-23.175671
 30
0.0
 70
     8
  0
VERTEX
  5
32EED
330
19E76
100
AcDbEntity
  8
TITLE_BLOCK
  6
CONTINUOUS
 62
     7
100
AcDbVertex
100
AcDb2dVertex
 10
-22.95728
 20
-23.14248
 30
0.0
 70
     8
  0
VERTEX
  5
32EEE
330
19E76
100
AcDbEntity
  8
TITLE_BLOCK
  6
CONTINUOUS
 62
     7
100
AcDbVertex
100
AcDb2dVertex
 10
-22.959446
 20
-23.10894
 30
0.0
 70
     8
  0
VERTEX
  5
32EEF
330
19E76
100
AcDbEntity
  8
TITLE_BLOCK
  6
CONTINUOUS
 62
     7
100
AcDbVertex
100
AcDb2dVertex
 10
-22.958607
 20
-23.075366
 30
0.0
 70
     8
  0
VERTEX
  5
32EF0
330
19E76
100
AcDbEntity
  8
TITLE_BLOCK
  6
CONTINUOUS
 62
     7
100
AcDbVertex
100
AcDb2dVertex
 10
-22.954755
 20
-23.042072
 30
0.0
 70
     8
  0
VERTEX
  5
32EF1
330
19E76
100
AcDbEntity
  8
TITLE_BLOCK
  6
CONTINUOUS
 62
     7
100
AcDbVertex
100
AcDb2dVertex
 10
-22.947878
 20
-23.009375
 30
0.0
 70
     8
  0
VERTEX
  5
32EF2
330
19E76
100
AcDbEntity
  8
TITLE_BLOCK
  6
CONTINUOUS
 62
     7
100
AcDbVertex
100
AcDb2dVertex
 10
-22.937968
 20
-22.97759
 30
0.0
 70
     8
  0
VERTEX
  5
32EF3
330
19E76
100
AcDbEntity
  8
TITLE_BLOCK
  6
CONTINUOUS
 62
     7
100
AcDbVertex
100
AcDb2dVertex
 10
-22.925015
 20
-22.947031
 30
0.0
 70
     8
  0
VERTEX
  5
32EF4
330
19E76
100
AcDbEntity
  8
TITLE_BLOCK
  6
CONTINUOUS
 62
     7
100
AcDbVertex
100
AcDb2dVertex
 10
-22.909007
 20
-22.918013
 30
0.0
 70
     8
  0
VERTEX
  5
32EF5
330
19E76
100
AcDbEntity
  8
TITLE_BLOCK
  6
CONTINUOUS
 62
     7
100
AcDbVertex
100
AcDb2dVertex
 10
-22.889936
 20
-22.890853
 30
0.0
 70
     8
  0
VERTEX
  5
32EF6
330
19E76
100
AcDbEntity
  8
TITLE_BLOCK
  6
CONTINUOUS
 62
     7
100
AcDbVertex
100
AcDb2dVertex
 10
-22.867791
 20
-22.865865
 30
0.0
 70
     8
  0
VERTEX
  5
32EF7
330
19E76
100
AcDbEntity
  8
TITLE_BLOCK
  6
CONTINUOUS
 62
     7
100
AcDbVertex
100
AcDb2dVertex
 10
-22.842562
 20
-22.843364
 30
0.0
 70
     8
  0
VERTEX
  5
32EF8
330
19E76
100
AcDbEntity
  8
TITLE_BLOCK
  6
CONTINUOUS
 62
     7
100
AcDbVertex
100
AcDb2dVertex
 10
-22.842562
 20
-22.843364
 30
0.0
 70
     8
  0
VERTEX
  5
32EF9
330
19E76
100
AcDbEntity
  8
TITLE_BLOCK
  6
CONTINUOUS
 62
     7
100
AcDbVertex
100
AcDb2dVertex
 10
-22.842562
 20
-22.843364
 30
0.0
 70
    16
  0
VERTEX
  5
32EFA
330
19E76
100
AcDbEntity
  8
TITLE_BLOCK
  6
CONTINUOUS
 62
     7
100
AcDbVertex
100
AcDb2dVertex
 10
-22.672562
 20
-22.710981
 30
0.0
 70
    16
  0
VERTEX
  5
32EFB
330
19E76
100
AcDbEntity
  8
TITLE_BLOCK
  6
CONTINUOUS
 62
     7
100
AcDbVertex
100
AcDb2dVertex
 10
-22.372562
 20
-22.748559
 30
0.0
 70
    16
  0
VERTEX
  5
32EFC
330
19E76
100
AcDbEntity
  8
TITLE_BLOCK
  6
CONTINUOUS
 62
     7
100
AcDbVertex
100
AcDb2dVertex
 10
-22.287757
 20
-22.962973
 30
0.0
 70
    16
  0
VERTEX
  5
32EFD
330
19E76
100
AcDbEntity
  8
TITLE_BLOCK
  6
CONTINUOUS
 62
     7
100
AcDbVertex
100
AcDb2dVertex
 10
-22.347367
 20
-22.972192
 30
0.0
 70
    16
  0
VERTEX
  5
32EFE
330
19E76
100
AcDbEntity
  8
TITLE_BLOCK
  6
CONTINUOUS
 62
     7
100
AcDbVertex
100
AcDb2dVertex
 10
-22.406957
 20
-22.981762
 30
0.0
 70
    16
  0
VERTEX
  5
32EFF
330
19E76
100
AcDbEntity
  8
TITLE_BLOCK
  6
CONTINUOUS
 62
     7
100
AcDbVertex
100
AcDb2dVertex
 10
-22.465765
 20
-22.993364
 30
0.0
 70
    16
  0
VERTEX
  5
32F00
330
19E76
100
AcDbEntity
  8
TITLE_BLOCK
  6
CONTINUOUS
 62
     7
100
AcDbVertex
100
AcDb2dVertex
 10
-22.523754
 20
-22.907387
 30
0.0
 70
    16
  0
VERTEX
  5
32F01
330
19E76
100
AcDbEntity
  8
TITLE_BLOCK
  6
CONTINUOUS
 62
     7
100
AcDbVertex
100
AcDb2dVertex
 10
-22.646156
 20
-22.904184
 30
0.0
 70
    16
  0
VERTEX
  5
32F02
330
19E76
100
AcDbEntity
  8
TITLE_BLOCK
  6
CONTINUOUS
 62
     7
100
AcDbVertex
100
AcDb2dVertex
 10
-22.727757
 20
-22.956567
 30
0.0
 70
    16
  0
VERTEX
  5
32F03
330
19E76
100
AcDbEntity
  8
TITLE_BLOCK
  6
CONTINUOUS
 62
     7
100
AcDbVertex
100
AcDb2dVertex
 10
-22.775355
 20
-23.013364
 30
0.0
 70
    16
  0
VERTEX
  5
32F04
330
19E76
100
AcDbEntity
  8
TITLE_BLOCK
  6
CONTINUOUS
 62
     7
100
AcDbVertex
100
AcDb2dVertex
 10
-22.761371
 20
-23.096567
 30
0.0
 70
    16
  0
VERTEX
  5
32F05
330
19E76
100
AcDbEntity
  8
TITLE_BLOCK
  6
CONTINUOUS
 62
     7
100
AcDbVertex
100
AcDb2dVertex
 10
-22.760961
 20
-23.165356
 30
0.0
 70
    16
  0
VERTEX
  5
32F06
330
19E76
100
AcDbEntity
  8
TITLE_BLOCK
  6
CONTINUOUS
 62
     7
100
AcDbVertex
100
AcDb2dVertex
 10
-22.769769
 20
-23.332973
 30
0.0
 70
    16
  0
VERTEX
  5
32F07
330
19E76
100
AcDbEntity
  8
TITLE_BLOCK
  6
CONTINUOUS
 62
     7
100
AcDbVertex
100
AcDb2dVertex
 10
-22.506957
 20
-23.316567
 30
0.0
 70
    16
  0
VERTEX
  5
32F08
330
19E76
100
AcDbEntity
  8
TITLE_BLOCK
  6
CONTINUOUS
 62
     7
100
AcDbVertex
100
AcDb2dVertex
 10
-22.463363
 20
-23.181372
 30
0.0
 70
    16
  0
VERTEX
  5
32F09
330
19E76
100
AcDbEntity
  8
TITLE_BLOCK
  6
CONTINUOUS
 62
     7
100
AcDbVertex
100
AcDb2dVertex
 10
-22.405765
 20
-23.191762
 30
0.0
 70
    16
  0
VERTEX
  5
32F0A
330
19E76
100
AcDbEntity
  8
TITLE_BLOCK
  6
CONTINUOUS
 62
     7
100
AcDbVertex
100
AcDb2dVertex
 10
-22.348168
 20
-23.201762
 30
0.0
 70
    16
  0
VERTEX
  5
32F0B
330
19E76
100
AcDbEntity
  8
TITLE_BLOCK
  6
CONTINUOUS
 62
     7
100
AcDbVertex
100
AcDb2dVertex
 10
-22.29057
 20
-23.211372
 30
0.0
 70
    16
  0
VERTEX
  5
32F0C
330
19E76
100
AcDbEntity
  8
TITLE_BLOCK
  6
CONTINUOUS
 62
     7
100
AcDbVertex
100
AcDb2dVertex
 10
-22.306957
 20
-23.344965
 30
0.0
 70
    16
  0
VERTEX
  5
32F0D
330
19E76
100
AcDbEntity
  8
TITLE_BLOCK
  6
CONTINUOUS
 62
     7
100
AcDbVertex
100
AcDb2dVertex
 10
-22.429769
 20
-23.404965
 30
0.0
 70
    16
  0
VERTEX
  5
32F0E
330
19E76
100
AcDbEntity
  8
TITLE_BLOCK
  6
CONTINUOUS
 62
     7
100
AcDbVertex
100
AcDb2dVertex
 10
-22.541371
 20
-23.448989
 30
0.0
 70
    16
  0
VERTEX
  5
32F0F
330
19E76
100
AcDbEntity
  8
TITLE_BLOCK
  6
CONTINUOUS
 62
     7
100
AcDbVertex
100
AcDb2dVertex
 10
-22.66016
 20
-23.436957
 30
0.0
 70
    16
  0
VERTEX
  5
32F10
330
19E76
100
AcDbEntity
  8
TITLE_BLOCK
  6
CONTINUOUS
 62
     7
100
AcDbVertex
100
AcDb2dVertex
 10
-22.804554
 20
-23.431372
 30
0.0
 70
    16
  0
VERTEX
  5
32F11
330
19E76
100
AcDbEntity
  8
TITLE_BLOCK
  6
CONTINUOUS
 62
     7
100
AcDbVertex
100
AcDb2dVertex
 10
-22.881761
 20
-23.325356
 30
0.0
 70
    16
  0
VERTEX
  5
32F12
330
19E76
100
AcDbEntity
  8
TITLE_BLOCK
  6
CONTINUOUS
 62
     7
100
AcDbVertex
100
AcDb2dVertex
 10
-22.996156
 20
-23.188559
 30
0.0
 70
    16
  0
VERTEX
  5
32F13
330
19E76
100
AcDbEntity
  8
TITLE_BLOCK
  6
CONTINUOUS
 62
     7
100
AcDbVertex
100
AcDb2dVertex
 10
-22.985355
 20
-22.956176
 30
0.0
 70
    16
  0
VERTEX
  5
32F14
330
19E76
100
AcDbEntity
  8
TITLE_BLOCK
  6
CONTINUOUS
 62
     7
100
AcDbVertex
100
AcDb2dVertex
 10
-22.842562
 20
-22.843364
 30
0.0
 70
    16
  0
VERTEX
  5
32F15
330
19E76
100
AcDbEntity
  8
TITLE_BLOCK
  6
CONTINUOUS
 62
     7
100
AcDbVertex
100
AcDb2dVertex
 10
-22.842562
 20
-22.843364
 30
0.0
 70
    16
  0
VERTEX
  5
32F16
330
19E76
100
AcDbEntity
  8
TITLE_BLOCK
  6
CONTINUOUS
 62
     7
100
AcDbVertex
100
AcDb2dVertex
 10
-22.842562
 20
-22.843364
 30
0.0
 70
    16
  0
VERTEX
  5
32F17
330
19E76
100
AcDbEntity
  8
TITLE_BLOCK
  6
CONTINUOUS
 62
     7
100
AcDbVertex
100
AcDb2dVertex
 10
-22.842562
 20
-22.843364
 30
0.0
 70
    16
  0
SEQEND
  5
32F18
330
19E76
100
AcDbEntity
  8
TITLE_BLOCK
  6
CONTINUOUS
 62
     7
  0
POLYLINE
  5
19EF4
330
32D05
100
AcDbEntity
  8
TITLE_BLOCK
  6
CONTINUOUS
 62
     7
100
AcDb2dPolyline
 66
     1
 10
0.0
 20
0.0
 30
0.0
 70
     5
 75
     5
  0
VERTEX
  5
32F19
330
19EF4
100
AcDbEntity
  8
TITLE_BLOCK
  6
CONTINUOUS
 62
     7
100
AcDbVertex
100
AcDb2dVertex
 10
-22.161761
 20
-22.764575
 30
0.0
 70
     8
  0
VERTEX
  5
32F1A
330
19EF4
100
AcDbEntity
  8
TITLE_BLOCK
  6
CONTINUOUS
 62
     7
100
AcDbVertex
100
AcDb2dVertex
 10
-21.962953
 20
-22.762192
 30
0.0
 70
     8
  0
VERTEX
  5
32F1B
330
19EF4
100
AcDbEntity
  8
TITLE_BLOCK
  6
CONTINUOUS
 62
     7
100
AcDbVertex
100
AcDb2dVertex
 10
-21.963558
 20
-23.024316
 30
0.0
 70
     8
  0
VERTEX
  5
32F1C
330
19EF4
100
AcDbEntity
  8
TITLE_BLOCK
  6
CONTINUOUS
 62
     7
100
AcDbVertex
100
AcDb2dVertex
 10
-21.962398
 20
-23.155299
 30
0.0
 70
     8
  0
VERTEX
  5
32F1D
330
19EF4
100
AcDbEntity
  8
TITLE_BLOCK
  6
CONTINUOUS
 62
     7
100
AcDbVertex
100
AcDb2dVertex
 10
-21.959359
 20
-23.286176
 30
0.0
 70
     8
  0
VERTEX
  5
32F1E
330
19EF4
100
AcDbEntity
  8
TITLE_BLOCK
  6
CONTINUOUS
 62
     7
100
AcDbVertex
100
AcDb2dVertex
 10
-21.645355
 20
-23.283364
 30
0.0
 70
     8
  0
VERTEX
  5
32F1F
330
19EF4
100
AcDbEntity
  8
TITLE_BLOCK
  6
CONTINUOUS
 62
     7
100
AcDbVertex
100
AcDb2dVertex
 10
-21.638558
 20
-23.443793
 30
0.0
 70
     8
  0
VERTEX
  5
32F20
330
19EF4
100
AcDbEntity
  8
TITLE_BLOCK
  6
CONTINUOUS
 62
     7
100
AcDbVertex
100
AcDb2dVertex
 10
-21.899759
 20
-23.444326
 30
0.0
 70
     8
  0
VERTEX
  5
32F21
330
19EF4
100
AcDbEntity
  8
TITLE_BLOCK
  6
CONTINUOUS
 62
     7
100
AcDbVertex
100
AcDb2dVertex
 10
-22.160961
 20
-23.443364
 30
0.0
 70
     8
  0
VERTEX
  5
32F22
330
19EF4
100
AcDbEntity
  8
TITLE_BLOCK
  6
CONTINUOUS
 62
     7
100
AcDbVertex
100
AcDb2dVertex
 10
-22.163901
 20
-23.273807
 30
0.0
 70
     8
  0
VERTEX
  5
32F23
330
19EF4
100
AcDbEntity
  8
TITLE_BLOCK
  6
CONTINUOUS
 62
     7
100
AcDbVertex
100
AcDb2dVertex
 10
-22.164064
 20
-23.10413
 30
0.0
 70
     8
  0
VERTEX
  5
32F24
330
19EF4
100
AcDbEntity
  8
TITLE_BLOCK
  6
CONTINUOUS
 62
     7
100
AcDbVertex
100
AcDb2dVertex
 10
-22.161761
 20
-22.764575
 30
0.0
 70
     8
  0
VERTEX
  5
32F25
330
19EF4
100
AcDbEntity
  8
TITLE_BLOCK
  6
CONTINUOUS
 62
     7
100
AcDbVertex
100
AcDb2dVertex
 10
-22.161761
 20
-22.764575
 30
0.0
 70
     8
  0
VERTEX
  5
32F26
330
19EF4
100
AcDbEntity
  8
TITLE_BLOCK
  6
CONTINUOUS
 62
     7
100
AcDbVertex
100
AcDb2dVertex
 10
-22.161761
 20
-22.764575
 30
0.0
 70
    16
  0
VERTEX
  5
32F27
330
19EF4
100
AcDbEntity
  8
TITLE_BLOCK
  6
CONTINUOUS
 62
     7
100
AcDbVertex
100
AcDb2dVertex
 10
-22.095355
 20
-22.763793
 30
0.0
 70
    16
  0
VERTEX
  5
32F28
330
19EF4
100
AcDbEntity
  8
TITLE_BLOCK
  6
CONTINUOUS
 62
     7
100
AcDbVertex
100
AcDb2dVertex
 10
-22.029359
 20
-22.763364
 30
0.0
 70
    16
  0
VERTEX
  5
32F29
330
19EF4
100
AcDbEntity
  8
TITLE_BLOCK
  6
CONTINUOUS
 62
     7
100
AcDbVertex
100
AcDb2dVertex
 10
-21.962953
 20
-22.762192
 30
0.0
 70
    16
  0
VERTEX
  5
32F2A
330
19EF4
100
AcDbEntity
  8
TITLE_BLOCK
  6
CONTINUOUS
 62
     7
100
AcDbVertex
100
AcDb2dVertex
 10
-21.963754
 20
-22.936957
 30
0.0
 70
    16
  0
VERTEX
  5
32F2B
330
19EF4
100
AcDbEntity
  8
TITLE_BLOCK
  6
CONTINUOUS
 62
     7
100
AcDbVertex
100
AcDb2dVertex
 10
-21.964964
 20
-23.111762
 30
0.0
 70
    16
  0
VERTEX
  5
32F2C
330
19EF4
100
AcDbEntity
  8
TITLE_BLOCK
  6
CONTINUOUS
 62
     7
100
AcDbVertex
100
AcDb2dVertex
 10
-21.959359
 20
-23.286176
 30
0.0
 70
    16
  0
VERTEX
  5
32F2D
330
19EF4
100
AcDbEntity
  8
TITLE_BLOCK
  6
CONTINUOUS
 62
     7
100
AcDbVertex
100
AcDb2dVertex
 10
-21.854964
 20
-23.283793
 30
0.0
 70
    16
  0
VERTEX
  5
32F2E
330
19EF4
100
AcDbEntity
  8
TITLE_BLOCK
  6
CONTINUOUS
 62
     7
100
AcDbVertex
100
AcDb2dVertex
 10
-21.75016
 20
-23.284184
 30
0.0
 70
    16
  0
VERTEX
  5
32F2F
330
19EF4
100
AcDbEntity
  8
TITLE_BLOCK
  6
CONTINUOUS
 62
     7
100
AcDbVertex
100
AcDb2dVertex
 10
-21.645355
 20
-23.283364
 30
0.0
 70
    16
  0
VERTEX
  5
32F30
330
19EF4
100
AcDbEntity
  8
TITLE_BLOCK
  6
CONTINUOUS
 62
     7
100
AcDbVertex
100
AcDb2dVertex
 10
-21.642953
 20
-23.336957
 30
0.0
 70
    16
  0
VERTEX
  5
32F31
330
19EF4
100
AcDbEntity
  8
TITLE_BLOCK
  6
CONTINUOUS
 62
     7
100
AcDbVertex
100
AcDb2dVertex
 10
-21.640961
 20
-23.390161
 30
0.0
 70
    16
  0
VERTEX
  5
32F32
330
19EF4
100
AcDbEntity
  8
TITLE_BLOCK
  6
CONTINUOUS
 62
     7
100
AcDbVertex
100
AcDb2dVertex
 10
-21.638558
 20
-23.443793
 30
0.0
 70
    16
  0
VERTEX
  5
32F33
330
19EF4
100
AcDbEntity
  8
TITLE_BLOCK
  6
CONTINUOUS
 62
     7
100
AcDbVertex
100
AcDb2dVertex
 10
-21.812562
 20
-23.446176
 30
0.0
 70
    16
  0
VERTEX
  5
32F34
330
19EF4
100
AcDbEntity
  8
TITLE_BLOCK
  6
CONTINUOUS
 62
     7
100
AcDbVertex
100
AcDb2dVertex
 10
-21.986957
 20
-23.442973
 30
0.0
 70
    16
  0
VERTEX
  5
32F35
330
19EF4
100
AcDbEntity
  8
TITLE_BLOCK
  6
CONTINUOUS
 62
     7
100
AcDbVertex
100
AcDb2dVertex
 10
-22.160961
 20
-23.443364
 30
0.0
 70
    16
  0
VERTEX
  5
32F36
330
19EF4
100
AcDbEntity
  8
TITLE_BLOCK
  6
CONTINUOUS
 62
     7
100
AcDbVertex
100
AcDb2dVertex
 10
-22.167367
 20
-23.217387
 30
0.0
 70
    16
  0
VERTEX
  5
32F37
330
19EF4
100
AcDbEntity
  8
TITLE_BLOCK
  6
CONTINUOUS
 62
     7
100
AcDbVertex
100
AcDb2dVertex
 10
-22.162562
 20
-22.990981
 30
0.0
 70
    16
  0
VERTEX
  5
32F38
330
19EF4
100
AcDbEntity
  8
TITLE_BLOCK
  6
CONTINUOUS
 62
     7
100
AcDbVertex
100
AcDb2dVertex
 10
-22.161761
 20
-22.764575
 30
0.0
 70
    16
  0
VERTEX
  5
32F39
330
19EF4
100
AcDbEntity
  8
TITLE_BLOCK
  6
CONTINUOUS
 62
     7
100
AcDbVertex
100
AcDb2dVertex
 10
-22.161761
 20
-22.764575
 30
0.0
 70
    16
  0
VERTEX
  5
32F3A
330
19EF4
100
AcDbEntity
  8
TITLE_BLOCK
  6
CONTINUOUS
 62
     7
100
AcDbVertex
100
AcDb2dVertex
 10
-22.161761
 20
-22.764575
 30
0.0
 70
    16
  0
VERTEX
  5
32F3B
330
19EF4
100
AcDbEntity
  8
TITLE_BLOCK
  6
CONTINUOUS
 62
     7
100
AcDbVertex
100
AcDb2dVertex
 10
-22.161761
 20
-22.764575
 30
0.0
 70
    16
  0
SEQEND
  5
32F3C
330
19EF4
100
AcDbEntity
  8
TITLE_BLOCK
  6
CONTINUOUS
 62
     7
  0
POLYLINE
  5
19F18
330
32D05
100
AcDbEntity
  8
TITLE_BLOCK
  6
CONTINUOUS
 62
     7
100
AcDb2dPolyline
 66
     1
 10
0.0
 20
0.0
 30
0.0
 70
     5
 75
     5
  0
VERTEX
  5
32F3D
330
19F18
100
AcDbEntity
  8
TITLE_BLOCK
  6
CONTINUOUS
 62
     7
100
AcDbVertex
100
AcDb2dVertex
 10
-21.521761
 20
-22.764575
 30
0.0
 70
     8
  0
VERTEX
  5
32F3E
330
19F18
100
AcDbEntity
  8
TITLE_BLOCK
  6
CONTINUOUS
 62
     7
100
AcDbVertex
100
AcDb2dVertex
 10
-21.322953
 20
-22.762192
 30
0.0
 70
     8
  0
VERTEX
  5
32F3F
330
19F18
100
AcDbEntity
  8
TITLE_BLOCK
  6
CONTINUOUS
 62
     7
100
AcDbVertex
100
AcDb2dVertex
 10
-21.322953
 20
-23.443793
 30
0.0
 70
     8
  0
VERTEX
  5
32F40
330
19F18
100
AcDbEntity
  8
TITLE_BLOCK
  6
CONTINUOUS
 62
     7
100
AcDbVertex
100
AcDb2dVertex
 10
-21.523754
 20
-23.443364
 30
0.0
 70
     8
  0
VERTEX
  5
32F41
330
19F18
100
AcDbEntity
  8
TITLE_BLOCK
  6
CONTINUOUS
 62
     7
100
AcDbVertex
100
AcDb2dVertex
 10
-21.521761
 20
-22.764575
 30
0.0
 70
     8
  0
VERTEX
  5
32F42
330
19F18
100
AcDbEntity
  8
TITLE_BLOCK
  6
CONTINUOUS
 62
     7
100
AcDbVertex
100
AcDb2dVertex
 10
-21.521761
 20
-22.764575
 30
0.0
 70
     8
  0
VERTEX
  5
32F43
330
19F18
100
AcDbEntity
  8
TITLE_BLOCK
  6
CONTINUOUS
 62
     7
100
AcDbVertex
100
AcDb2dVertex
 10
-21.521761
 20
-22.764575
 30
0.0
 70
    16
  0
VERTEX
  5
32F44
330
19F18
100
AcDbEntity
  8
TITLE_BLOCK
  6
CONTINUOUS
 62
     7
100
AcDbVertex
100
AcDb2dVertex
 10
-21.455355
 20
-22.763793
 30
0.0
 70
    16
  0
VERTEX
  5
32F45
330
19F18
100
AcDbEntity
  8
TITLE_BLOCK
  6
CONTINUOUS
 62
     7
100
AcDbVertex
100
AcDb2dVertex
 10
-21.389359
 20
-22.763364
 30
0.0
 70
    16
  0
VERTEX
  5
32F46
330
19F18
100
AcDbEntity
  8
TITLE_BLOCK
  6
CONTINUOUS
 62
     7
100
AcDbVertex
100
AcDb2dVertex
 10
-21.322953
 20
-22.762192
 30
0.0
 70
    16
  0
VERTEX
  5
32F47
330
19F18
100
AcDbEntity
  8
TITLE_BLOCK
  6
CONTINUOUS
 62
     7
100
AcDbVertex
100
AcDb2dVertex
 10
-21.324164
 20
-22.989379
 30
0.0
 70
    16
  0
VERTEX
  5
32F48
330
19F18
100
AcDbEntity
  8
TITLE_BLOCK
  6
CONTINUOUS
 62
     7
100
AcDbVertex
100
AcDb2dVertex
 10
-21.322172
 20
-23.216567
 30
0.0
 70
    16
  0
VERTEX
  5
32F49
330
19F18
100
AcDbEntity
  8
TITLE_BLOCK
  6
CONTINUOUS
 62
     7
100
AcDbVertex
100
AcDb2dVertex
 10
-21.322953
 20
-23.443793
 30
0.0
 70
    16
  0
VERTEX
  5
32F4A
330
19F18
100
AcDbEntity
  8
TITLE_BLOCK
  6
CONTINUOUS
 62
     7
100
AcDbVertex
100
AcDb2dVertex
 10
-21.39016
 20
-23.443364
 30
0.0
 70
    16
  0
VERTEX
  5
32F4B
330
19F18
100
AcDbEntity
  8
TITLE_BLOCK
  6
CONTINUOUS
 62
     7
100
AcDbVertex
100
AcDb2dVertex
 10
-21.456957
 20
-23.443364
 30
0.0
 70
    16
  0
VERTEX
  5
32F4C
330
19F18
100
AcDbEntity
  8
TITLE_BLOCK
  6
CONTINUOUS
 62
     7
100
AcDbVertex
100
AcDb2dVertex
 10
-21.523754
 20
-23.443364
 30
0.0
 70
    16
  0
VERTEX
  5
32F4D
330
19F18
100
AcDbEntity
  8
TITLE_BLOCK
  6
CONTINUOUS
 62
     7
100
AcDbVertex
100
AcDb2dVertex
 10
-21.520961
 20
-23.216957
 30
0.0
 70
    16
  0
VERTEX
  5
32F4E
330
19F18
100
AcDbEntity
  8
TITLE_BLOCK
  6
CONTINUOUS
 62
     7
100
AcDbVertex
100
AcDb2dVertex
 10
-21.524554
 20
-22.990981
 30
0.0
 70
    16
  0
VERTEX
  5
32F4F
330
19F18
100
AcDbEntity
  8
TITLE_BLOCK
  6
CONTINUOUS
 62
     7
100
AcDbVertex
100
AcDb2dVertex
 10
-21.521761
 20
-22.764575
 30
0.0
 70
    16
  0
VERTEX
  5
32F50
330
19F18
100
AcDbEntity
  8
TITLE_BLOCK
  6
CONTINUOUS
 62
     7
100
AcDbVertex
100
AcDb2dVertex
 10
-21.521761
 20
-22.764575
 30
0.0
 70
    16
  0
VERTEX
  5
32F51
330
19F18
100
AcDbEntity
  8
TITLE_BLOCK
  6
CONTINUOUS
 62
     7
100
AcDbVertex
100
AcDb2dVertex
 10
-21.521761
 20
-22.764575
 30
0.0
 70
    16
  0
VERTEX
  5
32F52
330
19F18
100
AcDbEntity
  8
TITLE_BLOCK
  6
CONTINUOUS
 62
     7
100
AcDbVertex
100
AcDb2dVertex
 10
-21.521761
 20
-22.764575
 30
0.0
 70
    16
  0
SEQEND
  5
32F53
330
19F18
100
AcDbEntity
  8
TITLE_BLOCK
  6
CONTINUOUS
 62
     7
  0
POLYLINE
  5
19F2F
330
32D05
100
AcDbEntity
  8
TITLE_BLOCK
  6
CONTINUOUS
 62
     7
100
AcDb2dPolyline
 66
     1
 10
0.0
 20
0.0
 30
0.0
 70
     5
 75
     5
  0
VERTEX
  5
32F54
330
19F2F
100
AcDbEntity
  8
TITLE_BLOCK
  6
CONTINUOUS
 62
     7
100
AcDbVertex
100
AcDb2dVertex
 10
-21.165765
 20
-22.762973
 30
0.0
 70
     8
  0
VERTEX
  5
32F55
330
19F2F
100
AcDbEntity
  8
TITLE_BLOCK
  6
CONTINUOUS
 62
     7
100
AcDbVertex
100
AcDb2dVertex
 10
-21.104838
 20
-22.765725
 30
0.0
 70
     8
  0
VERTEX
  5
32F56
330
19F2F
100
AcDbEntity
  8
TITLE_BLOCK
  6
CONTINUOUS
 62
     7
100
AcDbVertex
100
AcDb2dVertex
 10
-21.042997
 20
-22.764714
 30
0.0
 70
     8
  0
VERTEX
  5
32F57
330
19F2F
100
AcDbEntity
  8
TITLE_BLOCK
  6
CONTINUOUS
 62
     7
100
AcDbVertex
100
AcDb2dVertex
 10
-20.918617
 20
-22.760673
 30
0.0
 70
     8
  0
VERTEX
  5
32F58
330
19F2F
100
AcDbEntity
  8
TITLE_BLOCK
  6
CONTINUOUS
 62
     7
100
AcDbVertex
100
AcDb2dVertex
 10
-20.8571
 20
-22.762276
 30
0.0
 70
     8
  0
VERTEX
  5
32F59
330
19F2F
100
AcDbEntity
  8
TITLE_BLOCK
  6
CONTINUOUS
 62
     7
100
AcDbVertex
100
AcDb2dVertex
 10
-20.826733
 20
-22.764997
 30
0.0
 70
     8
  0
VERTEX
  5
32F5A
330
19F2F
100
AcDbEntity
  8
TITLE_BLOCK
  6
CONTINUOUS
 62
     7
100
AcDbVertex
100
AcDb2dVertex
 10
-20.796713
 20
-22.769384
 30
0.0
 70
     8
  0
VERTEX
  5
32F5B
330
19F2F
100
AcDbEntity
  8
TITLE_BLOCK
  6
CONTINUOUS
 62
     7
100
AcDbVertex
100
AcDb2dVertex
 10
-20.767102
 20
-22.775726
 30
0.0
 70
     8
  0
VERTEX
  5
32F5C
330
19F2F
100
AcDbEntity
  8
TITLE_BLOCK
  6
CONTINUOUS
 62
     7
100
AcDbVertex
100
AcDb2dVertex
 10
-20.737966
 20
-22.784312
 30
0.0
 70
     8
  0
VERTEX
  5
32F5D
330
19F2F
100
AcDbEntity
  8
TITLE_BLOCK
  6
CONTINUOUS
 62
     7
100
AcDbVertex
100
AcDb2dVertex
 10
-20.709367
 20
-22.795434
 30
0.0
 70
     8
  0
VERTEX
  5
32F5E
330
19F2F
100
AcDbEntity
  8
TITLE_BLOCK
  6
CONTINUOUS
 62
     7
100
AcDbVertex
100
AcDb2dVertex
 10
-20.681371
 20
-22.809379
 30
0.0
 70
     8
  0
VERTEX
  5
32F5F
330
19F2F
100
AcDbEntity
  8
TITLE_BLOCK
  6
CONTINUOUS
 62
     7
100
AcDbVertex
100
AcDb2dVertex
 10
-20.667146
 20
-22.825541
 30
0.0
 70
     8
  0
VERTEX
  5
32F60
330
19F2F
100
AcDbEntity
  8
TITLE_BLOCK
  6
CONTINUOUS
 62
     7
100
AcDbVertex
100
AcDb2dVertex
 10
-20.654341
 20
-22.842749
 30
0.0
 70
     8
  0
VERTEX
  5
32F61
330
19F2F
100
AcDbEntity
  8
TITLE_BLOCK
  6
CONTINUOUS
 62
     7
100
AcDbVertex
100
AcDb2dVertex
 10
-20.642978
 20
-22.860885
 30
0.0
 70
     8
  0
VERTEX
  5
32F62
330
19F2F
100
AcDbEntity
  8
TITLE_BLOCK
  6
CONTINUOUS
 62
     7
100
AcDbVertex
100
AcDb2dVertex
 10
-20.633078
 20
-22.879833
 30
0.0
 70
     8
  0
VERTEX
  5
32F63
330
19F2F
100
AcDbEntity
  8
TITLE_BLOCK
  6
CONTINUOUS
 62
     7
100
AcDbVertex
100
AcDb2dVertex
 10
-20.624664
 20
-22.899478
 30
0.0
 70
     8
  0
VERTEX
  5
32F64
330
19F2F
100
AcDbEntity
  8
TITLE_BLOCK
  6
CONTINUOUS
 62
     7
100
AcDbVertex
100
AcDb2dVertex
 10
-20.617759
 20
-22.919701
 30
0.0
 70
     8
  0
VERTEX
  5
32F65
330
19F2F
100
AcDbEntity
  8
TITLE_BLOCK
  6
CONTINUOUS
 62
     7
100
AcDbVertex
100
AcDb2dVertex
 10
-20.612385
 20
-22.940388
 30
0.0
 70
     8
  0
VERTEX
  5
32F66
330
19F2F
100
AcDbEntity
  8
TITLE_BLOCK
  6
CONTINUOUS
 62
     7
100
AcDbVertex
100
AcDb2dVertex
 10
-20.608563
 20
-22.96142
 30
0.0
 70
     8
  0
VERTEX
  5
32F67
330
19F2F
100
AcDbEntity
  8
TITLE_BLOCK
  6
CONTINUOUS
 62
     7
100
AcDbVertex
100
AcDb2dVertex
 10
-20.606317
 20
-22.982683
 30
0.0
 70
     8
  0
VERTEX
  5
32F68
330
19F2F
100
AcDbEntity
  8
TITLE_BLOCK
  6
CONTINUOUS
 62
     7
100
AcDbVertex
100
AcDb2dVertex
 10
-20.605668
 20
-23.004059
 30
0.0
 70
     8
  0
VERTEX
  5
32F69
330
19F2F
100
AcDbEntity
  8
TITLE_BLOCK
  6
CONTINUOUS
 62
     7
100
AcDbVertex
100
AcDb2dVertex
 10
-20.606638
 20
-23.025431
 30
0.0
 70
     8
  0
VERTEX
  5
32F6A
330
19F2F
100
AcDbEntity
  8
TITLE_BLOCK
  6
CONTINUOUS
 62
     7
100
AcDbVertex
100
AcDb2dVertex
 10
-20.609251
 20
-23.046684
 30
0.0
 70
     8
  0
VERTEX
  5
32F6B
330
19F2F
100
AcDbEntity
  8
TITLE_BLOCK
  6
CONTINUOUS
 62
     7
100
AcDbVertex
100
AcDb2dVertex
 10
-20.613528
 20
-23.067701
 30
0.0
 70
     8
  0
VERTEX
  5
32F6C
330
19F2F
100
AcDbEntity
  8
TITLE_BLOCK
  6
CONTINUOUS
 62
     7
100
AcDbVertex
100
AcDb2dVertex
 10
-20.619491
 20
-23.088365
 30
0.0
 70
     8
  0
VERTEX
  5
32F6D
330
19F2F
100
AcDbEntity
  8
TITLE_BLOCK
  6
CONTINUOUS
 62
     7
100
AcDbVertex
100
AcDb2dVertex
 10
-20.627163
 20
-23.108559
 30
0.0
 70
     8
  0
VERTEX
  5
32F6E
330
19F2F
100
AcDbEntity
  8
TITLE_BLOCK
  6
CONTINUOUS
 62
     7
100
AcDbVertex
100
AcDb2dVertex
 10
-20.636566
 20
-23.128168
 30
0.0
 70
     8
  0
VERTEX
  5
32F6F
330
19F2F
100
AcDbEntity
  8
TITLE_BLOCK
  6
CONTINUOUS
 62
     7
100
AcDbVertex
100
AcDb2dVertex
 10
-20.64816
 20
-23.14971
 30
0.0
 70
     8
  0
VERTEX
  5
32F70
330
19F2F
100
AcDbEntity
  8
TITLE_BLOCK
  6
CONTINUOUS
 62
     7
100
AcDbVertex
100
AcDb2dVertex
 10
-20.661945
 20
-23.168294
 30
0.0
 70
     8
  0
VERTEX
  5
32F71
330
19F2F
100
AcDbEntity
  8
TITLE_BLOCK
  6
CONTINUOUS
 62
     7
100
AcDbVertex
100
AcDb2dVertex
 10
-20.677702
 20
-23.184159
 30
0.0
 70
     8
  0
VERTEX
  5
32F72
330
19F2F
100
AcDbEntity
  8
TITLE_BLOCK
  6
CONTINUOUS
 62
     7
100
AcDbVertex
100
AcDb2dVertex
 10
-20.695213
 20
-23.197545
 30
0.0
 70
     8
  0
VERTEX
  5
32F73
330
19F2F
100
AcDbEntity
  8
TITLE_BLOCK
  6
CONTINUOUS
 62
     7
100
AcDbVertex
100
AcDb2dVertex
 10
-20.714258
 20
-23.208689
 30
0.0
 70
     8
  0
VERTEX
  5
32F74
330
19F2F
100
AcDbEntity
  8
TITLE_BLOCK
  6
CONTINUOUS
 62
     7
100
AcDbVertex
100
AcDb2dVertex
 10
-20.73462
 20
-23.217832
 30
0.0
 70
     8
  0
VERTEX
  5
32F75
330
19F2F
100
AcDbEntity
  8
TITLE_BLOCK
  6
CONTINUOUS
 62
     7
100
AcDbVertex
100
AcDb2dVertex
 10
-20.75608
 20
-23.225212
 30
0.0
 70
     8
  0
VERTEX
  5
32F76
330
19F2F
100
AcDbEntity
  8
TITLE_BLOCK
  6
CONTINUOUS
 62
     7
100
AcDbVertex
100
AcDb2dVertex
 10
-20.778419
 20
-23.231069
 30
0.0
 70
     8
  0
VERTEX
  5
32F77
330
19F2F
100
AcDbEntity
  8
TITLE_BLOCK
  6
CONTINUOUS
 62
     7
100
AcDbVertex
100
AcDb2dVertex
 10
-20.824861
 20
-23.239168
 30
0.0
 70
     8
  0
VERTEX
  5
32F78
330
19F2F
100
AcDbEntity
  8
TITLE_BLOCK
  6
CONTINUOUS
 62
     7
100
AcDbVertex
100
AcDb2dVertex
 10
-20.872198
 20
-23.244041
 30
0.0
 70
     8
  0
VERTEX
  5
32F79
330
19F2F
100
AcDbEntity
  8
TITLE_BLOCK
  6
CONTINUOUS
 62
     7
100
AcDbVertex
100
AcDb2dVertex
 10
-20.962562
 20
-23.251762
 30
0.0
 70
     8
  0
VERTEX
  5
32F7A
330
19F2F
100
AcDbEntity
  8
TITLE_BLOCK
  6
CONTINUOUS
 62
     7
100
AcDbVertex
100
AcDb2dVertex
 10
-20.960961
 20
-23.442582
 30
0.0
 70
     8
  0
VERTEX
  5
32F7B
330
19F2F
100
AcDbEntity
  8
TITLE_BLOCK
  6
CONTINUOUS
 62
     7
100
AcDbVertex
100
AcDb2dVertex
 10
-21.161371
 20
-23.447387
 30
0.0
 70
     8
  0
VERTEX
  5
32F7C
330
19F2F
100
AcDbEntity
  8
TITLE_BLOCK
  6
CONTINUOUS
 62
     7
100
AcDbVertex
100
AcDb2dVertex
 10
-21.163063
 20
-23.27632
 30
0.0
 70
     8
  0
VERTEX
  5
32F7D
330
19F2F
100
AcDbEntity
  8
TITLE_BLOCK
  6
CONTINUOUS
 62
     7
100
AcDbVertex
100
AcDb2dVertex
 10
-21.16266
 20
-23.10518
 30
0.0
 70
     8
  0
VERTEX
  5
32F7E
330
19F2F
100
AcDbEntity
  8
TITLE_BLOCK
  6
CONTINUOUS
 62
     7
100
AcDbVertex
100
AcDb2dVertex
 10
-21.162711
 20
-22.93404
 30
0.0
 70
     8
  0
VERTEX
  5
32F7F
330
19F2F
100
AcDbEntity
  8
TITLE_BLOCK
  6
CONTINUOUS
 62
     7
100
AcDbVertex
100
AcDb2dVertex
 10
-21.165765
 20
-22.762973
 30
0.0
 70
     8
  0
VERTEX
  5
32F80
330
19F2F
100
AcDbEntity
  8
TITLE_BLOCK
  6
CONTINUOUS
 62
     7
100
AcDbVertex
100
AcDb2dVertex
 10
-21.165765
 20
-22.762973
 30
0.0
 70
     8
  0
VERTEX
  5
32F81
330
19F2F
100
AcDbEntity
  8
TITLE_BLOCK
  6
CONTINUOUS
 62
     7
100
AcDbVertex
100
AcDb2dVertex
 10
-21.165765
 20
-22.762973
 30
0.0
 70
    16
  0
VERTEX
  5
32F82
330
19F2F
100
AcDbEntity
  8
TITLE_BLOCK
  6
CONTINUOUS
 62
     7
100
AcDbVertex
100
AcDb2dVertex
 10
-21.004964
 20
-22.777387
 30
0.0
 70
    16
  0
VERTEX
  5
32F83
330
19F2F
100
AcDbEntity
  8
TITLE_BLOCK
  6
CONTINUOUS
 62
     7
100
AcDbVertex
100
AcDb2dVertex
 10
-20.828968
 20
-22.726957
 30
0.0
 70
    16
  0
VERTEX
  5
32F84
330
19F2F
100
AcDbEntity
  8
TITLE_BLOCK
  6
CONTINUOUS
 62
     7
100
AcDbVertex
100
AcDb2dVertex
 10
-20.681371
 20
-22.809379
 30
0.0
 70
    16
  0
VERTEX
  5
32F85
330
19F2F
100
AcDbEntity
  8
TITLE_BLOCK
  6
CONTINUOUS
 62
     7
100
AcDbVertex
100
AcDb2dVertex
 10
-20.601761
 20
-22.892582
 30
0.0
 70
    16
  0
VERTEX
  5
32F86
330
19F2F
100
AcDbEntity
  8
TITLE_BLOCK
  6
CONTINUOUS
 62
     7
100
AcDbVertex
100
AcDb2dVertex
 10
-20.581761
 20
-23.025356
 30
0.0
 70
    16
  0
VERTEX
  5
32F87
330
19F2F
100
AcDbEntity
  8
TITLE_BLOCK
  6
CONTINUOUS
 62
     7
100
AcDbVertex
100
AcDb2dVertex
 10
-20.636566
 20
-23.128168
 30
0.0
 70
    16
  0
VERTEX
  5
32F88
330
19F2F
100
AcDbEntity
  8
TITLE_BLOCK
  6
CONTINUOUS
 62
     7
100
AcDbVertex
100
AcDb2dVertex
 10
-20.692172
 20
-23.251372
 30
0.0
 70
    16
  0
VERTEX
  5
32F89
330
19F2F
100
AcDbEntity
  8
TITLE_BLOCK
  6
CONTINUOUS
 62
     7
100
AcDbVertex
100
AcDb2dVertex
 10
-20.85057
 20
-23.238168
 30
0.0
 70
    16
  0
VERTEX
  5
32F8A
330
19F2F
100
AcDbEntity
  8
TITLE_BLOCK
  6
CONTINUOUS
 62
     7
100
AcDbVertex
100
AcDb2dVertex
 10
-20.962562
 20
-23.251762
 30
0.0
 70
    16
  0
VERTEX
  5
32F8B
330
19F2F
100
AcDbEntity
  8
TITLE_BLOCK
  6
CONTINUOUS
 62
     7
100
AcDbVertex
100
AcDb2dVertex
 10
-20.962172
 20
-23.315356
 30
0.0
 70
    16
  0
VERTEX
  5
32F8C
330
19F2F
100
AcDbEntity
  8
TITLE_BLOCK
  6
CONTINUOUS
 62
     7
100
AcDbVertex
100
AcDb2dVertex
 10
-20.961371
 20
-23.378989
 30
0.0
 70
    16
  0
VERTEX
  5
32F8D
330
19F2F
100
AcDbEntity
  8
TITLE_BLOCK
  6
CONTINUOUS
 62
     7
100
AcDbVertex
100
AcDb2dVertex
 10
-20.960961
 20
-23.442582
 30
0.0
 70
    16
  0
VERTEX
  5
32F8E
330
19F2F
100
AcDbEntity
  8
TITLE_BLOCK
  6
CONTINUOUS
 62
     7
100
AcDbVertex
100
AcDb2dVertex
 10
-21.027757
 20
-23.443793
 30
0.0
 70
    16
  0
VERTEX
  5
32F8F
330
19F2F
100
AcDbEntity
  8
TITLE_BLOCK
  6
CONTINUOUS
 62
     7
100
AcDbVertex
100
AcDb2dVertex
 10
-21.094554
 20
-23.445356
 30
0.0
 70
    16
  0
VERTEX
  5
32F90
330
19F2F
100
AcDbEntity
  8
TITLE_BLOCK
  6
CONTINUOUS
 62
     7
100
AcDbVertex
100
AcDb2dVertex
 10
-21.161371
 20
-23.447387
 30
0.0
 70
    16
  0
VERTEX
  5
32F91
330
19F2F
100
AcDbEntity
  8
TITLE_BLOCK
  6
CONTINUOUS
 62
     7
100
AcDbVertex
100
AcDb2dVertex
 10
-21.166156
 20
-23.219379
 30
0.0
 70
    16
  0
VERTEX
  5
32F92
330
19F2F
100
AcDbEntity
  8
TITLE_BLOCK
  6
CONTINUOUS
 62
     7
100
AcDbVertex
100
AcDb2dVertex
 10
-21.158558
 20
-22.990981
 30
0.0
 70
    16
  0
VERTEX
  5
32F93
330
19F2F
100
AcDbEntity
  8
TITLE_BLOCK
  6
CONTINUOUS
 62
     7
100
AcDbVertex
100
AcDb2dVertex
 10
-21.165765
 20
-22.762973
 30
0.0
 70
    16
  0
VERTEX
  5
32F94
330
19F2F
100
AcDbEntity
  8
TITLE_BLOCK
  6
CONTINUOUS
 62
     7
100
AcDbVertex
100
AcDb2dVertex
 10
-21.165765
 20
-22.762973
 30
0.0
 70
    16
  0
VERTEX
  5
32F95
330
19F2F
100
AcDbEntity
  8
TITLE_BLOCK
  6
CONTINUOUS
 62
     7
100
AcDbVertex
100
AcDb2dVertex
 10
-21.165765
 20
-22.762973
 30
0.0
 70
    16
  0
VERTEX
  5
32F96
330
19F2F
100
AcDbEntity
  8
TITLE_BLOCK
  6
CONTINUOUS
 62
     7
100
AcDbVertex
100
AcDb2dVertex
 10
-21.165765
 20
-22.762973
 30
0.0
 70
    16
  0
SEQEND
  5
32F97
330
19F2F
100
AcDbEntity
  8
TITLE_BLOCK
  6
CONTINUOUS
 62
     7
  0
POLYLINE
  5
19F73
330
32D05
100
AcDbEntity
  8
TITLE_BLOCK
  6
CONTINUOUS
 62
     7
100
AcDb2dPolyline
 66
     1
 10
0.0
 20
0.0
 30
0.0
 70
     5
 75
     5
  0
VERTEX
  5
32F98
330
19F73
100
AcDbEntity
  8
TITLE_BLOCK
  6
CONTINUOUS
 62
     7
100
AcDbVertex
100
AcDb2dVertex
 10
-20.298968
 20
-22.764184
 30
0.0
 70
     8
  0
VERTEX
  5
32F99
330
19F73
100
AcDbEntity
  8
TITLE_BLOCK
  6
CONTINUOUS
 62
     7
100
AcDbVertex
100
AcDb2dVertex
 10
-20.23593
 20
-22.768387
 30
0.0
 70
     8
  0
VERTEX
  5
32F9A
330
19F73
100
AcDbEntity
  8
TITLE_BLOCK
  6
CONTINUOUS
 62
     7
100
AcDbVertex
100
AcDb2dVertex
 10
-20.173309
 20
-22.776831
 30
0.0
 70
     8
  0
VERTEX
  5
32F9B
330
19F73
100
AcDbEntity
  8
TITLE_BLOCK
  6
CONTINUOUS
 62
     7
100
AcDbVertex
100
AcDb2dVertex
 10
-20.048558
 20
-22.799379
 30
0.0
 70
     8
  0
VERTEX
  5
32F9C
330
19F73
100
AcDbEntity
  8
TITLE_BLOCK
  6
CONTINUOUS
 62
     7
100
AcDbVertex
100
AcDb2dVertex
 10
-20.002909
 20
-22.880073
 30
0.0
 70
     8
  0
VERTEX
  5
32F9D
330
19F73
100
AcDbEntity
  8
TITLE_BLOCK
  6
CONTINUOUS
 62
     7
100
AcDbVertex
100
AcDb2dVertex
 10
-19.96057
 20
-22.962582
 30
0.0
 70
     8
  0
VERTEX
  5
32F9E
330
19F73
100
AcDbEntity
  8
TITLE_BLOCK
  6
CONTINUOUS
 62
     7
100
AcDbVertex
100
AcDb2dVertex
 10
-20.021101
 20
-22.965157
 30
0.0
 70
     8
  0
VERTEX
  5
32F9F
330
19F73
100
AcDbEntity
  8
TITLE_BLOCK
  6
CONTINUOUS
 62
     7
100
AcDbVertex
100
AcDb2dVertex
 10
-20.081859
 20
-22.966127
 30
0.0
 70
     8
  0
VERTEX
  5
32FA0
330
19F73
100
AcDbEntity
  8
TITLE_BLOCK
  6
CONTINUOUS
 62
     7
100
AcDbVertex
100
AcDb2dVertex
 10
-20.111643
 20
-22.963395
 30
0.0
 70
     8
  0
VERTEX
  5
32FA1
330
19F73
100
AcDbEntity
  8
TITLE_BLOCK
  6
CONTINUOUS
 62
     7
100
AcDbVertex
100
AcDb2dVertex
 10
-20.140669
 20
-22.957122
 30
0.0
 70
     8
  0
VERTEX
  5
32FA2
330
19F73
100
AcDbEntity
  8
TITLE_BLOCK
  6
CONTINUOUS
 62
     7
100
AcDbVertex
100
AcDb2dVertex
 10
-20.168663
 20
-22.946263
 30
0.0
 70
     8
  0
VERTEX
  5
32FA3
330
19F73
100
AcDbEntity
  8
TITLE_BLOCK
  6
CONTINUOUS
 62
     7
100
AcDbVertex
100
AcDb2dVertex
 10
-20.195355
 20
-22.92977
 30
0.0
 70
     8
  0
VERTEX
  5
32FA4
330
19F73
100
AcDbEntity
  8
TITLE_BLOCK
  6
CONTINUOUS
 62
     7
100
AcDbVertex
100
AcDb2dVertex
 10
-20.333754
 20
-22.926957
 30
0.0
 70
     8
  0
VERTEX
  5
32FA5
330
19F73
100
AcDbEntity
  8
TITLE_BLOCK
  6
CONTINUOUS
 62
     7
100
AcDbVertex
100
AcDb2dVertex
 10
-20.330629
 20
-22.947832
 30
0.0
 70
     8
  0
VERTEX
  5
32FA6
330
19F73
100
AcDbEntity
  8
TITLE_BLOCK
  6
CONTINUOUS
 62
     7
100
AcDbVertex
100
AcDb2dVertex
 10
-20.324601
 20
-22.965502
 30
0.0
 70
     8
  0
VERTEX
  5
32FA7
330
19F73
100
AcDbEntity
  8
TITLE_BLOCK
  6
CONTINUOUS
 62
     7
100
AcDbVertex
100
AcDb2dVertex
 10
-20.31596
 20
-22.98028
 30
0.0
 70
     8
  0
VERTEX
  5
32FA8
330
19F73
100
AcDbEntity
  8
TITLE_BLOCK
  6
CONTINUOUS
 62
     7
100
AcDbVertex
100
AcDb2dVertex
 10
-20.305
 20
-22.992479
 30
0.0
 70
     8
  0
VERTEX
  5
32FA9
330
19F73
100
AcDbEntity
  8
TITLE_BLOCK
  6
CONTINUOUS
 62
     7
100
AcDbVertex
100
AcDb2dVertex
 10
-20.292013
 20
-23.002411
 30
0.0
 70
     8
  0
VERTEX
  5
32FAA
330
19F73
100
AcDbEntity
  8
TITLE_BLOCK
  6
CONTINUOUS
 62
     7
100
AcDbVertex
100
AcDb2dVertex
 10
-20.277291
 20
-23.010388
 30
0.0
 70
     8
  0
VERTEX
  5
32FAB
330
19F73
100
AcDbEntity
  8
TITLE_BLOCK
  6
CONTINUOUS
 62
     7
100
AcDbVertex
100
AcDb2dVertex
 10
-20.243812
 20
-23.021728
 30
0.0
 70
     8
  0
VERTEX
  5
32FAC
330
19F73
100
AcDbEntity
  8
TITLE_BLOCK
  6
CONTINUOUS
 62
     7
100
AcDbVertex
100
AcDb2dVertex
 10
-20.206902
 20
-23.028997
 30
0.0
 70
     8
  0
VERTEX
  5
32FAD
330
19F73
100
AcDbEntity
  8
TITLE_BLOCK
  6
CONTINUOUS
 62
     7
100
AcDbVertex
100
AcDb2dVertex
 10
-20.168898
 20
-23.034695
 30
0.0
 70
     8
  0
VERTEX
  5
32FAE
330
19F73
100
AcDbEntity
  8
TITLE_BLOCK
  6
CONTINUOUS
 62
     7
100
AcDbVertex
100
AcDb2dVertex
 10
-20.132141
 20
-23.04132
 30
0.0
 70
     8
  0
VERTEX
  5
32FAF
330
19F73
100
AcDbEntity
  8
TITLE_BLOCK
  6
CONTINUOUS
 62
     7
100
AcDbVertex
100
AcDb2dVertex
 10
-20.098968
 20
-23.051372
 30
0.0
 70
     8
  0
VERTEX
  5
32FB0
330
19F73
100
AcDbEntity
  8
TITLE_BLOCK
  6
CONTINUOUS
 62
     7
100
AcDbVertex
100
AcDb2dVertex
 10
-20.075645
 20
-23.05566
 30
0.0
 70
     8
  0
VERTEX
  5
32FB1
330
19F73
100
AcDbEntity
  8
TITLE_BLOCK
  6
CONTINUOUS
 62
     7
100
AcDbVertex
100
AcDb2dVertex
 10
-20.053101
 20
-23.062943
 30
0.0
 70
     8
  0
VERTEX
  5
32FB2
330
19F73
100
AcDbEntity
  8
TITLE_BLOCK
  6
CONTINUOUS
 62
     7
100
AcDbVertex
100
AcDb2dVertex
 10
-20.031588
 20
-23.072951
 30
0.0
 70
     8
  0
VERTEX
  5
32FB3
330
19F73
100
AcDbEntity
  8
TITLE_BLOCK
  6
CONTINUOUS
 62
     7
100
AcDbVertex
100
AcDb2dVertex
 10
-20.01136
 20
-23.085416
 30
0.0
 70
     8
  0
VERTEX
  5
32FB4
330
19F73
100
AcDbEntity
  8
TITLE_BLOCK
  6
CONTINUOUS
 62
     7
100
AcDbVertex
100
AcDb2dVertex
 10
-19.99267
 20
-23.10007
 30
0.0
 70
     8
  0
VERTEX
  5
32FB5
330
19F73
100
AcDbEntity
  8
TITLE_BLOCK
  6
CONTINUOUS
 62
     7
100
AcDbVertex
100
AcDb2dVertex
 10
-19.975771
 20
-23.116645
 30
0.0
 70
     8
  0
VERTEX
  5
32FB6
330
19F73
100
AcDbEntity
  8
TITLE_BLOCK
  6
CONTINUOUS
 62
     7
100
AcDbVertex
100
AcDb2dVertex
 10
-19.960916
 20
-23.134871
 30
0.0
 70
     8
  0
VERTEX
  5
32FB7
330
19F73
100
AcDbEntity
  8
TITLE_BLOCK
  6
CONTINUOUS
 62
     7
100
AcDbVertex
100
AcDb2dVertex
 10
-19.948358
 20
-23.154482
 30
0.0
 70
     8
  0
VERTEX
  5
32FB8
330
19F73
100
AcDbEntity
  8
TITLE_BLOCK
  6
CONTINUOUS
 62
     7
100
AcDbVertex
100
AcDb2dVertex
 10
-19.93835
 20
-23.175208
 30
0.0
 70
     8
  0
VERTEX
  5
32FB9
330
19F73
100
AcDbEntity
  8
TITLE_BLOCK
  6
CONTINUOUS
 62
     7
100
AcDbVertex
100
AcDb2dVertex
 10
-19.931146
 20
-23.196781
 30
0.0
 70
     8
  0
VERTEX
  5
32FBA
330
19F73
100
AcDbEntity
  8
TITLE_BLOCK
  6
CONTINUOUS
 62
     7
100
AcDbVertex
100
AcDb2dVertex
 10
-19.926998
 20
-23.218934
 30
0.0
 70
     8
  0
VERTEX
  5
32FBB
330
19F73
100
AcDbEntity
  8
TITLE_BLOCK
  6
CONTINUOUS
 62
     7
100
AcDbVertex
100
AcDb2dVertex
 10
-19.926159
 20
-23.241397
 30
0.0
 70
     8
  0
VERTEX
  5
32FBC
330
19F73
100
AcDbEntity
  8
TITLE_BLOCK
  6
CONTINUOUS
 62
     7
100
AcDbVertex
100
AcDb2dVertex
 10
-19.928883
 20
-23.263902
 30
0.0
 70
     8
  0
VERTEX
  5
32FBD
330
19F73
100
AcDbEntity
  8
TITLE_BLOCK
  6
CONTINUOUS
 62
     7
100
AcDbVertex
100
AcDb2dVertex
 10
-19.935422
 20
-23.286181
 30
0.0
 70
     8
  0
VERTEX
  5
32FBE
330
19F73
100
AcDbEntity
  8
TITLE_BLOCK
  6
CONTINUOUS
 62
     7
100
AcDbVertex
100
AcDb2dVertex
 10
-19.946031
 20
-23.307966
 30
0.0
 70
     8
  0
VERTEX
  5
32FBF
330
19F73
100
AcDbEntity
  8
TITLE_BLOCK
  6
CONTINUOUS
 62
     7
100
AcDbVertex
100
AcDb2dVertex
 10
-19.960961
 20
-23.328989
 30
0.0
 70
     8
  0
VERTEX
  5
32FC0
330
19F73
100
AcDbEntity
  8
TITLE_BLOCK
  6
CONTINUOUS
 62
     7
100
AcDbVertex
100
AcDb2dVertex
 10
-19.976654
 20
-23.345186
 30
0.0
 70
     8
  0
VERTEX
  5
32FC1
330
19F73
100
AcDbEntity
  8
TITLE_BLOCK
  6
CONTINUOUS
 62
     7
100
AcDbVertex
100
AcDb2dVertex
 10
-19.993449
 20
-23.36018
 30
0.0
 70
     8
  0
VERTEX
  5
32FC2
330
19F73
100
AcDbEntity
  8
TITLE_BLOCK
  6
CONTINUOUS
 62
     7
100
AcDbVertex
100
AcDb2dVertex
 10
-20.011256
 20
-23.373966
 30
0.0
 70
     8
  0
VERTEX
  5
32FC3
330
19F73
100
AcDbEntity
  8
TITLE_BLOCK
  6
CONTINUOUS
 62
     7
100
AcDbVertex
100
AcDb2dVertex
 10
-20.029984
 20
-23.386541
 30
0.0
 70
     8
  0
VERTEX
  5
32FC4
330
19F73
100
AcDbEntity
  8
TITLE_BLOCK
  6
CONTINUOUS
 62
     7
100
AcDbVertex
100
AcDb2dVertex
 10
-20.069849
 20
-23.408041
 30
0.0
 70
     8
  0
VERTEX
  5
32FC5
330
19F73
100
AcDbEntity
  8
TITLE_BLOCK
  6
CONTINUOUS
 62
     7
100
AcDbVertex
100
AcDb2dVertex
 10
-20.112328
 20
-23.424648
 30
0.0
 70
     8
  0
VERTEX
  5
32FC6
330
19F73
100
AcDbEntity
  8
TITLE_BLOCK
  6
CONTINUOUS
 62
     7
100
AcDbVertex
100
AcDb2dVertex
 10
-20.156706
 20
-23.436331
 30
0.0
 70
     8
  0
VERTEX
  5
32FC7
330
19F73
100
AcDbEntity
  8
TITLE_BLOCK
  6
CONTINUOUS
 62
     7
100
AcDbVertex
100
AcDb2dVertex
 10
-20.202265
 20
-23.44306
 30
0.0
 70
     8
  0
VERTEX
  5
32FC8
330
19F73
100
AcDbEntity
  8
TITLE_BLOCK
  6
CONTINUOUS
 62
     7
100
AcDbVertex
100
AcDb2dVertex
 10
-20.24829
 20
-23.444802
 30
0.0
 70
     8
  0
VERTEX
  5
32FC9
330
19F73
100
AcDbEntity
  8
TITLE_BLOCK
  6
CONTINUOUS
 62
     7
100
AcDbVertex
100
AcDb2dVertex
 10
-20.294066
 20
-23.441528
 30
0.0
 70
     8
  0
VERTEX
  5
32FCA
330
19F73
100
AcDbEntity
  8
TITLE_BLOCK
  6
CONTINUOUS
 62
     7
100
AcDbVertex
100
AcDb2dVertex
 10
-20.338876
 20
-23.433205
 30
0.0
 70
     8
  0
VERTEX
  5
32FCB
330
19F73
100
AcDbEntity
  8
TITLE_BLOCK
  6
CONTINUOUS
 62
     7
100
AcDbVertex
100
AcDb2dVertex
 10
-20.382004
 20
-23.419803
 30
0.0
 70
     8
  0
VERTEX
  5
32FCC
330
19F73
100
AcDbEntity
  8
TITLE_BLOCK
  6
CONTINUOUS
 62
     7
100
AcDbVertex
100
AcDb2dVertex
 10
-20.422734
 20
-23.40129
 30
0.0
 70
     8
  0
VERTEX
  5
32FCD
330
19F73
100
AcDbEntity
  8
TITLE_BLOCK
  6
CONTINUOUS
 62
     7
100
AcDbVertex
100
AcDb2dVertex
 10
-20.441976
 20
-23.390108
 30
0.0
 70
     8
  0
VERTEX
  5
32FCE
330
19F73
100
AcDbEntity
  8
TITLE_BLOCK
  6
CONTINUOUS
 62
     7
100
AcDbVertex
100
AcDb2dVertex
 10
-20.46035
 20
-23.377636
 30
0.0
 70
     8
  0
VERTEX
  5
32FCF
330
19F73
100
AcDbEntity
  8
TITLE_BLOCK
  6
CONTINUOUS
 62
     7
100
AcDbVertex
100
AcDb2dVertex
 10
-20.477766
 20
-23.363871
 30
0.0
 70
     8
  0
VERTEX
  5
32FD0
330
19F73
100
AcDbEntity
  8
TITLE_BLOCK
  6
CONTINUOUS
 62
     7
100
AcDbVertex
100
AcDb2dVertex
 10
-20.494136
 20
-23.348809
 30
0.0
 70
     8
  0
VERTEX
  5
32FD1
330
19F73
100
AcDbEntity
  8
TITLE_BLOCK
  6
CONTINUOUS
 62
     7
100
AcDbVertex
100
AcDb2dVertex
 10
-20.509369
 20
-23.332446
 30
0.0
 70
     8
  0
VERTEX
  5
32FD2
330
19F73
100
AcDbEntity
  8
TITLE_BLOCK
  6
CONTINUOUS
 62
     7
100
AcDbVertex
100
AcDb2dVertex
 10
-20.523376
 20
-23.314779
 30
0.0
 70
     8
  0
VERTEX
  5
32FD3
330
19F73
100
AcDbEntity
  8
TITLE_BLOCK
  6
CONTINUOUS
 62
     7
100
AcDbVertex
100
AcDb2dVertex
 10
-20.536068
 20
-23.295802
 30
0.0
 70
     8
  0
VERTEX
  5
32FD4
330
19F73
100
AcDbEntity
  8
TITLE_BLOCK
  6
CONTINUOUS
 62
     7
100
AcDbVertex
100
AcDb2dVertex
 10
-20.547355
 20
-23.275513
 30
0.0
 70
     8
  0
VERTEX
  5
32FD5
330
19F73
100
AcDbEntity
  8
TITLE_BLOCK
  6
CONTINUOUS
 62
     7
100
AcDbVertex
100
AcDb2dVertex
 10
-20.557147
 20
-23.253907
 30
0.0
 70
     8
  0
VERTEX
  5
32FD6
330
19F73
100
AcDbEntity
  8
TITLE_BLOCK
  6
CONTINUOUS
 62
     7
100
AcDbVertex
100
AcDb2dVertex
 10
-20.565355
 20
-23.230981
 30
0.0
 70
     8
  0
VERTEX
  5
32FD7
330
19F73
100
AcDbEntity
  8
TITLE_BLOCK
  6
CONTINUOUS
 62
     7
100
AcDbVertex
100
AcDb2dVertex
 10
-20.474359
 20
-23.217675
 30
0.0
 70
     8
  0
VERTEX
  5
32FD8
330
19F73
100
AcDbEntity
  8
TITLE_BLOCK
  6
CONTINUOUS
 62
     7
100
AcDbVertex
100
AcDb2dVertex
 10
-20.383363
 20
-23.202582
 30
0.0
 70
     8
  0
VERTEX
  5
32FD9
330
19F73
100
AcDbEntity
  8
TITLE_BLOCK
  6
CONTINUOUS
 62
     7
100
AcDbVertex
100
AcDb2dVertex
 10
-20.373893
 20
-23.222032
 30
0.0
 70
     8
  0
VERTEX
  5
32FDA
330
19F73
100
AcDbEntity
  8
TITLE_BLOCK
  6
CONTINUOUS
 62
     7
100
AcDbVertex
100
AcDb2dVertex
 10
-20.362697
 20
-23.238261
 30
0.0
 70
     8
  0
VERTEX
  5
32FDB
330
19F73
100
AcDbEntity
  8
TITLE_BLOCK
  6
CONTINUOUS
 62
     7
100
AcDbVertex
100
AcDb2dVertex
 10
-20.349941
 20
-23.251527
 30
0.0
 70
     8
  0
VERTEX
  5
32FDC
330
19F73
100
AcDbEntity
  8
TITLE_BLOCK
  6
CONTINUOUS
 62
     7
100
AcDbVertex
100
AcDb2dVertex
 10
-20.335793
 20
-23.262088
 30
0.0
 70
     8
  0
VERTEX
  5
32FDD
330
19F73
100
AcDbEntity
  8
TITLE_BLOCK
  6
CONTINUOUS
 62
     7
100
AcDbVertex
100
AcDb2dVertex
 10
-20.320419
 20
-23.2702
 30
0.0
 70
     8
  0
VERTEX
  5
32FDE
330
19F73
100
AcDbEntity
  8
TITLE_BLOCK
  6
CONTINUOUS
 62
     7
100
AcDbVertex
100
AcDb2dVertex
 10
-20.303987
 20
-23.276121
 30
0.0
 70
     8
  0
VERTEX
  5
32FDF
330
19F73
100
AcDbEntity
  8
TITLE_BLOCK
  6
CONTINUOUS
 62
     7
100
AcDbVertex
100
AcDb2dVertex
 10
-20.286663
 20
-23.280107
 30
0.0
 70
     8
  0
VERTEX
  5
32FE0
330
19F73
100
AcDbEntity
  8
TITLE_BLOCK
  6
CONTINUOUS
 62
     7
100
AcDbVertex
100
AcDb2dVertex
 10
-20.268614
 20
-23.282416
 30
0.0
 70
     8
  0
VERTEX
  5
32FE1
330
19F73
100
AcDbEntity
  8
TITLE_BLOCK
  6
CONTINUOUS
 62
     7
100
AcDbVertex
100
AcDb2dVertex
 10
-20.231011
 20
-23.283032
 30
0.0
 70
     8
  0
VERTEX
  5
32FE2
330
19F73
100
AcDbEntity
  8
TITLE_BLOCK
  6
CONTINUOUS
 62
     7
100
AcDbVertex
100
AcDb2dVertex
 10
-20.192511
 20
-23.280025
 30
0.0
 70
     8
  0
VERTEX
  5
32FE3
330
19F73
100
AcDbEntity
  8
TITLE_BLOCK
  6
CONTINUOUS
 62
     7
100
AcDbVertex
100
AcDb2dVertex
 10
-20.118168
 20
-23.271372
 30
0.0
 70
     8
  0
VERTEX
  5
32FE4
330
19F73
100
AcDbEntity
  8
TITLE_BLOCK
  6
CONTINUOUS
 62
     7
100
AcDbVertex
100
AcDb2dVertex
 10
-20.13057
 20
-23.183793
 30
0.0
 70
     8
  0
VERTEX
  5
32FE5
330
19F73
100
AcDbEntity
  8
TITLE_BLOCK
  6
CONTINUOUS
 62
     7
100
AcDbVertex
100
AcDb2dVertex
 10
-20.251894
 20
-23.156127
 30
0.0
 70
     8
  0
VERTEX
  5
32FE6
330
19F73
100
AcDbEntity
  8
TITLE_BLOCK
  6
CONTINUOUS
 62
     7
100
AcDbVertex
100
AcDb2dVertex
 10
-20.313367
 20
-23.139816
 30
0.0
 70
     8
  0
VERTEX
  5
32FE7
330
19F73
100
AcDbEntity
  8
TITLE_BLOCK
  6
CONTINUOUS
 62
     7
100
AcDbVertex
100
AcDb2dVertex
 10
-20.343266
 20
-23.130064
 30
0.0
 70
     8
  0
VERTEX
  5
32FE8
330
19F73
100
AcDbEntity
  8
TITLE_BLOCK
  6
CONTINUOUS
 62
     7
100
AcDbVertex
100
AcDb2dVertex
 10
-20.372211
 20
-23.118876
 30
0.0
 70
     8
  0
VERTEX
  5
32FE9
330
19F73
100
AcDbEntity
  8
TITLE_BLOCK
  6
CONTINUOUS
 62
     7
100
AcDbVertex
100
AcDb2dVertex
 10
-20.399904
 20
-23.105973
 30
0.0
 70
     8
  0
VERTEX
  5
32FEA
330
19F73
100
AcDbEntity
  8
TITLE_BLOCK
  6
CONTINUOUS
 62
     7
100
AcDbVertex
100
AcDb2dVertex
 10
-20.426048
 20
-23.091076
 30
0.0
 70
     8
  0
VERTEX
  5
32FEB
330
19F73
100
AcDbEntity
  8
TITLE_BLOCK
  6
CONTINUOUS
 62
     7
100
AcDbVertex
100
AcDb2dVertex
 10
-20.450347
 20
-23.073905
 30
0.0
 70
     8
  0
VERTEX
  5
32FEC
330
19F73
100
AcDbEntity
  8
TITLE_BLOCK
  6
CONTINUOUS
 62
     7
100
AcDbVertex
100
AcDb2dVertex
 10
-20.472503
 20
-23.054182
 30
0.0
 70
     8
  0
VERTEX
  5
32FED
330
19F73
100
AcDbEntity
  8
TITLE_BLOCK
  6
CONTINUOUS
 62
     7
100
AcDbVertex
100
AcDb2dVertex
 10
-20.492219
 20
-23.031628
 30
0.0
 70
     8
  0
VERTEX
  5
32FEE
330
19F73
100
AcDbEntity
  8
TITLE_BLOCK
  6
CONTINUOUS
 62
     7
100
AcDbVertex
100
AcDb2dVertex
 10
-20.509197
 20
-23.005962
 30
0.0
 70
     8
  0
VERTEX
  5
32FEF
330
19F73
100
AcDbEntity
  8
TITLE_BLOCK
  6
CONTINUOUS
 62
     7
100
AcDbVertex
100
AcDb2dVertex
 10
-20.523141
 20
-22.976908
 30
0.0
 70
     8
  0
VERTEX
  5
32FF0
330
19F73
100
AcDbEntity
  8
TITLE_BLOCK
  6
CONTINUOUS
 62
     7
100
AcDbVertex
100
AcDb2dVertex
 10
-20.533754
 20
-22.944184
 30
0.0
 70
     8
  0
VERTEX
  5
32FF1
330
19F73
100
AcDbEntity
  8
TITLE_BLOCK
  6
CONTINUOUS
 62
     7
100
AcDbVertex
100
AcDb2dVertex
 10
-20.484466
 20
-22.874384
 30
0.0
 70
     8
  0
VERTEX
  5
32FF2
330
19F73
100
AcDbEntity
  8
TITLE_BLOCK
  6
CONTINUOUS
 62
     7
100
AcDbVertex
100
AcDb2dVertex
 10
-20.433363
 20
-22.805786
 30
0.0
 70
     8
  0
VERTEX
  5
32FF3
330
19F73
100
AcDbEntity
  8
TITLE_BLOCK
  6
CONTINUOUS
 62
     7
100
AcDbVertex
100
AcDb2dVertex
 10
-20.365865
 20
-22.786332
 30
0.0
 70
     8
  0
VERTEX
  5
32FF4
330
19F73
100
AcDbEntity
  8
TITLE_BLOCK
  6
CONTINUOUS
 62
     7
100
AcDbVertex
100
AcDb2dVertex
 10
-20.298968
 20
-22.764184
 30
0.0
 70
     8
  0
VERTEX
  5
32FF5
330
19F73
100
AcDbEntity
  8
TITLE_BLOCK
  6
CONTINUOUS
 62
     7
100
AcDbVertex
100
AcDb2dVertex
 10
-20.298968
 20
-22.764184
 30
0.0
 70
     8
  0
VERTEX
  5
32FF6
330
19F73
100
AcDbEntity
  8
TITLE_BLOCK
  6
CONTINUOUS
 62
     7
100
AcDbVertex
100
AcDb2dVertex
 10
-20.298968
 20
-22.764184
 30
0.0
 70
    16
  0
VERTEX
  5
32FF7
330
19F73
100
AcDbEntity
  8
TITLE_BLOCK
  6
CONTINUOUS
 62
     7
100
AcDbVertex
100
AcDb2dVertex
 10
-20.214554
 20
-22.766176
 30
0.0
 70
    16
  0
VERTEX
  5
32FF8
330
19F73
100
AcDbEntity
  8
TITLE_BLOCK
  6
CONTINUOUS
 62
     7
100
AcDbVertex
100
AcDb2dVertex
 10
-20.131761
 20
-22.784184
 30
0.0
 70
    16
  0
VERTEX
  5
32FF9
330
19F73
100
AcDbEntity
  8
TITLE_BLOCK
  6
CONTINUOUS
 62
     7
100
AcDbVertex
100
AcDb2dVertex
 10
-20.048558
 20
-22.799379
 30
0.0
 70
    16
  0
VERTEX
  5
32FFA
330
19F73
100
AcDbEntity
  8
TITLE_BLOCK
  6
CONTINUOUS
 62
     7
100
AcDbVertex
100
AcDb2dVertex
 10
-20.016957
 20
-22.852582
 30
0.0
 70
    16
  0
VERTEX
  5
32FFB
330
19F73
100
AcDbEntity
  8
TITLE_BLOCK
  6
CONTINUOUS
 62
     7
100
AcDbVertex
100
AcDb2dVertex
 10
-19.987757
 20
-22.906957
 30
0.0
 70
    16
  0
VERTEX
  5
32FFC
330
19F73
100
AcDbEntity
  8
TITLE_BLOCK
  6
CONTINUOUS
 62
     7
100
AcDbVertex
100
AcDb2dVertex
 10
-19.96057
 20
-22.962582
 30
0.0
 70
    16
  0
VERTEX
  5
32FFD
330
19F73
100
AcDbEntity
  8
TITLE_BLOCK
  6
CONTINUOUS
 62
     7
100
AcDbVertex
100
AcDb2dVertex
 10
-20.04016
 20
-22.963364
 30
0.0
 70
    16
  0
VERTEX
  5
32FFE
330
19F73
100
AcDbEntity
  8
TITLE_BLOCK
  6
CONTINUOUS
 62
     7
100
AcDbVertex
100
AcDb2dVertex
 10
-20.126156
 20
-22.982192
 30
0.0
 70
    16
  0
VERTEX
  5
32FFF
330
19F73
100
AcDbEntity
  8
TITLE_BLOCK
  6
CONTINUOUS
 62
     7
100
AcDbVertex
100
AcDb2dVertex
 10
-20.195355
 20
-22.92977
 30
0.0
 70
    16
  0
VERTEX
  5
33000
330
19F73
100
AcDbEntity
  8
TITLE_BLOCK
  6
CONTINUOUS
 62
     7
100
AcDbVertex
100
AcDb2dVertex
 10
-20.241371
 20
-22.928168
 30
0.0
 70
    16
  0
VERTEX
  5
33001
330
19F73
100
AcDbEntity
  8
TITLE_BLOCK
  6
CONTINUOUS
 62
     7
100
AcDbVertex
100
AcDb2dVertex
 10
-20.287757
 20
-22.927387
 30
0.0
 70
    16
  0
VERTEX
  5
33002
330
19F73
100
AcDbEntity
  8
TITLE_BLOCK
  6
CONTINUOUS
 62
     7
100
AcDbVertex
100
AcDb2dVertex
 10
-20.333754
 20
-22.926957
 30
0.0
 70
    16
  0
VERTEX
  5
33003
330
19F73
100
AcDbEntity
  8
TITLE_BLOCK
  6
CONTINUOUS
 62
     7
100
AcDbVertex
100
AcDb2dVertex
 10
-20.325355
 20
-23.047387
 30
0.0
 70
    16
  0
VERTEX
  5
33004
330
19F73
100
AcDbEntity
  8
TITLE_BLOCK
  6
CONTINUOUS
 62
     7
100
AcDbVertex
100
AcDb2dVertex
 10
-20.18057
 20
-23.017778
 30
0.0
 70
    16
  0
VERTEX
  5
33005
330
19F73
100
AcDbEntity
  8
TITLE_BLOCK
  6
CONTINUOUS
 62
     7
100
AcDbVertex
100
AcDb2dVertex
 10
-20.098968
 20
-23.051372
 30
0.0
 70
    16
  0
VERTEX
  5
33006
330
19F73
100
AcDbEntity
  8
TITLE_BLOCK
  6
CONTINUOUS
 62
     7
100
AcDbVertex
100
AcDb2dVertex
 10
-19.972953
 20
-23.065786
 30
0.0
 70
    16
  0
VERTEX
  5
33007
330
19F73
100
AcDbEntity
  8
TITLE_BLOCK
  6
CONTINUOUS
 62
     7
100
AcDbVertex
100
AcDb2dVertex
 10
-19.869359
 20
-23.219379
 30
0.0
 70
    16
  0
VERTEX
  5
33008
330
19F73
100
AcDbEntity
  8
TITLE_BLOCK
  6
CONTINUOUS
 62
     7
100
AcDbVertex
100
AcDb2dVertex
 10
-19.960961
 20
-23.328989
 30
0.0
 70
    16
  0
VERTEX
  5
33009
330
19F73
100
AcDbEntity
  8
TITLE_BLOCK
  6
CONTINUOUS
 62
     7
100
AcDbVertex
100
AcDb2dVertex
 10
-20.122172
 20
-23.508168
 30
0.0
 70
    16
  0
VERTEX
  5
3300A
330
19F73
100
AcDbEntity
  8
TITLE_BLOCK
  6
CONTINUOUS
 62
     7
100
AcDbVertex
100
AcDb2dVertex
 10
-20.486566
 20
-23.482582
 30
0.0
 70
    16
  0
VERTEX
  5
3300B
330
19F73
100
AcDbEntity
  8
TITLE_BLOCK
  6
CONTINUOUS
 62
     7
100
AcDbVertex
100
AcDb2dVertex
 10
-20.565355
 20
-23.230981
 30
0.0
 70
    16
  0
VERTEX
  5
3300C
330
19F73
100
AcDbEntity
  8
TITLE_BLOCK
  6
CONTINUOUS
 62
     7
100
AcDbVertex
100
AcDb2dVertex
 10
-20.504554
 20
-23.222973
 30
0.0
 70
    16
  0
VERTEX
  5
3300D
330
19F73
100
AcDbEntity
  8
TITLE_BLOCK
  6
CONTINUOUS
 62
     7
100
AcDbVertex
100
AcDb2dVertex
 10
-20.444164
 20
-23.212973
 30
0.0
 70
    16
  0
VERTEX
  5
3300E
330
19F73
100
AcDbEntity
  8
TITLE_BLOCK
  6
CONTINUOUS
 62
     7
100
AcDbVertex
100
AcDb2dVertex
 10
-20.383363
 20
-23.202582
 30
0.0
 70
    16
  0
VERTEX
  5
3300F
330
19F73
100
AcDbEntity
  8
TITLE_BLOCK
  6
CONTINUOUS
 62
     7
100
AcDbVertex
100
AcDb2dVertex
 10
-20.337757
 20
-23.315356
 30
0.0
 70
    16
  0
VERTEX
  5
33010
330
19F73
100
AcDbEntity
  8
TITLE_BLOCK
  6
CONTINUOUS
 62
     7
100
AcDbVertex
100
AcDb2dVertex
 10
-20.211371
 20
-23.27977
 30
0.0
 70
    16
  0
VERTEX
  5
33011
330
19F73
100
AcDbEntity
  8
TITLE_BLOCK
  6
CONTINUOUS
 62
     7
100
AcDbVertex
100
AcDb2dVertex
 10
-20.118168
 20
-23.271372
 30
0.0
 70
    16
  0
VERTEX
  5
33012
330
19F73
100
AcDbEntity
  8
TITLE_BLOCK
  6
CONTINUOUS
 62
     7
100
AcDbVertex
100
AcDb2dVertex
 10
-20.121371
 20
-23.24977
 30
0.0
 70
    16
  0
VERTEX
  5
33013
330
19F73
100
AcDbEntity
  8
TITLE_BLOCK
  6
CONTINUOUS
 62
     7
100
AcDbVertex
100
AcDb2dVertex
 10
-20.127367
 20
-23.205786
 30
0.0
 70
    16
  0
VERTEX
  5
33014
330
19F73
100
AcDbEntity
  8
TITLE_BLOCK
  6
CONTINUOUS
 62
     7
100
AcDbVertex
100
AcDb2dVertex
 10
-20.13057
 20
-23.183793
 30
0.0
 70
    16
  0
VERTEX
  5
33015
330
19F73
100
AcDbEntity
  8
TITLE_BLOCK
  6
CONTINUOUS
 62
     7
100
AcDbVertex
100
AcDb2dVertex
 10
-20.284554
 20
-23.145356
 30
0.0
 70
    16
  0
VERTEX
  5
33016
330
19F73
100
AcDbEntity
  8
TITLE_BLOCK
  6
CONTINUOUS
 62
     7
100
AcDbVertex
100
AcDb2dVertex
 10
-20.486566
 20
-23.128989
 30
0.0
 70
    16
  0
VERTEX
  5
33017
330
19F73
100
AcDbEntity
  8
TITLE_BLOCK
  6
CONTINUOUS
 62
     7
100
AcDbVertex
100
AcDb2dVertex
 10
-20.533754
 20
-22.944184
 30
0.0
 70
    16
  0
VERTEX
  5
33018
330
19F73
100
AcDbEntity
  8
TITLE_BLOCK
  6
CONTINUOUS
 62
     7
100
AcDbVertex
100
AcDb2dVertex
 10
-20.501371
 20
-22.897387
 30
0.0
 70
    16
  0
VERTEX
  5
33019
330
19F73
100
AcDbEntity
  8
TITLE_BLOCK
  6
CONTINUOUS
 62
     7
100
AcDbVertex
100
AcDb2dVertex
 10
-20.468168
 20
-22.850981
 30
0.0
 70
    16
  0
VERTEX
  5
3301A
330
19F73
100
AcDbEntity
  8
TITLE_BLOCK
  6
CONTINUOUS
 62
     7
100
AcDbVertex
100
AcDb2dVertex
 10
-20.433363
 20
-22.805786
 30
0.0
 70
    16
  0
VERTEX
  5
3301B
330
19F73
100
AcDbEntity
  8
TITLE_BLOCK
  6
CONTINUOUS
 62
     7
100
AcDbVertex
100
AcDb2dVertex
 10
-20.388168
 20
-22.793793
 30
0.0
 70
    16
  0
VERTEX
  5
3301C
330
19F73
100
AcDbEntity
  8
TITLE_BLOCK
  6
CONTINUOUS
 62
     7
100
AcDbVertex
100
AcDb2dVertex
 10
-20.343363
 20
-22.77977
 30
0.0
 70
    16
  0
VERTEX
  5
3301D
330
19F73
100
AcDbEntity
  8
TITLE_BLOCK
  6
CONTINUOUS
 62
     7
100
AcDbVertex
100
AcDb2dVertex
 10
-20.298968
 20
-22.764184
 30
0.0
 70
    16
  0
VERTEX
  5
3301E
330
19F73
100
AcDbEntity
  8
TITLE_BLOCK
  6
CONTINUOUS
 62
     7
100
AcDbVertex
100
AcDb2dVertex
 10
-20.298968
 20
-22.764184
 30
0.0
 70
    16
  0
VERTEX
  5
3301F
330
19F73
100
AcDbEntity
  8
TITLE_BLOCK
  6
CONTINUOUS
 62
     7
100
AcDbVertex
100
AcDb2dVertex
 10
-20.298968
 20
-22.764184
 30
0.0
 70
    16
  0
VERTEX
  5
33020
330
19F73
100
AcDbEntity
  8
TITLE_BLOCK
  6
CONTINUOUS
 62
     7
100
AcDbVertex
100
AcDb2dVertex
 10
-20.298968
 20
-22.764184
 30
0.0
 70
    16
  0
SEQEND
  5
33021
330
19F73
100
AcDbEntity
  8
TITLE_BLOCK
  6
CONTINUOUS
 62
     7
  0
POLYLINE
  5
19FFD
330
32D05
100
AcDbEntity
  8
TITLE_BLOCK
  6
CONTINUOUS
 62
     7
100
AcDb2dPolyline
 66
     1
 10
0.0
 20
0.0
 30
0.0
 70
     5
 75
     5
  0
VERTEX
  5
33022
330
19FFD
100
AcDbEntity
  8
TITLE_BLOCK
  6
CONTINUOUS
 62
     7
100
AcDbVertex
100
AcDb2dVertex
 10
-19.800961
 20
-22.763364
 30
0.0
 70
     8
  0
VERTEX
  5
33023
330
19FFD
100
AcDbEntity
  8
TITLE_BLOCK
  6
CONTINUOUS
 62
     7
100
AcDbVertex
100
AcDb2dVertex
 10
-19.522511
 20
-22.765024
 30
0.0
 70
     8
  0
VERTEX
  5
33024
330
19FFD
100
AcDbEntity
  8
TITLE_BLOCK
  6
CONTINUOUS
 62
     7
100
AcDbVertex
100
AcDb2dVertex
 10
-19.243754
 20
-22.764575
 30
0.0
 70
     8
  0
VERTEX
  5
33025
330
19FFD
100
AcDbEntity
  8
TITLE_BLOCK
  6
CONTINUOUS
 62
     7
100
AcDbVertex
100
AcDb2dVertex
 10
-19.243754
 20
-22.923364
 30
0.0
 70
     8
  0
VERTEX
  5
33026
330
19FFD
100
AcDbEntity
  8
TITLE_BLOCK
  6
CONTINUOUS
 62
     7
100
AcDbVertex
100
AcDb2dVertex
 10
-19.605355
 20
-22.924184
 30
0.0
 70
     8
  0
VERTEX
  5
33027
330
19FFD
100
AcDbEntity
  8
TITLE_BLOCK
  6
CONTINUOUS
 62
     7
100
AcDbVertex
100
AcDb2dVertex
 10
-19.601761
 20
-23.004965
 30
0.0
 70
     8
  0
VERTEX
  5
33028
330
19FFD
100
AcDbEntity
  8
TITLE_BLOCK
  6
CONTINUOUS
 62
     7
100
AcDbVertex
100
AcDb2dVertex
 10
-19.440961
 20
-23.005678
 30
0.0
 70
     8
  0
VERTEX
  5
33029
330
19FFD
100
AcDbEntity
  8
TITLE_BLOCK
  6
CONTINUOUS
 62
     7
100
AcDbVertex
100
AcDb2dVertex
 10
-19.28016
 20
-23.004575
 30
0.0
 70
     8
  0
VERTEX
  5
3302A
330
19FFD
100
AcDbEntity
  8
TITLE_BLOCK
  6
CONTINUOUS
 62
     7
100
AcDbVertex
100
AcDb2dVertex
 10
-19.28057
 20
-23.168559
 30
0.0
 70
     8
  0
VERTEX
  5
3302B
330
19FFD
100
AcDbEntity
  8
TITLE_BLOCK
  6
CONTINUOUS
 62
     7
100
AcDbVertex
100
AcDb2dVertex
 10
-19.441517
 20
-23.164565
 30
0.0
 70
     8
  0
VERTEX
  5
3302C
330
19FFD
100
AcDbEntity
  8
TITLE_BLOCK
  6
CONTINUOUS
 62
     7
100
AcDbVertex
100
AcDb2dVertex
 10
-19.602172
 20
-23.162973
 30
0.0
 70
     8
  0
VERTEX
  5
3302D
330
19FFD
100
AcDbEntity
  8
TITLE_BLOCK
  6
CONTINUOUS
 62
     7
100
AcDbVertex
100
AcDb2dVertex
 10
-19.602562
 20
-23.285786
 30
0.0
 70
     8
  0
VERTEX
  5
3302E
330
19FFD
100
AcDbEntity
  8
TITLE_BLOCK
  6
CONTINUOUS
 62
     7
100
AcDbVertex
100
AcDb2dVertex
 10
-19.243363
 20
-23.28059
 30
0.0
 70
     8
  0
VERTEX
  5
3302F
330
19FFD
100
AcDbEntity
  8
TITLE_BLOCK
  6
CONTINUOUS
 62
     7
100
AcDbVertex
100
AcDb2dVertex
 10
-19.243363
 20
-23.443364
 30
0.0
 70
     8
  0
VERTEX
  5
33030
330
19FFD
100
AcDbEntity
  8
TITLE_BLOCK
  6
CONTINUOUS
 62
     7
100
AcDbVertex
100
AcDb2dVertex
 10
-19.524366
 20
-23.44476
 30
0.0
 70
     8
  0
VERTEX
  5
33031
330
19FFD
100
AcDbEntity
  8
TITLE_BLOCK
  6
CONTINUOUS
 62
     7
100
AcDbVertex
100
AcDb2dVertex
 10
-19.805355
 20
-23.442582
 30
0.0
 70
     8
  0
VERTEX
  5
33032
330
19FFD
100
AcDbEntity
  8
TITLE_BLOCK
  6
CONTINUOUS
 62
     7
100
AcDbVertex
100
AcDb2dVertex
 10
-19.803207
 20
-23.272778
 30
0.0
 70
     8
  0
VERTEX
  5
33033
330
19FFD
100
AcDbEntity
  8
TITLE_BLOCK
  6
CONTINUOUS
 62
     7
100
AcDbVertex
100
AcDb2dVertex
 10
-19.803158
 20
-23.102973
 30
0.0
 70
     8
  0
VERTEX
  5
33034
330
19FFD
100
AcDbEntity
  8
TITLE_BLOCK
  6
CONTINUOUS
 62
     7
100
AcDbVertex
100
AcDb2dVertex
 10
-19.803108
 20
-22.933168
 30
0.0
 70
     8
  0
VERTEX
  5
33035
330
19FFD
100
AcDbEntity
  8
TITLE_BLOCK
  6
CONTINUOUS
 62
     7
100
AcDbVertex
100
AcDb2dVertex
 10
-19.800961
 20
-22.763364
 30
0.0
 70
     8
  0
VERTEX
  5
33036
330
19FFD
100
AcDbEntity
  8
TITLE_BLOCK
  6
CONTINUOUS
 62
     7
100
AcDbVertex
100
AcDb2dVertex
 10
-19.800961
 20
-22.763364
 30
0.0
 70
     8
  0
VERTEX
  5
33037
330
19FFD
100
AcDbEntity
  8
TITLE_BLOCK
  6
CONTINUOUS
 62
     7
100
AcDbVertex
100
AcDb2dVertex
 10
-19.800961
 20
-22.763364
 30
0.0
 70
    16
  0
VERTEX
  5
33038
330
19FFD
100
AcDbEntity
  8
TITLE_BLOCK
  6
CONTINUOUS
 62
     7
100
AcDbVertex
100
AcDb2dVertex
 10
-19.615355
 20
-22.766176
 30
0.0
 70
    16
  0
VERTEX
  5
33039
330
19FFD
100
AcDbEntity
  8
TITLE_BLOCK
  6
CONTINUOUS
 62
     7
100
AcDbVertex
100
AcDb2dVertex
 10
-19.429769
 20
-22.764575
 30
0.0
 70
    16
  0
VERTEX
  5
3303A
330
19FFD
100
AcDbEntity
  8
TITLE_BLOCK
  6
CONTINUOUS
 62
     7
100
AcDbVertex
100
AcDb2dVertex
 10
-19.243754
 20
-22.764575
 30
0.0
 70
    16
  0
VERTEX
  5
3303B
330
19FFD
100
AcDbEntity
  8
TITLE_BLOCK
  6
CONTINUOUS
 62
     7
100
AcDbVertex
100
AcDb2dVertex
 10
-19.244164
 20
-22.817387
 30
0.0
 70
    16
  0
VERTEX
  5
3303C
330
19FFD
100
AcDbEntity
  8
TITLE_BLOCK
  6
CONTINUOUS
 62
     7
100
AcDbVertex
100
AcDb2dVertex
 10
-19.244164
 20
-22.870161
 30
0.0
 70
    16
  0
VERTEX
  5
3303D
330
19FFD
100
AcDbEntity
  8
TITLE_BLOCK
  6
CONTINUOUS
 62
     7
100
AcDbVertex
100
AcDb2dVertex
 10
-19.243754
 20
-22.923364
 30
0.0
 70
    16
  0
VERTEX
  5
3303E
330
19FFD
100
AcDbEntity
  8
TITLE_BLOCK
  6
CONTINUOUS
 62
     7
100
AcDbVertex
100
AcDb2dVertex
 10
-19.364554
 20
-22.923364
 30
0.0
 70
    16
  0
VERTEX
  5
3303F
330
19FFD
100
AcDbEntity
  8
TITLE_BLOCK
  6
CONTINUOUS
 62
     7
100
AcDbVertex
100
AcDb2dVertex
 10
-19.484964
 20
-22.923364
 30
0.0
 70
    16
  0
VERTEX
  5
33040
330
19FFD
100
AcDbEntity
  8
TITLE_BLOCK
  6
CONTINUOUS
 62
     7
100
AcDbVertex
100
AcDb2dVertex
 10
-19.605355
 20
-22.924184
 30
0.0
 70
    16
  0
VERTEX
  5
33041
330
19FFD
100
AcDbEntity
  8
TITLE_BLOCK
  6
CONTINUOUS
 62
     7
100
AcDbVertex
100
AcDb2dVertex
 10
-19.604554
 20
-22.944184
 30
0.0
 70
    16
  0
VERTEX
  5
33042
330
19FFD
100
AcDbEntity
  8
TITLE_BLOCK
  6
CONTINUOUS
 62
     7
100
AcDbVertex
100
AcDb2dVertex
 10
-19.602562
 20
-22.984575
 30
0.0
 70
    16
  0
VERTEX
  5
33043
330
19FFD
100
AcDbEntity
  8
TITLE_BLOCK
  6
CONTINUOUS
 62
     7
100
AcDbVertex
100
AcDb2dVertex
 10
-19.601761
 20
-23.004965
 30
0.0
 70
    16
  0
VERTEX
  5
33044
330
19FFD
100
AcDbEntity
  8
TITLE_BLOCK
  6
CONTINUOUS
 62
     7
100
AcDbVertex
100
AcDb2dVertex
 10
-19.494554
 20
-23.006176
 30
0.0
 70
    16
  0
VERTEX
  5
33045
330
19FFD
100
AcDbEntity
  8
TITLE_BLOCK
  6
CONTINUOUS
 62
     7
100
AcDbVertex
100
AcDb2dVertex
 10
-19.387367
 20
-23.005786
 30
0.0
 70
    16
  0
VERTEX
  5
33046
330
19FFD
100
AcDbEntity
  8
TITLE_BLOCK
  6
CONTINUOUS
 62
     7
100
AcDbVertex
100
AcDb2dVertex
 10
-19.28016
 20
-23.004575
 30
0.0
 70
    16
  0
VERTEX
  5
33047
330
19FFD
100
AcDbEntity
  8
TITLE_BLOCK
  6
CONTINUOUS
 62
     7
100
AcDbVertex
100
AcDb2dVertex
 10
-19.280961
 20
-23.058989
 30
0.0
 70
    16
  0
VERTEX
  5
33048
330
19FFD
100
AcDbEntity
  8
TITLE_BLOCK
  6
CONTINUOUS
 62
     7
100
AcDbVertex
100
AcDb2dVertex
 10
-19.280961
 20
-23.113793
 30
0.0
 70
    16
  0
VERTEX
  5
33049
330
19FFD
100
AcDbEntity
  8
TITLE_BLOCK
  6
CONTINUOUS
 62
     7
100
AcDbVertex
100
AcDb2dVertex
 10
-19.28057
 20
-23.168559
 30
0.0
 70
    16
  0
VERTEX
  5
3304A
330
19FFD
100
AcDbEntity
  8
TITLE_BLOCK
  6
CONTINUOUS
 62
     7
100
AcDbVertex
100
AcDb2dVertex
 10
-19.388168
 20
-23.164965
 30
0.0
 70
    16
  0
VERTEX
  5
3304B
330
19FFD
100
AcDbEntity
  8
TITLE_BLOCK
  6
CONTINUOUS
 62
     7
100
AcDbVertex
100
AcDb2dVertex
 10
-19.494964
 20
-23.163364
 30
0.0
 70
    16
  0
VERTEX
  5
3304C
330
19FFD
100
AcDbEntity
  8
TITLE_BLOCK
  6
CONTINUOUS
 62
     7
100
AcDbVertex
100
AcDb2dVertex
 10
-19.602172
 20
-23.162973
 30
0.0
 70
    16
  0
VERTEX
  5
3304D
330
19FFD
100
AcDbEntity
  8
TITLE_BLOCK
  6
CONTINUOUS
 62
     7
100
AcDbVertex
100
AcDb2dVertex
 10
-19.602172
 20
-23.193793
 30
0.0
 70
    16
  0
VERTEX
  5
3304E
330
19FFD
100
AcDbEntity
  8
TITLE_BLOCK
  6
CONTINUOUS
 62
     7
100
AcDbVertex
100
AcDb2dVertex
 10
-19.602172
 20
-23.254965
 30
0.0
 70
    16
  0
VERTEX
  5
3304F
330
19FFD
100
AcDbEntity
  8
TITLE_BLOCK
  6
CONTINUOUS
 62
     7
100
AcDbVertex
100
AcDb2dVertex
 10
-19.602562
 20
-23.285786
 30
0.0
 70
    16
  0
VERTEX
  5
33050
330
19FFD
100
AcDbEntity
  8
TITLE_BLOCK
  6
CONTINUOUS
 62
     7
100
AcDbVertex
100
AcDb2dVertex
 10
-19.482562
 20
-23.282582
 30
0.0
 70
    16
  0
VERTEX
  5
33051
330
19FFD
100
AcDbEntity
  8
TITLE_BLOCK
  6
CONTINUOUS
 62
     7
100
AcDbVertex
100
AcDb2dVertex
 10
-19.362953
 20
-23.284184
 30
0.0
 70
    16
  0
VERTEX
  5
33052
330
19FFD
100
AcDbEntity
  8
TITLE_BLOCK
  6
CONTINUOUS
 62
     7
100
AcDbVertex
100
AcDb2dVertex
 10
-19.243363
 20
-23.28059
 30
0.0
 70
    16
  0
VERTEX
  5
33053
330
19FFD
100
AcDbEntity
  8
TITLE_BLOCK
  6
CONTINUOUS
 62
     7
100
AcDbVertex
100
AcDb2dVertex
 10
-19.243363
 20
-23.334965
 30
0.0
 70
    16
  0
VERTEX
  5
33054
330
19FFD
100
AcDbEntity
  8
TITLE_BLOCK
  6
CONTINUOUS
 62
     7
100
AcDbVertex
100
AcDb2dVertex
 10
-19.243363
 20
-23.388989
 30
0.0
 70
    16
  0
VERTEX
  5
33055
330
19FFD
100
AcDbEntity
  8
TITLE_BLOCK
  6
CONTINUOUS
 62
     7
100
AcDbVertex
100
AcDb2dVertex
 10
-19.243363
 20
-23.443364
 30
0.0
 70
    16
  0
VERTEX
  5
33056
330
19FFD
100
AcDbEntity
  8
TITLE_BLOCK
  6
CONTINUOUS
 62
     7
100
AcDbVertex
100
AcDb2dVertex
 10
-19.43057
 20
-23.445356
 30
0.0
 70
    16
  0
VERTEX
  5
33057
330
19FFD
100
AcDbEntity
  8
TITLE_BLOCK
  6
CONTINUOUS
 62
     7
100
AcDbVertex
100
AcDb2dVertex
 10
-19.618168
 20
-23.445356
 30
0.0
 70
    16
  0
VERTEX
  5
33058
330
19FFD
100
AcDbEntity
  8
TITLE_BLOCK
  6
CONTINUOUS
 62
     7
100
AcDbVertex
100
AcDb2dVertex
 10
-19.805355
 20
-23.442582
 30
0.0
 70
    16
  0
VERTEX
  5
33059
330
19FFD
100
AcDbEntity
  8
TITLE_BLOCK
  6
CONTINUOUS
 62
     7
100
AcDbVertex
100
AcDb2dVertex
 10
-19.80016
 20
-23.216176
 30
0.0
 70
    16
  0
VERTEX
  5
3305A
330
19FFD
100
AcDbEntity
  8
TITLE_BLOCK
  6
CONTINUOUS
 62
     7
100
AcDbVertex
100
AcDb2dVertex
 10
-19.806156
 20
-22.98977
 30
0.0
 70
    16
  0
VERTEX
  5
3305B
330
19FFD
100
AcDbEntity
  8
TITLE_BLOCK
  6
CONTINUOUS
 62
     7
100
AcDbVertex
100
AcDb2dVertex
 10
-19.800961
 20
-22.763364
 30
0.0
 70
    16
  0
VERTEX
  5
3305C
330
19FFD
100
AcDbEntity
  8
TITLE_BLOCK
  6
CONTINUOUS
 62
     7
100
AcDbVertex
100
AcDb2dVertex
 10
-19.800961
 20
-22.763364
 30
0.0
 70
    16
  0
VERTEX
  5
3305D
330
19FFD
100
AcDbEntity
  8
TITLE_BLOCK
  6
CONTINUOUS
 62
     7
100
AcDbVertex
100
AcDb2dVertex
 10
-19.800961
 20
-22.763364
 30
0.0
 70
    16
  0
VERTEX
  5
3305E
330
19FFD
100
AcDbEntity
  8
TITLE_BLOCK
  6
CONTINUOUS
 62
     7
100
AcDbVertex
100
AcDb2dVertex
 10
-19.800961
 20
-22.763364
 30
0.0
 70
    16
  0
SEQEND
  5
3305F
330
19FFD
100
AcDbEntity
  8
TITLE_BLOCK
  6
CONTINUOUS
 62
     7
  0
POLYLINE
  5
1A03B
330
32D05
100
AcDbEntity
  8
TITLE_BLOCK
  6
CONTINUOUS
 62
     7
100
AcDb2dPolyline
 66
     1
 10
0.0
 20
0.0
 30
0.0
 70
     5
 75
     5
  0
VERTEX
  5
33060
330
1A03B
100
AcDbEntity
  8
TITLE_BLOCK
  6
CONTINUOUS
 62
     7
100
AcDbVertex
100
AcDb2dVertex
 10
-18.842172
 20
-22.953793
 30
0.0
 70
     8
  0
VERTEX
  5
33061
330
1A03B
100
AcDbEntity
  8
TITLE_BLOCK
  6
CONTINUOUS
 62
     7
100
AcDbVertex
100
AcDb2dVertex
 10
-18.834579
 20
-22.922704
 30
0.0
 70
     8
  0
VERTEX
  5
33062
330
1A03B
100
AcDbEntity
  8
TITLE_BLOCK
  6
CONTINUOUS
 62
     7
100
AcDbVertex
100
AcDb2dVertex
 10
-18.823143
 20
-22.89477
 30
0.0
 70
     8
  0
VERTEX
  5
33063
330
1A03B
100
AcDbEntity
  8
TITLE_BLOCK
  6
CONTINUOUS
 62
     7
100
AcDbVertex
100
AcDb2dVertex
 10
-18.808219
 20
-22.869883
 30
0.0
 70
     8
  0
VERTEX
  5
33064
330
1A03B
100
AcDbEntity
  8
TITLE_BLOCK
  6
CONTINUOUS
 62
     7
100
AcDbVertex
100
AcDb2dVertex
 10
-18.790162
 20
-22.847936
 30
0.0
 70
     8
  0
VERTEX
  5
33065
330
1A03B
100
AcDbEntity
  8
TITLE_BLOCK
  6
CONTINUOUS
 62
     7
100
AcDbVertex
100
AcDb2dVertex
 10
-18.769328
 20
-22.82882
 30
0.0
 70
     8
  0
VERTEX
  5
33066
330
1A03B
100
AcDbEntity
  8
TITLE_BLOCK
  6
CONTINUOUS
 62
     7
100
AcDbVertex
100
AcDb2dVertex
 10
-18.746072
 20
-22.812428
 30
0.0
 70
     8
  0
VERTEX
  5
33067
330
1A03B
100
AcDbEntity
  8
TITLE_BLOCK
  6
CONTINUOUS
 62
     7
100
AcDbVertex
100
AcDb2dVertex
 10
-18.720751
 20
-22.798651
 30
0.0
 70
     8
  0
VERTEX
  5
33068
330
1A03B
100
AcDbEntity
  8
TITLE_BLOCK
  6
CONTINUOUS
 62
     7
100
AcDbVertex
100
AcDb2dVertex
 10
-18.693719
 20
-22.787382
 30
0.0
 70
     8
  0
VERTEX
  5
33069
330
1A03B
100
AcDbEntity
  8
TITLE_BLOCK
  6
CONTINUOUS
 62
     7
100
AcDbVertex
100
AcDb2dVertex
 10
-18.665333
 20
-22.778514
 30
0.0
 70
     8
  0
VERTEX
  5
3306A
330
1A03B
100
AcDbEntity
  8
TITLE_BLOCK
  6
CONTINUOUS
 62
     7
100
AcDbVertex
100
AcDb2dVertex
 10
-18.635949
 20
-22.771937
 30
0.0
 70
     8
  0
VERTEX
  5
3306B
330
1A03B
100
AcDbEntity
  8
TITLE_BLOCK
  6
CONTINUOUS
 62
     7
100
AcDbVertex
100
AcDb2dVertex
 10
-18.60592
 20
-22.767545
 30
0.0
 70
     8
  0
VERTEX
  5
3306C
330
1A03B
100
AcDbEntity
  8
TITLE_BLOCK
  6
CONTINUOUS
 62
     7
100
AcDbVertex
100
AcDb2dVertex
 10
-18.575605
 20
-22.76523
 30
0.0
 70
     8
  0
VERTEX
  5
3306D
330
1A03B
100
AcDbEntity
  8
TITLE_BLOCK
  6
CONTINUOUS
 62
     7
100
AcDbVertex
100
AcDb2dVertex
 10
-18.545357
 20
-22.764883
 30
0.0
 70
     8
  0
VERTEX
  5
3306E
330
1A03B
100
AcDbEntity
  8
TITLE_BLOCK
  6
CONTINUOUS
 62
     7
100
AcDbVertex
100
AcDb2dVertex
 10
-18.515533
 20
-22.766396
 30
0.0
 70
     8
  0
VERTEX
  5
3306F
330
1A03B
100
AcDbEntity
  8
TITLE_BLOCK
  6
CONTINUOUS
 62
     7
100
AcDbVertex
100
AcDb2dVertex
 10
-18.486488
 20
-22.769663
 30
0.0
 70
     8
  0
VERTEX
  5
33070
330
1A03B
100
AcDbEntity
  8
TITLE_BLOCK
  6
CONTINUOUS
 62
     7
100
AcDbVertex
100
AcDb2dVertex
 10
-18.458578
 20
-22.774575
 30
0.0
 70
     8
  0
VERTEX
  5
33071
330
1A03B
100
AcDbEntity
  8
TITLE_BLOCK
  6
CONTINUOUS
 62
     7
100
AcDbVertex
100
AcDb2dVertex
 10
-18.424956
 20
-22.785803
 30
0.0
 70
     8
  0
VERTEX
  5
33072
330
1A03B
100
AcDbEntity
  8
TITLE_BLOCK
  6
CONTINUOUS
 62
     7
100
AcDbVertex
100
AcDb2dVertex
 10
-18.394418
 20
-22.80128
 30
0.0
 70
     8
  0
VERTEX
  5
33073
330
1A03B
100
AcDbEntity
  8
TITLE_BLOCK
  6
CONTINUOUS
 62
     7
100
AcDbVertex
100
AcDb2dVertex
 10
-18.367117
 20
-22.820677
 30
0.0
 70
     8
  0
VERTEX
  5
33074
330
1A03B
100
AcDbEntity
  8
TITLE_BLOCK
  6
CONTINUOUS
 62
     7
100
AcDbVertex
100
AcDb2dVertex
 10
-18.343207
 20
-22.843666
 30
0.0
 70
     8
  0
VERTEX
  5
33075
330
1A03B
100
AcDbEntity
  8
TITLE_BLOCK
  6
CONTINUOUS
 62
     7
100
AcDbVertex
100
AcDb2dVertex
 10
-18.322842
 20
-22.869918
 30
0.0
 70
     8
  0
VERTEX
  5
33076
330
1A03B
100
AcDbEntity
  8
TITLE_BLOCK
  6
CONTINUOUS
 62
     7
100
AcDbVertex
100
AcDb2dVertex
 10
-18.306175
 20
-22.899105
 30
0.0
 70
     8
  0
VERTEX
  5
33077
330
1A03B
100
AcDbEntity
  8
TITLE_BLOCK
  6
CONTINUOUS
 62
     7
100
AcDbVertex
100
AcDb2dVertex
 10
-18.293362
 20
-22.930897
 30
0.0
 70
     8
  0
VERTEX
  5
33078
330
1A03B
100
AcDbEntity
  8
TITLE_BLOCK
  6
CONTINUOUS
 62
     7
100
AcDbVertex
100
AcDb2dVertex
 10
-18.284554
 20
-22.964965
 30
0.0
 70
     8
  0
VERTEX
  5
33079
330
1A03B
100
AcDbEntity
  8
TITLE_BLOCK
  6
CONTINUOUS
 62
     7
100
AcDbVertex
100
AcDb2dVertex
 10
-18.331625
 20
-22.96655
 30
0.0
 70
     8
  0
VERTEX
  5
3307A
330
1A03B
100
AcDbEntity
  8
TITLE_BLOCK
  6
CONTINUOUS
 62
     7
100
AcDbVertex
100
AcDb2dVertex
 10
-18.378128
 20
-22.963879
 30
0.0
 70
     8
  0
VERTEX
  5
3307B
330
1A03B
100
AcDbEntity
  8
TITLE_BLOCK
  6
CONTINUOUS
 62
     7
100
AcDbVertex
100
AcDb2dVertex
 10
-18.424209
 20
-22.957991
 30
0.0
 70
     8
  0
VERTEX
  5
3307C
330
1A03B
100
AcDbEntity
  8
TITLE_BLOCK
  6
CONTINUOUS
 62
     7
100
AcDbVertex
100
AcDb2dVertex
 10
-18.470013
 20
-22.949921
 30
0.0
 70
     8
  0
VERTEX
  5
3307D
330
1A03B
100
AcDbEntity
  8
TITLE_BLOCK
  6
CONTINUOUS
 62
     7
100
AcDbVertex
100
AcDb2dVertex
 10
-18.561371
 20
-22.931386
 30
0.0
 70
     8
  0
VERTEX
  5
3307E
330
1A03B
100
AcDbEntity
  8
TITLE_BLOCK
  6
CONTINUOUS
 62
     7
100
AcDbVertex
100
AcDb2dVertex
 10
-18.607215
 20
-22.922993
 30
0.0
 70
     8
  0
VERTEX
  5
3307F
330
1A03B
100
AcDbEntity
  8
TITLE_BLOCK
  6
CONTINUOUS
 62
     7
100
AcDbVertex
100
AcDb2dVertex
 10
-18.653363
 20
-22.916567
 30
0.0
 70
     8
  0
VERTEX
  5
33080
330
1A03B
100
AcDbEntity
  8
TITLE_BLOCK
  6
CONTINUOUS
 62
     7
100
AcDbVertex
100
AcDb2dVertex
 10
-18.653996
 20
-22.934868
 30
0.0
 70
     8
  0
VERTEX
  5
33081
330
1A03B
100
AcDbEntity
  8
TITLE_BLOCK
  6
CONTINUOUS
 62
     7
100
AcDbVertex
100
AcDb2dVertex
 10
-18.652136
 20
-22.950883
 30
0.0
 70
     8
  0
VERTEX
  5
33082
330
1A03B
100
AcDbEntity
  8
TITLE_BLOCK
  6
CONTINUOUS
 62
     7
100
AcDbVertex
100
AcDb2dVertex
 10
-18.648
 20
-22.964791
 30
0.0
 70
     8
  0
VERTEX
  5
33083
330
1A03B
100
AcDbEntity
  8
TITLE_BLOCK
  6
CONTINUOUS
 62
     7
100
AcDbVertex
100
AcDb2dVertex
 10
-18.641804
 20
-22.976773
 30
0.0
 70
     8
  0
VERTEX
  5
33084
330
1A03B
100
AcDbEntity
  8
TITLE_BLOCK
  6
CONTINUOUS
 62
     7
100
AcDbVertex
100
AcDb2dVertex
 10
-18.633766
 20
-22.987008
 30
0.0
 70
     8
  0
VERTEX
  5
33085
330
1A03B
100
AcDbEntity
  8
TITLE_BLOCK
  6
CONTINUOUS
 62
     7
100
AcDbVertex
100
AcDb2dVertex
 10
-18.624102
 20
-22.995676
 30
0.0
 70
     8
  0
VERTEX
  5
33086
330
1A03B
100
AcDbEntity
  8
TITLE_BLOCK
  6
CONTINUOUS
 62
     7
100
AcDbVertex
100
AcDb2dVertex
 10
-18.600765
 20
-23.009033
 30
0.0
 70
     8
  0
VERTEX
  5
33087
330
1A03B
100
AcDbEntity
  8
TITLE_BLOCK
  6
CONTINUOUS
 62
     7
100
AcDbVertex
100
AcDb2dVertex
 10
-18.573528
 20
-23.018282
 30
0.0
 70
     8
  0
VERTEX
  5
33088
330
1A03B
100
AcDbEntity
  8
TITLE_BLOCK
  6
CONTINUOUS
 62
     7
100
AcDbVertex
100
AcDb2dVertex
 10
-18.544126
 20
-23.024865
 30
0.0
 70
     8
  0
VERTEX
  5
33089
330
1A03B
100
AcDbEntity
  8
TITLE_BLOCK
  6
CONTINUOUS
 62
     7
100
AcDbVertex
100
AcDb2dVertex
 10
-18.485765
 20
-23.035786
 30
0.0
 70
     8
  0
VERTEX
  5
3308A
330
1A03B
100
AcDbEntity
  8
TITLE_BLOCK
  6
CONTINUOUS
 62
     7
100
AcDbVertex
100
AcDb2dVertex
 10
-18.45674
 20
-23.040491
 30
0.0
 70
     8
  0
VERTEX
  5
3308B
330
1A03B
100
AcDbEntity
  8
TITLE_BLOCK
  6
CONTINUOUS
 62
     7
100
AcDbVertex
100
AcDb2dVertex
 10
-18.428667
 20
-23.04801
 30
0.0
 70
     8
  0
VERTEX
  5
3308C
330
1A03B
100
AcDbEntity
  8
TITLE_BLOCK
  6
CONTINUOUS
 62
     7
100
AcDbVertex
100
AcDb2dVertex
 10
-18.401418
 20
-23.05789
 30
0.0
 70
     8
  0
VERTEX
  5
3308D
330
1A03B
100
AcDbEntity
  8
TITLE_BLOCK
  6
CONTINUOUS
 62
     7
100
AcDbVertex
100
AcDb2dVertex
 10
-18.374862
 20
-23.069682
 30
0.0
 70
     8
  0
VERTEX
  5
3308E
330
1A03B
100
AcDbEntity
  8
TITLE_BLOCK
  6
CONTINUOUS
 62
     7
100
AcDbVertex
100
AcDb2dVertex
 10
-18.323305
 20
-23.097199
 30
0.0
 70
     8
  0
VERTEX
  5
3308F
330
1A03B
100
AcDbEntity
  8
TITLE_BLOCK
  6
CONTINUOUS
 62
     7
100
AcDbVertex
100
AcDb2dVertex
 10
-18.272953
 20
-23.126957
 30
0.0
 70
     8
  0
VERTEX
  5
33090
330
1A03B
100
AcDbEntity
  8
TITLE_BLOCK
  6
CONTINUOUS
 62
     7
100
AcDbVertex
100
AcDb2dVertex
 10
-18.237757
 20
-23.23059
 30
0.0
 70
     8
  0
VERTEX
  5
33091
330
1A03B
100
AcDbEntity
  8
TITLE_BLOCK
  6
CONTINUOUS
 62
     7
100
AcDbVertex
100
AcDb2dVertex
 10
-18.243831
 20
-23.251367
 30
0.0
 70
     8
  0
VERTEX
  5
33092
330
1A03B
100
AcDbEntity
  8
TITLE_BLOCK
  6
CONTINUOUS
 62
     7
100
AcDbVertex
100
AcDb2dVertex
 10
-18.251136
 20
-23.270893
 30
0.0
 70
     8
  0
VERTEX
  5
33093
330
1A03B
100
AcDbEntity
  8
TITLE_BLOCK
  6
CONTINUOUS
 62
     7
100
AcDbVertex
100
AcDb2dVertex
 10
-18.259616
 20
-23.289194
 30
0.0
 70
     8
  0
VERTEX
  5
33094
330
1A03B
100
AcDbEntity
  8
TITLE_BLOCK
  6
CONTINUOUS
 62
     7
100
AcDbVertex
100
AcDb2dVertex
 10
-18.269213
 20
-23.306298
 30
0.0
 70
     8
  0
VERTEX
  5
33095
330
1A03B
100
AcDbEntity
  8
TITLE_BLOCK
  6
CONTINUOUS
 62
     7
100
AcDbVertex
100
AcDb2dVertex
 10
-18.291533
 20
-23.33703
 30
0.0
 70
     8
  0
VERTEX
  5
33096
330
1A03B
100
AcDbEntity
  8
TITLE_BLOCK
  6
CONTINUOUS
 62
     7
100
AcDbVertex
100
AcDb2dVertex
 10
-18.317638
 20
-23.363308
 30
0.0
 70
     8
  0
VERTEX
  5
33097
330
1A03B
100
AcDbEntity
  8
TITLE_BLOCK
  6
CONTINUOUS
 62
     7
100
AcDbVertex
100
AcDb2dVertex
 10
-18.347071
 20
-23.385356
 30
0.0
 70
     8
  0
VERTEX
  5
33098
330
1A03B
100
AcDbEntity
  8
TITLE_BLOCK
  6
CONTINUOUS
 62
     7
100
AcDbVertex
100
AcDb2dVertex
 10
-18.379375
 20
-23.403396
 30
0.0
 70
     8
  0
VERTEX
  5
33099
330
1A03B
100
AcDbEntity
  8
TITLE_BLOCK
  6
CONTINUOUS
 62
     7
100
AcDbVertex
100
AcDb2dVertex
 10
-18.414093
 20
-23.41765
 30
0.0
 70
     8
  0
VERTEX
  5
3309A
330
1A03B
100
AcDbEntity
  8
TITLE_BLOCK
  6
CONTINUOUS
 62
     7
100
AcDbVertex
100
AcDb2dVertex
 10
-18.450768
 20
-23.428339
 30
0.0
 70
     8
  0
VERTEX
  5
3309B
330
1A03B
100
AcDbEntity
  8
TITLE_BLOCK
  6
CONTINUOUS
 62
     7
100
AcDbVertex
100
AcDb2dVertex
 10
-18.488942
 20
-23.435687
 30
0.0
 70
     8
  0
VERTEX
  5
3309C
330
1A03B
100
AcDbEntity
  8
TITLE_BLOCK
  6
CONTINUOUS
 62
     7
100
AcDbVertex
100
AcDb2dVertex
 10
-18.52816
 20
-23.439914
 30
0.0
 70
     8
  0
VERTEX
  5
3309D
330
1A03B
100
AcDbEntity
  8
TITLE_BLOCK
  6
CONTINUOUS
 62
     7
100
AcDbVertex
100
AcDb2dVertex
 10
-18.567963
 20
-23.441243
 30
0.0
 70
     8
  0
VERTEX
  5
3309E
330
1A03B
100
AcDbEntity
  8
TITLE_BLOCK
  6
CONTINUOUS
 62
     7
100
AcDbVertex
100
AcDb2dVertex
 10
-18.607895
 20
-23.439896
 30
0.0
 70
     8
  0
VERTEX
  5
3309F
330
1A03B
100
AcDbEntity
  8
TITLE_BLOCK
  6
CONTINUOUS
 62
     7
100
AcDbVertex
100
AcDb2dVertex
 10
-18.647499
 20
-23.436096
 30
0.0
 70
     8
  0
VERTEX
  5
330A0
330
1A03B
100
AcDbEntity
  8
TITLE_BLOCK
  6
CONTINUOUS
 62
     7
100
AcDbVertex
100
AcDb2dVertex
 10
-18.686317
 20
-23.430063
 30
0.0
 70
     8
  0
VERTEX
  5
330A1
330
1A03B
100
AcDbEntity
  8
TITLE_BLOCK
  6
CONTINUOUS
 62
     7
100
AcDbVertex
100
AcDb2dVertex
 10
-18.723893
 20
-23.422021
 30
0.0
 70
     8
  0
VERTEX
  5
330A2
330
1A03B
100
AcDbEntity
  8
TITLE_BLOCK
  6
CONTINUOUS
 62
     7
100
AcDbVertex
100
AcDb2dVertex
 10
-18.759769
 20
-23.412192
 30
0.0
 70
     8
  0
VERTEX
  5
330A3
330
1A03B
100
AcDbEntity
  8
TITLE_BLOCK
  6
CONTINUOUS
 62
     7
100
AcDbVertex
100
AcDb2dVertex
 10
-18.779665
 20
-23.391643
 30
0.0
 70
     8
  0
VERTEX
  5
330A4
330
1A03B
100
AcDbEntity
  8
TITLE_BLOCK
  6
CONTINUOUS
 62
     7
100
AcDbVertex
100
AcDb2dVertex
 10
-18.798047
 20
-23.369983
 30
0.0
 70
     8
  0
VERTEX
  5
330A5
330
1A03B
100
AcDbEntity
  8
TITLE_BLOCK
  6
CONTINUOUS
 62
     7
100
AcDbVertex
100
AcDb2dVertex
 10
-18.815052
 20
-23.347339
 30
0.0
 70
     8
  0
VERTEX
  5
330A6
330
1A03B
100
AcDbEntity
  8
TITLE_BLOCK
  6
CONTINUOUS
 62
     7
100
AcDbVertex
100
AcDb2dVertex
 10
-18.830814
 20
-23.323837
 30
0.0
 70
     8
  0
VERTEX
  5
330A7
330
1A03B
100
AcDbEntity
  8
TITLE_BLOCK
  6
CONTINUOUS
 62
     7
100
AcDbVertex
100
AcDb2dVertex
 10
-18.859157
 20
-23.274769
 30
0.0
 70
     8
  0
VERTEX
  5
330A8
330
1A03B
100
AcDbEntity
  8
TITLE_BLOCK
  6
CONTINUOUS
 62
     7
100
AcDbVertex
100
AcDb2dVertex
 10
-18.884164
 20
-23.223793
 30
0.0
 70
     8
  0
VERTEX
  5
330A9
330
1A03B
100
AcDbEntity
  8
TITLE_BLOCK
  6
CONTINUOUS
 62
     7
100
AcDbVertex
100
AcDb2dVertex
 10
-18.858059
 20
-23.224125
 30
0.0
 70
     8
  0
VERTEX
  5
330AA
330
1A03B
100
AcDbEntity
  8
TITLE_BLOCK
  6
CONTINUOUS
 62
     7
100
AcDbVertex
100
AcDb2dVertex
 10
-18.830586
 20
-23.220793
 30
0.0
 70
     8
  0
VERTEX
  5
330AB
330
1A03B
100
AcDbEntity
  8
TITLE_BLOCK
  6
CONTINUOUS
 62
     7
100
AcDbVertex
100
AcDb2dVertex
 10
-18.774164
 20
-23.211274
 30
0.0
 70
     8
  0
VERTEX
  5
330AC
330
1A03B
100
AcDbEntity
  8
TITLE_BLOCK
  6
CONTINUOUS
 62
     7
100
AcDbVertex
100
AcDb2dVertex
 10
-18.746525
 20
-23.209156
 30
0.0
 70
     8
  0
VERTEX
  5
330AD
330
1A03B
100
AcDbEntity
  8
TITLE_BLOCK
  6
CONTINUOUS
 62
     7
100
AcDbVertex
100
AcDb2dVertex
 10
-18.720143
 20
-23.211511
 30
0.0
 70
     8
  0
VERTEX
  5
330AE
330
1A03B
100
AcDbEntity
  8
TITLE_BLOCK
  6
CONTINUOUS
 62
     7
100
AcDbVertex
100
AcDb2dVertex
 10
-18.695674
 20
-23.220373
 30
0.0
 70
     8
  0
VERTEX
  5
330AF
330
1A03B
100
AcDbEntity
  8
TITLE_BLOCK
  6
CONTINUOUS
 62
     7
100
AcDbVertex
100
AcDb2dVertex
 10
-18.684361
 20
-23.227881
 30
0.0
 70
     8
  0
VERTEX
  5
330B0
330
1A03B
100
AcDbEntity
  8
TITLE_BLOCK
  6
CONTINUOUS
 62
     7
100
AcDbVertex
100
AcDb2dVertex
 10
-18.673773
 20
-23.237778
 30
0.0
 70
     8
  0
VERTEX
  5
330B1
330
1A03B
100
AcDbEntity
  8
TITLE_BLOCK
  6
CONTINUOUS
 62
     7
100
AcDbVertex
100
AcDb2dVertex
 10
-18.651039
 20
-23.258427
 30
0.0
 70
     8
  0
VERTEX
  5
330B2
330
1A03B
100
AcDbEntity
  8
TITLE_BLOCK
  6
CONTINUOUS
 62
     7
100
AcDbVertex
100
AcDb2dVertex
 10
-18.625808
 20
-23.272051
 30
0.0
 70
     8
  0
VERTEX
  5
330B3
330
1A03B
100
AcDbEntity
  8
TITLE_BLOCK
  6
CONTINUOUS
 62
     7
100
AcDbVertex
100
AcDb2dVertex
 10
-18.598619
 20
-23.279948
 30
0.0
 70
     8
  0
VERTEX
  5
330B4
330
1A03B
100
AcDbEntity
  8
TITLE_BLOCK
  6
CONTINUOUS
 62
     7
100
AcDbVertex
100
AcDb2dVertex
 10
-18.570011
 20
-23.283417
 30
0.0
 70
     8
  0
VERTEX
  5
330B5
330
1A03B
100
AcDbEntity
  8
TITLE_BLOCK
  6
CONTINUOUS
 62
     7
100
AcDbVertex
100
AcDb2dVertex
 10
-18.540523
 20
-23.283757
 30
0.0
 70
     8
  0
VERTEX
  5
330B6
330
1A03B
100
AcDbEntity
  8
TITLE_BLOCK
  6
CONTINUOUS
 62
     7
100
AcDbVertex
100
AcDb2dVertex
 10
-18.510695
 20
-23.282267
 30
0.0
 70
     8
  0
VERTEX
  5
330B7
330
1A03B
100
AcDbEntity
  8
TITLE_BLOCK
  6
CONTINUOUS
 62
     7
100
AcDbVertex
100
AcDb2dVertex
 10
-18.452172
 20
-23.278989
 30
0.0
 70
     8
  0
VERTEX
  5
330B8
330
1A03B
100
AcDbEntity
  8
TITLE_BLOCK
  6
CONTINUOUS
 62
     7
100
AcDbVertex
100
AcDb2dVertex
 10
-18.43975
 20
-23.186176
 30
0.0
 70
     8
  0
VERTEX
  5
330B9
330
1A03B
100
AcDbEntity
  8
TITLE_BLOCK
  6
CONTINUOUS
 62
     7
100
AcDbVertex
100
AcDb2dVertex
 10
-18.497517
 20
-23.170789
 30
0.0
 70
     8
  0
VERTEX
  5
330BA
330
1A03B
100
AcDbEntity
  8
TITLE_BLOCK
  6
CONTINUOUS
 62
     7
100
AcDbVertex
100
AcDb2dVertex
 10
-18.559499
 20
-23.157227
 30
0.0
 70
     8
  0
VERTEX
  5
330BB
330
1A03B
100
AcDbEntity
  8
TITLE_BLOCK
  6
CONTINUOUS
 62
     7
100
AcDbVertex
100
AcDb2dVertex
 10
-18.622522
 20
-23.142628
 30
0.0
 70
     8
  0
VERTEX
  5
330BC
330
1A03B
100
AcDbEntity
  8
TITLE_BLOCK
  6
CONTINUOUS
 62
     7
100
AcDbVertex
100
AcDb2dVertex
 10
-18.653432
 20
-23.134044
 30
0.0
 70
     8
  0
VERTEX
  5
330BD
330
1A03B
100
AcDbEntity
  8
TITLE_BLOCK
  6
CONTINUOUS
 62
     7
100
AcDbVertex
100
AcDb2dVertex
 10
-18.683412
 20
-23.124125
 30
0.0
 70
     8
  0
VERTEX
  5
330BE
330
1A03B
100
AcDbEntity
  8
TITLE_BLOCK
  6
CONTINUOUS
 62
     7
100
AcDbVertex
100
AcDb2dVertex
 10
-18.712065
 20
-23.112515
 30
0.0
 70
     8
  0
VERTEX
  5
330BF
330
1A03B
100
AcDbEntity
  8
TITLE_BLOCK
  6
CONTINUOUS
 62
     7
100
AcDbVertex
100
AcDb2dVertex
 10
-18.738995
 20
-23.098856
 30
0.0
 70
     8
  0
VERTEX
  5
330C0
330
1A03B
100
AcDbEntity
  8
TITLE_BLOCK
  6
CONTINUOUS
 62
     7
100
AcDbVertex
100
AcDb2dVertex
 10
-18.763806
 20
-23.082788
 30
0.0
 70
     8
  0
VERTEX
  5
330C1
330
1A03B
100
AcDbEntity
  8
TITLE_BLOCK
  6
CONTINUOUS
 62
     7
100
AcDbVertex
100
AcDb2dVertex
 10
-18.786099
 20
-23.063953
 30
0.0
 70
     8
  0
VERTEX
  5
330C2
330
1A03B
100
AcDbEntity
  8
TITLE_BLOCK
  6
CONTINUOUS
 62
     7
100
AcDbVertex
100
AcDb2dVertex
 10
-18.805479
 20
-23.041995
 30
0.0
 70
     8
  0
VERTEX
  5
330C3
330
1A03B
100
AcDbEntity
  8
TITLE_BLOCK
  6
CONTINUOUS
 62
     7
100
AcDbVertex
100
AcDb2dVertex
 10
-18.821549
 20
-23.016554
 30
0.0
 70
     8
  0
VERTEX
  5
330C4
330
1A03B
100
AcDbEntity
  8
TITLE_BLOCK
  6
CONTINUOUS
 62
     7
100
AcDbVertex
100
AcDb2dVertex
 10
-18.833912
 20
-22.987273
 30
0.0
 70
     8
  0
VERTEX
  5
330C5
330
1A03B
100
AcDbEntity
  8
TITLE_BLOCK
  6
CONTINUOUS
 62
     7
100
AcDbVertex
100
AcDb2dVertex
 10
-18.842172
 20
-22.953793
 30
0.0
 70
     8
  0
VERTEX
  5
330C6
330
1A03B
100
AcDbEntity
  8
TITLE_BLOCK
  6
CONTINUOUS
 62
     7
100
AcDbVertex
100
AcDb2dVertex
 10
-18.842172
 20
-22.953793
 30
0.0
 70
     8
  0
VERTEX
  5
330C7
330
1A03B
100
AcDbEntity
  8
TITLE_BLOCK
  6
CONTINUOUS
 62
     7
100
AcDbVertex
100
AcDb2dVertex
 10
-18.842172
 20
-22.953793
 30
0.0
 70
    16
  0
VERTEX
  5
330C8
330
1A03B
100
AcDbEntity
  8
TITLE_BLOCK
  6
CONTINUOUS
 62
     7
100
AcDbVertex
100
AcDb2dVertex
 10
-18.812562
 20
-22.779379
 30
0.0
 70
    16
  0
VERTEX
  5
330C9
330
1A03B
100
AcDbEntity
  8
TITLE_BLOCK
  6
CONTINUOUS
 62
     7
100
AcDbVertex
100
AcDb2dVertex
 10
-18.603773
 20
-22.744184
 30
0.0
 70
    16
  0
VERTEX
  5
330CA
330
1A03B
100
AcDbEntity
  8
TITLE_BLOCK
  6
CONTINUOUS
 62
     7
100
AcDbVertex
100
AcDb2dVertex
 10
-18.458578
 20
-22.774575
 30
0.0
 70
    16
  0
VERTEX
  5
330CB
330
1A03B
100
AcDbEntity
  8
TITLE_BLOCK
  6
CONTINUOUS
 62
     7
100
AcDbVertex
100
AcDb2dVertex
 10
-18.364945
 20
-22.798559
 30
0.0
 70
    16
  0
VERTEX
  5
330CC
330
1A03B
100
AcDbEntity
  8
TITLE_BLOCK
  6
CONTINUOUS
 62
     7
100
AcDbVertex
100
AcDb2dVertex
 10
-18.302562
 20
-22.871372
 30
0.0
 70
    16
  0
VERTEX
  5
330CD
330
1A03B
100
AcDbEntity
  8
TITLE_BLOCK
  6
CONTINUOUS
 62
     7
100
AcDbVertex
100
AcDb2dVertex
 10
-18.284554
 20
-22.964965
 30
0.0
 70
    16
  0
VERTEX
  5
330CE
330
1A03B
100
AcDbEntity
  8
TITLE_BLOCK
  6
CONTINUOUS
 62
     7
100
AcDbVertex
100
AcDb2dVertex
 10
-18.410961
 20
-22.975786
 30
0.0
 70
    16
  0
VERTEX
  5
330CF
330
1A03B
100
AcDbEntity
  8
TITLE_BLOCK
  6
CONTINUOUS
 62
     7
100
AcDbVertex
100
AcDb2dVertex
 10
-18.529769
 20
-22.930161
 30
0.0
 70
    16
  0
VERTEX
  5
330D0
330
1A03B
100
AcDbEntity
  8
TITLE_BLOCK
  6
CONTINUOUS
 62
     7
100
AcDbVertex
100
AcDb2dVertex
 10
-18.653363
 20
-22.916567
 30
0.0
 70
    16
  0
VERTEX
  5
330D1
330
1A03B
100
AcDbEntity
  8
TITLE_BLOCK
  6
CONTINUOUS
 62
     7
100
AcDbVertex
100
AcDb2dVertex
 10
-18.663773
 20
-23.02059
 30
0.0
 70
    16
  0
VERTEX
  5
330D2
330
1A03B
100
AcDbEntity
  8
TITLE_BLOCK
  6
CONTINUOUS
 62
     7
100
AcDbVertex
100
AcDb2dVertex
 10
-18.558558
 20
-23.019379
 30
0.0
 70
    16
  0
VERTEX
  5
330D3
330
1A03B
100
AcDbEntity
  8
TITLE_BLOCK
  6
CONTINUOUS
 62
     7
100
AcDbVertex
100
AcDb2dVertex
 10
-18.485765
 20
-23.035786
 30
0.0
 70
    16
  0
VERTEX
  5
330D4
330
1A03B
100
AcDbEntity
  8
TITLE_BLOCK
  6
CONTINUOUS
 62
     7
100
AcDbVertex
100
AcDb2dVertex
 10
-18.406976
 20
-23.044184
 30
0.0
 70
    16
  0
VERTEX
  5
330D5
330
1A03B
100
AcDbEntity
  8
TITLE_BLOCK
  6
CONTINUOUS
 62
     7
100
AcDbVertex
100
AcDb2dVertex
 10
-18.33975
 20
-23.087387
 30
0.0
 70
    16
  0
VERTEX
  5
330D6
330
1A03B
100
AcDbEntity
  8
TITLE_BLOCK
  6
CONTINUOUS
 62
     7
100
AcDbVertex
100
AcDb2dVertex
 10
-18.272953
 20
-23.126957
 30
0.0
 70
    16
  0
VERTEX
  5
330D7
330
1A03B
100
AcDbEntity
  8
TITLE_BLOCK
  6
CONTINUOUS
 62
     7
100
AcDbVertex
100
AcDb2dVertex
 10
-18.264164
 20
-23.152582
 30
0.0
 70
    16
  0
VERTEX
  5
330D8
330
1A03B
100
AcDbEntity
  8
TITLE_BLOCK
  6
CONTINUOUS
 62
     7
100
AcDbVertex
100
AcDb2dVertex
 10
-18.246547
 20
-23.204575
 30
0.0
 70
    16
  0
VERTEX
  5
330D9
330
1A03B
100
AcDbEntity
  8
TITLE_BLOCK
  6
CONTINUOUS
 62
     7
100
AcDbVertex
100
AcDb2dVertex
 10
-18.237757
 20
-23.23059
 30
0.0
 70
    16
  0
VERTEX
  5
330DA
330
1A03B
100
AcDbEntity
  8
TITLE_BLOCK
  6
CONTINUOUS
 62
     7
100
AcDbVertex
100
AcDb2dVertex
 10
-18.295765
 20
-23.458989
 30
0.0
 70
    16
  0
VERTEX
  5
330DB
330
1A03B
100
AcDbEntity
  8
TITLE_BLOCK
  6
CONTINUOUS
 62
     7
100
AcDbVertex
100
AcDb2dVertex
 10
-18.573773
 20
-23.468989
 30
0.0
 70
    16
  0
VERTEX
  5
330DC
330
1A03B
100
AcDbEntity
  8
TITLE_BLOCK
  6
CONTINUOUS
 62
     7
100
AcDbVertex
100
AcDb2dVertex
 10
-18.759769
 20
-23.412192
 30
0.0
 70
    16
  0
VERTEX
  5
330DD
330
1A03B
100
AcDbEntity
  8
TITLE_BLOCK
  6
CONTINUOUS
 62
     7
100
AcDbVertex
100
AcDb2dVertex
 10
-18.814964
 20
-23.358989
 30
0.0
 70
    16
  0
VERTEX
  5
330DE
330
1A03B
100
AcDbEntity
  8
TITLE_BLOCK
  6
CONTINUOUS
 62
     7
100
AcDbVertex
100
AcDb2dVertex
 10
-18.852562
 20
-23.292582
 30
0.0
 70
    16
  0
VERTEX
  5
330DF
330
1A03B
100
AcDbEntity
  8
TITLE_BLOCK
  6
CONTINUOUS
 62
     7
100
AcDbVertex
100
AcDb2dVertex
 10
-18.884164
 20
-23.223793
 30
0.0
 70
    16
  0
VERTEX
  5
330E0
330
1A03B
100
AcDbEntity
  8
TITLE_BLOCK
  6
CONTINUOUS
 62
     7
100
AcDbVertex
100
AcDb2dVertex
 10
-18.816957
 20
-23.231372
 30
0.0
 70
    16
  0
VERTEX
  5
330E1
330
1A03B
100
AcDbEntity
  8
TITLE_BLOCK
  6
CONTINUOUS
 62
     7
100
AcDbVertex
100
AcDb2dVertex
 10
-18.728168
 20
-23.178168
 30
0.0
 70
    16
  0
VERTEX
  5
330E2
330
1A03B
100
AcDbEntity
  8
TITLE_BLOCK
  6
CONTINUOUS
 62
     7
100
AcDbVertex
100
AcDb2dVertex
 10
-18.673773
 20
-23.237778
 30
0.0
 70
    16
  0
VERTEX
  5
330E3
330
1A03B
100
AcDbEntity
  8
TITLE_BLOCK
  6
CONTINUOUS
 62
     7
100
AcDbVertex
100
AcDb2dVertex
 10
-18.616957
 20
-23.303364
 30
0.0
 70
    16
  0
VERTEX
  5
330E4
330
1A03B
100
AcDbEntity
  8
TITLE_BLOCK
  6
CONTINUOUS
 62
     7
100
AcDbVertex
100
AcDb2dVertex
 10
-18.527757
 20
-23.280161
 30
0.0
 70
    16
  0
VERTEX
  5
330E5
330
1A03B
100
AcDbEntity
  8
TITLE_BLOCK
  6
CONTINUOUS
 62
     7
100
AcDbVertex
100
AcDb2dVertex
 10
-18.452172
 20
-23.278989
 30
0.0
 70
    16
  0
VERTEX
  5
330E6
330
1A03B
100
AcDbEntity
  8
TITLE_BLOCK
  6
CONTINUOUS
 62
     7
100
AcDbVertex
100
AcDb2dVertex
 10
-18.448968
 20
-23.255786
 30
0.0
 70
    16
  0
VERTEX
  5
330E7
330
1A03B
100
AcDbEntity
  8
TITLE_BLOCK
  6
CONTINUOUS
 62
     7
100
AcDbVertex
100
AcDb2dVertex
 10
-18.442953
 20
-23.209379
 30
0.0
 70
    16
  0
VERTEX
  5
330E8
330
1A03B
100
AcDbEntity
  8
TITLE_BLOCK
  6
CONTINUOUS
 62
     7
100
AcDbVertex
100
AcDb2dVertex
 10
-18.43975
 20
-23.186176
 30
0.0
 70
    16
  0
VERTEX
  5
330E9
330
1A03B
100
AcDbEntity
  8
TITLE_BLOCK
  6
CONTINUOUS
 62
     7
100
AcDbVertex
100
AcDb2dVertex
 10
-18.585355
 20
-23.140161
 30
0.0
 70
    16
  0
VERTEX
  5
330EA
330
1A03B
100
AcDbEntity
  8
TITLE_BLOCK
  6
CONTINUOUS
 62
     7
100
AcDbVertex
100
AcDb2dVertex
 10
-18.809769
 20
-23.144184
 30
0.0
 70
    16
  0
VERTEX
  5
330EB
330
1A03B
100
AcDbEntity
  8
TITLE_BLOCK
  6
CONTINUOUS
 62
     7
100
AcDbVertex
100
AcDb2dVertex
 10
-18.842172
 20
-22.953793
 30
0.0
 70
    16
  0
VERTEX
  5
330EC
330
1A03B
100
AcDbEntity
  8
TITLE_BLOCK
  6
CONTINUOUS
 62
     7
100
AcDbVertex
100
AcDb2dVertex
 10
-18.842172
 20
-22.953793
 30
0.0
 70
    16
  0
VERTEX
  5
330ED
330
1A03B
100
AcDbEntity
  8
TITLE_BLOCK
  6
CONTINUOUS
 62
     7
100
AcDbVertex
100
AcDb2dVertex
 10
-18.842172
 20
-22.953793
 30
0.0
 70
    16
  0
VERTEX
  5
330EE
330
1A03B
100
AcDbEntity
  8
TITLE_BLOCK
  6
CONTINUOUS
 62
     7
100
AcDbVertex
100
AcDb2dVertex
 10
-18.842172
 20
-22.953793
 30
0.0
 70
    16
  0
SEQEND
  5
330EF
330
1A03B
100
AcDbEntity
  8
TITLE_BLOCK
  6
CONTINUOUS
 62
     7
  0
POLYLINE
  5
1A0CB
330
32D05
100
AcDbEntity
  8
TITLE_BLOCK
  6
CONTINUOUS
 62
     7
100
AcDb2dPolyline
 66
     1
 10
0.0
 20
0.0
 30
0.0
 70
     5
 75
     5
  0
VERTEX
  5
330F0
330
1A0CB
100
AcDbEntity
  8
TITLE_BLOCK
  6
CONTINUOUS
 62
     7
100
AcDbVertex
100
AcDb2dVertex
 10
-18.164554
 20
-22.765356
 30
0.0
 70
     8
  0
VERTEX
  5
330F1
330
1A0CB
100
AcDbEntity
  8
TITLE_BLOCK
  6
CONTINUOUS
 62
     7
100
AcDbVertex
100
AcDb2dVertex
 10
-18.014194
 20
-22.764557
 30
0.0
 70
     8
  0
VERTEX
  5
330F2
330
1A0CB
100
AcDbEntity
  8
TITLE_BLOCK
  6
CONTINUOUS
 62
     7
100
AcDbVertex
100
AcDb2dVertex
 10
-17.863754
 20
-22.765175
 30
0.0
 70
     8
  0
VERTEX
  5
330F3
330
1A0CB
100
AcDbEntity
  8
TITLE_BLOCK
  6
CONTINUOUS
 62
     7
100
AcDbVertex
100
AcDb2dVertex
 10
-17.713313
 20
-22.765493
 30
0.0
 70
     8
  0
VERTEX
  5
330F4
330
1A0CB
100
AcDbEntity
  8
TITLE_BLOCK
  6
CONTINUOUS
 62
     7
100
AcDbVertex
100
AcDb2dVertex
 10
-17.562953
 20
-22.763793
 30
0.0
 70
     8
  0
VERTEX
  5
330F5
330
1A0CB
100
AcDbEntity
  8
TITLE_BLOCK
  6
CONTINUOUS
 62
     7
100
AcDbVertex
100
AcDb2dVertex
 10
-17.560179
 20
-22.927778
 30
0.0
 70
     8
  0
VERTEX
  5
330F6
330
1A0CB
100
AcDbEntity
  8
TITLE_BLOCK
  6
CONTINUOUS
 62
     7
100
AcDbVertex
100
AcDb2dVertex
 10
-17.759359
 20
-22.920981
 30
0.0
 70
     8
  0
VERTEX
  5
330F7
330
1A0CB
100
AcDbEntity
  8
TITLE_BLOCK
  6
CONTINUOUS
 62
     7
100
AcDbVertex
100
AcDb2dVertex
 10
-17.761922
 20
-23.051469
 30
0.0
 70
     8
  0
VERTEX
  5
330F8
330
1A0CB
100
AcDbEntity
  8
TITLE_BLOCK
  6
CONTINUOUS
 62
     7
100
AcDbVertex
100
AcDb2dVertex
 10
-17.762757
 20
-23.181928
 30
0.0
 70
     8
  0
VERTEX
  5
330F9
330
1A0CB
100
AcDbEntity
  8
TITLE_BLOCK
  6
CONTINUOUS
 62
     7
100
AcDbVertex
100
AcDb2dVertex
 10
-17.761351
 20
-23.442582
 30
0.0
 70
     8
  0
VERTEX
  5
330FA
330
1A0CB
100
AcDbEntity
  8
TITLE_BLOCK
  6
CONTINUOUS
 62
     7
100
AcDbVertex
100
AcDb2dVertex
 10
-17.961781
 20
-23.447387
 30
0.0
 70
     8
  0
VERTEX
  5
330FB
330
1A0CB
100
AcDbEntity
  8
TITLE_BLOCK
  6
CONTINUOUS
 62
     7
100
AcDbVertex
100
AcDb2dVertex
 10
-17.963343
 20
-22.924184
 30
0.0
 70
     8
  0
VERTEX
  5
330FC
330
1A0CB
100
AcDbEntity
  8
TITLE_BLOCK
  6
CONTINUOUS
 62
     7
100
AcDbVertex
100
AcDb2dVertex
 10
-18.162172
 20
-22.924575
 30
0.0
 70
     8
  0
VERTEX
  5
330FD
330
1A0CB
100
AcDbEntity
  8
TITLE_BLOCK
  6
CONTINUOUS
 62
     7
100
AcDbVertex
100
AcDb2dVertex
 10
-18.164554
 20
-22.765356
 30
0.0
 70
     8
  0
VERTEX
  5
330FE
330
1A0CB
100
AcDbEntity
  8
TITLE_BLOCK
  6
CONTINUOUS
 62
     7
100
AcDbVertex
100
AcDb2dVertex
 10
-18.164554
 20
-22.765356
 30
0.0
 70
     8
  0
VERTEX
  5
330FF
330
1A0CB
100
AcDbEntity
  8
TITLE_BLOCK
  6
CONTINUOUS
 62
     7
100
AcDbVertex
100
AcDb2dVertex
 10
-18.164554
 20
-22.765356
 30
0.0
 70
    16
  0
VERTEX
  5
33100
330
1A0CB
100
AcDbEntity
  8
TITLE_BLOCK
  6
CONTINUOUS
 62
     7
100
AcDbVertex
100
AcDb2dVertex
 10
-17.964164
 20
-22.762582
 30
0.0
 70
    16
  0
VERTEX
  5
33101
330
1A0CB
100
AcDbEntity
  8
TITLE_BLOCK
  6
CONTINUOUS
 62
     7
100
AcDbVertex
100
AcDb2dVertex
 10
-17.763343
 20
-22.768168
 30
0.0
 70
    16
  0
VERTEX
  5
33102
330
1A0CB
100
AcDbEntity
  8
TITLE_BLOCK
  6
CONTINUOUS
 62
     7
100
AcDbVertex
100
AcDb2dVertex
 10
-17.562953
 20
-22.763793
 30
0.0
 70
    16
  0
VERTEX
  5
33103
330
1A0CB
100
AcDbEntity
  8
TITLE_BLOCK
  6
CONTINUOUS
 62
     7
100
AcDbVertex
100
AcDb2dVertex
 10
-17.562172
 20
-22.818168
 30
0.0
 70
    16
  0
VERTEX
  5
33104
330
1A0CB
100
AcDbEntity
  8
TITLE_BLOCK
  6
CONTINUOUS
 62
     7
100
AcDbVertex
100
AcDb2dVertex
 10
-17.561351
 20
-22.872973
 30
0.0
 70
    16
  0
VERTEX
  5
33105
330
1A0CB
100
AcDbEntity
  8
TITLE_BLOCK
  6
CONTINUOUS
 62
     7
100
AcDbVertex
100
AcDb2dVertex
 10
-17.560179
 20
-22.927778
 30
0.0
 70
    16
  0
VERTEX
  5
33106
330
1A0CB
100
AcDbEntity
  8
TITLE_BLOCK
  6
CONTINUOUS
 62
     7
100
AcDbVertex
100
AcDb2dVertex
 10
-17.626976
 20
-22.925356
 30
0.0
 70
    16
  0
VERTEX
  5
33107
330
1A0CB
100
AcDbEntity
  8
TITLE_BLOCK
  6
CONTINUOUS
 62
     7
100
AcDbVertex
100
AcDb2dVertex
 10
-17.692953
 20
-22.923364
 30
0.0
 70
    16
  0
VERTEX
  5
33108
330
1A0CB
100
AcDbEntity
  8
TITLE_BLOCK
  6
CONTINUOUS
 62
     7
100
AcDbVertex
100
AcDb2dVertex
 10
-17.759359
 20
-22.920981
 30
0.0
 70
    16
  0
VERTEX
  5
33109
330
1A0CB
100
AcDbEntity
  8
TITLE_BLOCK
  6
CONTINUOUS
 62
     7
100
AcDbVertex
100
AcDb2dVertex
 10
-17.764164
 20
-23.094965
 30
0.0
 70
    16
  0
VERTEX
  5
3310A
330
1A0CB
100
AcDbEntity
  8
TITLE_BLOCK
  6
CONTINUOUS
 62
     7
100
AcDbVertex
100
AcDb2dVertex
 10
-17.762953
 20
-23.268989
 30
0.0
 70
    16
  0
VERTEX
  5
3310B
330
1A0CB
100
AcDbEntity
  8
TITLE_BLOCK
  6
CONTINUOUS
 62
     7
100
AcDbVertex
100
AcDb2dVertex
 10
-17.761351
 20
-23.442582
 30
0.0
 70
    16
  0
VERTEX
  5
3310C
330
1A0CB
100
AcDbEntity
  8
TITLE_BLOCK
  6
CONTINUOUS
 62
     7
100
AcDbVertex
100
AcDb2dVertex
 10
-17.828148
 20
-23.443793
 30
0.0
 70
    16
  0
VERTEX
  5
3310D
330
1A0CB
100
AcDbEntity
  8
TITLE_BLOCK
  6
CONTINUOUS
 62
     7
100
AcDbVertex
100
AcDb2dVertex
 10
-17.894945
 20
-23.445356
 30
0.0
 70
    16
  0
VERTEX
  5
3310E
330
1A0CB
100
AcDbEntity
  8
TITLE_BLOCK
  6
CONTINUOUS
 62
     7
100
AcDbVertex
100
AcDb2dVertex
 10
-17.961781
 20
-23.447387
 30
0.0
 70
    16
  0
VERTEX
  5
3310F
330
1A0CB
100
AcDbEntity
  8
TITLE_BLOCK
  6
CONTINUOUS
 62
     7
100
AcDbVertex
100
AcDb2dVertex
 10
-17.962562
 20
-23.272973
 30
0.0
 70
    16
  0
VERTEX
  5
33110
330
1A0CB
100
AcDbEntity
  8
TITLE_BLOCK
  6
CONTINUOUS
 62
     7
100
AcDbVertex
100
AcDb2dVertex
 10
-17.961781
 20
-23.098559
 30
0.0
 70
    16
  0
VERTEX
  5
33111
330
1A0CB
100
AcDbEntity
  8
TITLE_BLOCK
  6
CONTINUOUS
 62
     7
100
AcDbVertex
100
AcDb2dVertex
 10
-17.963343
 20
-22.924184
 30
0.0
 70
    16
  0
VERTEX
  5
33112
330
1A0CB
100
AcDbEntity
  8
TITLE_BLOCK
  6
CONTINUOUS
 62
     7
100
AcDbVertex
100
AcDb2dVertex
 10
-18.02975
 20
-22.923793
 30
0.0
 70
    16
  0
VERTEX
  5
33113
330
1A0CB
100
AcDbEntity
  8
TITLE_BLOCK
  6
CONTINUOUS
 62
     7
100
AcDbVertex
100
AcDb2dVertex
 10
-18.095765
 20
-22.924184
 30
0.0
 70
    16
  0
VERTEX
  5
33114
330
1A0CB
100
AcDbEntity
  8
TITLE_BLOCK
  6
CONTINUOUS
 62
     7
100
AcDbVertex
100
AcDb2dVertex
 10
-18.162172
 20
-22.924575
 30
0.0
 70
    16
  0
VERTEX
  5
33115
330
1A0CB
100
AcDbEntity
  8
TITLE_BLOCK
  6
CONTINUOUS
 62
     7
100
AcDbVertex
100
AcDb2dVertex
 10
-18.162953
 20
-22.871372
 30
0.0
 70
    16
  0
VERTEX
  5
33116
330
1A0CB
100
AcDbEntity
  8
TITLE_BLOCK
  6
CONTINUOUS
 62
     7
100
AcDbVertex
100
AcDb2dVertex
 10
-18.163773
 20
-22.818559
 30
0.0
 70
    16
  0
VERTEX
  5
33117
330
1A0CB
100
AcDbEntity
  8
TITLE_BLOCK
  6
CONTINUOUS
 62
     7
100
AcDbVertex
100
AcDb2dVertex
 10
-18.164554
 20
-22.765356
 30
0.0
 70
    16
  0
VERTEX
  5
33118
330
1A0CB
100
AcDbEntity
  8
TITLE_BLOCK
  6
CONTINUOUS
 62
     7
100
AcDbVertex
100
AcDb2dVertex
 10
-18.164554
 20
-22.765356
 30
0.0
 70
    16
  0
VERTEX
  5
33119
330
1A0CB
100
AcDbEntity
  8
TITLE_BLOCK
  6
CONTINUOUS
 62
     7
100
AcDbVertex
100
AcDb2dVertex
 10
-18.164554
 20
-22.765356
 30
0.0
 70
    16
  0
VERTEX
  5
3311A
330
1A0CB
100
AcDbEntity
  8
TITLE_BLOCK
  6
CONTINUOUS
 62
     7
100
AcDbVertex
100
AcDb2dVertex
 10
-18.164554
 20
-22.765356
 30
0.0
 70
    16
  0
SEQEND
  5
3311B
330
1A0CB
100
AcDbEntity
  8
TITLE_BLOCK
  6
CONTINUOUS
 62
     7
  0
POLYLINE
  5
1A0F7
330
32D05
100
AcDbEntity
  8
TITLE_BLOCK
  6
CONTINUOUS
 62
     7
100
AcDb2dPolyline
 66
     1
 10
0.0
 20
0.0
 30
0.0
 70
     5
 75
     5
  0
VERTEX
  5
3311C
330
1A0F7
100
AcDbEntity
  8
TITLE_BLOCK
  6
CONTINUOUS
 62
     7
100
AcDbVertex
100
AcDb2dVertex
 10
-17.511351
 20
-23.442973
 30
0.0
 70
     8
  0
VERTEX
  5
3311D
330
1A0F7
100
AcDbEntity
  8
TITLE_BLOCK
  6
CONTINUOUS
 62
     7
100
AcDbVertex
100
AcDb2dVertex
 10
-17.480767
 20
-23.357268
 30
0.0
 70
     8
  0
VERTEX
  5
3311E
330
1A0F7
100
AcDbEntity
  8
TITLE_BLOCK
  6
CONTINUOUS
 62
     7
100
AcDbVertex
100
AcDb2dVertex
 10
-17.448456
 20
-23.272225
 30
0.0
 70
     8
  0
VERTEX
  5
3311F
330
1A0F7
100
AcDbEntity
  8
TITLE_BLOCK
  6
CONTINUOUS
 62
     7
100
AcDbVertex
100
AcDb2dVertex
 10
-17.380755
 20
-23.10332
 30
0.0
 70
     8
  0
VERTEX
  5
33120
330
1A0F7
100
AcDbEntity
  8
TITLE_BLOCK
  6
CONTINUOUS
 62
     7
100
AcDbVertex
100
AcDb2dVertex
 10
-17.312455
 20
-22.934641
 30
0.0
 70
     8
  0
VERTEX
  5
33121
330
1A0F7
100
AcDbEntity
  8
TITLE_BLOCK
  6
CONTINUOUS
 62
     7
100
AcDbVertex
100
AcDb2dVertex
 10
-17.279393
 20
-22.849882
 30
0.0
 70
     8
  0
VERTEX
  5
33122
330
1A0F7
100
AcDbEntity
  8
TITLE_BLOCK
  6
CONTINUOUS
 62
     7
100
AcDbVertex
100
AcDb2dVertex
 10
-17.247757
 20
-22.764575
 30
0.0
 70
     8
  0
VERTEX
  5
33123
330
1A0F7
100
AcDbEntity
  8
TITLE_BLOCK
  6
CONTINUOUS
 62
     7
100
AcDbVertex
100
AcDb2dVertex
 10
-17.036976
 20
-22.764575
 30
0.0
 70
     8
  0
VERTEX
  5
33124
330
1A0F7
100
AcDbEntity
  8
TITLE_BLOCK
  6
CONTINUOUS
 62
     7
100
AcDbVertex
100
AcDb2dVertex
 10
-16.971359
 20
-22.935197
 30
0.0
 70
     8
  0
VERTEX
  5
33125
330
1A0F7
100
AcDbEntity
  8
TITLE_BLOCK
  6
CONTINUOUS
 62
     7
100
AcDbVertex
100
AcDb2dVertex
 10
-16.903827
 20
-23.105068
 30
0.0
 70
     8
  0
VERTEX
  5
33126
330
1A0F7
100
AcDbEntity
  8
TITLE_BLOCK
  6
CONTINUOUS
 62
     7
100
AcDbVertex
100
AcDb2dVertex
 10
-16.836668
 20
-23.275093
 30
0.0
 70
     8
  0
VERTEX
  5
33127
330
1A0F7
100
AcDbEntity
  8
TITLE_BLOCK
  6
CONTINUOUS
 62
     7
100
AcDbVertex
100
AcDb2dVertex
 10
-16.772172
 20
-23.446176
 30
0.0
 70
     8
  0
VERTEX
  5
33128
330
1A0F7
100
AcDbEntity
  8
TITLE_BLOCK
  6
CONTINUOUS
 62
     7
100
AcDbVertex
100
AcDb2dVertex
 10
-16.968148
 20
-23.442973
 30
0.0
 70
     8
  0
VERTEX
  5
33129
330
1A0F7
100
AcDbEntity
  8
TITLE_BLOCK
  6
CONTINUOUS
 62
     7
100
AcDbVertex
100
AcDb2dVertex
 10
-17.006156
 20
-23.322973
 30
0.0
 70
     8
  0
VERTEX
  5
3312A
330
1A0F7
100
AcDbEntity
  8
TITLE_BLOCK
  6
CONTINUOUS
 62
     7
100
AcDbVertex
100
AcDb2dVertex
 10
-17.278148
 20
-23.324184
 30
0.0
 70
     8
  0
VERTEX
  5
3312B
330
1A0F7
100
AcDbEntity
  8
TITLE_BLOCK
  6
CONTINUOUS
 62
     7
100
AcDbVertex
100
AcDb2dVertex
 10
-17.317757
 20
-23.442973
 30
0.0
 70
     8
  0
VERTEX
  5
3312C
330
1A0F7
100
AcDbEntity
  8
TITLE_BLOCK
  6
CONTINUOUS
 62
     7
100
AcDbVertex
100
AcDb2dVertex
 10
-17.511351
 20
-23.442973
 30
0.0
 70
     8
  0
VERTEX
  5
3312D
330
1A0F7
100
AcDbEntity
  8
TITLE_BLOCK
  6
CONTINUOUS
 62
     7
100
AcDbVertex
100
AcDb2dVertex
 10
-17.511351
 20
-23.442973
 30
0.0
 70
     8
  0
VERTEX
  5
3312E
330
1A0F7
100
AcDbEntity
  8
TITLE_BLOCK
  6
CONTINUOUS
 62
     7
100
AcDbVertex
100
AcDb2dVertex
 10
-17.511351
 20
-23.442973
 30
0.0
 70
    16
  0
VERTEX
  5
3312F
330
1A0F7
100
AcDbEntity
  8
TITLE_BLOCK
  6
CONTINUOUS
 62
     7
100
AcDbVertex
100
AcDb2dVertex
 10
-17.432562
 20
-23.213364
 30
0.0
 70
    16
  0
VERTEX
  5
33130
330
1A0F7
100
AcDbEntity
  8
TITLE_BLOCK
  6
CONTINUOUS
 62
     7
100
AcDbVertex
100
AcDb2dVertex
 10
-17.32975
 20
-22.992973
 30
0.0
 70
    16
  0
VERTEX
  5
33131
330
1A0F7
100
AcDbEntity
  8
TITLE_BLOCK
  6
CONTINUOUS
 62
     7
100
AcDbVertex
100
AcDb2dVertex
 10
-17.247757
 20
-22.764575
 30
0.0
 70
    16
  0
VERTEX
  5
33132
330
1A0F7
100
AcDbEntity
  8
TITLE_BLOCK
  6
CONTINUOUS
 62
     7
100
AcDbVertex
100
AcDb2dVertex
 10
-17.177757
 20
-22.764575
 30
0.0
 70
    16
  0
VERTEX
  5
33133
330
1A0F7
100
AcDbEntity
  8
TITLE_BLOCK
  6
CONTINUOUS
 62
     7
100
AcDbVertex
100
AcDb2dVertex
 10
-17.107367
 20
-22.764575
 30
0.0
 70
    16
  0
VERTEX
  5
33134
330
1A0F7
100
AcDbEntity
  8
TITLE_BLOCK
  6
CONTINUOUS
 62
     7
100
AcDbVertex
100
AcDb2dVertex
 10
-17.036976
 20
-22.764575
 30
0.0
 70
    16
  0
VERTEX
  5
33135
330
1A0F7
100
AcDbEntity
  8
TITLE_BLOCK
  6
CONTINUOUS
 62
     7
100
AcDbVertex
100
AcDb2dVertex
 10
-16.951781
 20
-22.992973
 30
0.0
 70
    16
  0
VERTEX
  5
33136
330
1A0F7
100
AcDbEntity
  8
TITLE_BLOCK
  6
CONTINUOUS
 62
     7
100
AcDbVertex
100
AcDb2dVertex
 10
-16.855375
 20
-23.216957
 30
0.0
 70
    16
  0
VERTEX
  5
33137
330
1A0F7
100
AcDbEntity
  8
TITLE_BLOCK
  6
CONTINUOUS
 62
     7
100
AcDbVertex
100
AcDb2dVertex
 10
-16.772172
 20
-23.446176
 30
0.0
 70
    16
  0
VERTEX
  5
33138
330
1A0F7
100
AcDbEntity
  8
TITLE_BLOCK
  6
CONTINUOUS
 62
     7
100
AcDbVertex
100
AcDb2dVertex
 10
-16.837367
 20
-23.445356
 30
0.0
 70
    16
  0
VERTEX
  5
33139
330
1A0F7
100
AcDbEntity
  8
TITLE_BLOCK
  6
CONTINUOUS
 62
     7
100
AcDbVertex
100
AcDb2dVertex
 10
-16.902953
 20
-23.444184
 30
0.0
 70
    16
  0
VERTEX
  5
3313A
330
1A0F7
100
AcDbEntity
  8
TITLE_BLOCK
  6
CONTINUOUS
 62
     7
100
AcDbVertex
100
AcDb2dVertex
 10
-16.968148
 20
-23.442973
 30
0.0
 70
    16
  0
VERTEX
  5
3313B
330
1A0F7
100
AcDbEntity
  8
TITLE_BLOCK
  6
CONTINUOUS
 62
     7
100
AcDbVertex
100
AcDb2dVertex
 10
-16.98057
 20
-23.402582
 30
0.0
 70
    16
  0
VERTEX
  5
3313C
330
1A0F7
100
AcDbEntity
  8
TITLE_BLOCK
  6
CONTINUOUS
 62
     7
100
AcDbVertex
100
AcDb2dVertex
 10
-16.993343
 20
-23.362582
 30
0.0
 70
    16
  0
VERTEX
  5
3313D
330
1A0F7
100
AcDbEntity
  8
TITLE_BLOCK
  6
CONTINUOUS
 62
     7
100
AcDbVertex
100
AcDb2dVertex
 10
-17.006156
 20
-23.322973
 30
0.0
 70
    16
  0
VERTEX
  5
3313E
330
1A0F7
100
AcDbEntity
  8
TITLE_BLOCK
  6
CONTINUOUS
 62
     7
100
AcDbVertex
100
AcDb2dVertex
 10
-17.096976
 20
-23.323364
 30
0.0
 70
    16
  0
VERTEX
  5
3313F
330
1A0F7
100
AcDbEntity
  8
TITLE_BLOCK
  6
CONTINUOUS
 62
     7
100
AcDbVertex
100
AcDb2dVertex
 10
-17.187757
 20
-23.324184
 30
0.0
 70
    16
  0
VERTEX
  5
33140
330
1A0F7
100
AcDbEntity
  8
TITLE_BLOCK
  6
CONTINUOUS
 62
     7
100
AcDbVertex
100
AcDb2dVertex
 10
-17.278148
 20
-23.324184
 30
0.0
 70
    16
  0
VERTEX
  5
33141
330
1A0F7
100
AcDbEntity
  8
TITLE_BLOCK
  6
CONTINUOUS
 62
     7
100
AcDbVertex
100
AcDb2dVertex
 10
-17.291781
 20
-23.363793
 30
0.0
 70
    16
  0
VERTEX
  5
33142
330
1A0F7
100
AcDbEntity
  8
TITLE_BLOCK
  6
CONTINUOUS
 62
     7
100
AcDbVertex
100
AcDb2dVertex
 10
-17.304945
 20
-23.403364
 30
0.0
 70
    16
  0
VERTEX
  5
33143
330
1A0F7
100
AcDbEntity
  8
TITLE_BLOCK
  6
CONTINUOUS
 62
     7
100
AcDbVertex
100
AcDb2dVertex
 10
-17.317757
 20
-23.442973
 30
0.0
 70
    16
  0
VERTEX
  5
33144
330
1A0F7
100
AcDbEntity
  8
TITLE_BLOCK
  6
CONTINUOUS
 62
     7
100
AcDbVertex
100
AcDb2dVertex
 10
-17.382562
 20
-23.443364
 30
0.0
 70
    16
  0
VERTEX
  5
33145
330
1A0F7
100
AcDbEntity
  8
TITLE_BLOCK
  6
CONTINUOUS
 62
     7
100
AcDbVertex
100
AcDb2dVertex
 10
-17.446976
 20
-23.443793
 30
0.0
 70
    16
  0
VERTEX
  5
33146
330
1A0F7
100
AcDbEntity
  8
TITLE_BLOCK
  6
CONTINUOUS
 62
     7
100
AcDbVertex
100
AcDb2dVertex
 10
-17.511351
 20
-23.442973
 30
0.0
 70
    16
  0
VERTEX
  5
33147
330
1A0F7
100
AcDbEntity
  8
TITLE_BLOCK
  6
CONTINUOUS
 62
     7
100
AcDbVertex
100
AcDb2dVertex
 10
-17.511351
 20
-23.442973
 30
0.0
 70
    16
  0
VERTEX
  5
33148
330
1A0F7
100
AcDbEntity
  8
TITLE_BLOCK
  6
CONTINUOUS
 62
     7
100
AcDbVertex
100
AcDb2dVertex
 10
-17.511351
 20
-23.442973
 30
0.0
 70
    16
  0
VERTEX
  5
33149
330
1A0F7
100
AcDbEntity
  8
TITLE_BLOCK
  6
CONTINUOUS
 62
     7
100
AcDbVertex
100
AcDb2dVertex
 10
-17.511351
 20
-23.442973
 30
0.0
 70
    16
  0
SEQEND
  5
3314A
330
1A0F7
100
AcDbEntity
  8
TITLE_BLOCK
  6
CONTINUOUS
 62
     7
  0
POLYLINE
  5
1A126
330
32D05
100
AcDbEntity
  8
TITLE_BLOCK
  6
CONTINUOUS
 62
     7
100
AcDb2dPolyline
 66
     1
 10
0.0
 20
0.0
 30
0.0
 70
     5
 75
     5
  0
VERTEX
  5
3314B
330
1A126
100
AcDbEntity
  8
TITLE_BLOCK
  6
CONTINUOUS
 62
     7
100
AcDbVertex
100
AcDb2dVertex
 10
-16.682172
 20
-22.762192
 30
0.0
 70
     8
  0
VERTEX
  5
3314C
330
1A126
100
AcDbEntity
  8
TITLE_BLOCK
  6
CONTINUOUS
 62
     7
100
AcDbVertex
100
AcDb2dVertex
 10
-16.483343
 20
-22.764575
 30
0.0
 70
     8
  0
VERTEX
  5
3314D
330
1A126
100
AcDbEntity
  8
TITLE_BLOCK
  6
CONTINUOUS
 62
     7
100
AcDbVertex
100
AcDb2dVertex
 10
-16.481351
 20
-23.442582
 30
0.0
 70
     8
  0
VERTEX
  5
3314E
330
1A126
100
AcDbEntity
  8
TITLE_BLOCK
  6
CONTINUOUS
 62
     7
100
AcDbVertex
100
AcDb2dVertex
 10
-16.681781
 20
-23.447387
 30
0.0
 70
     8
  0
VERTEX
  5
3314F
330
1A126
100
AcDbEntity
  8
TITLE_BLOCK
  6
CONTINUOUS
 62
     7
100
AcDbVertex
100
AcDb2dVertex
 10
-16.682172
 20
-22.762192
 30
0.0
 70
     8
  0
VERTEX
  5
33150
330
1A126
100
AcDbEntity
  8
TITLE_BLOCK
  6
CONTINUOUS
 62
     7
100
AcDbVertex
100
AcDb2dVertex
 10
-16.682172
 20
-22.762192
 30
0.0
 70
     8
  0
VERTEX
  5
33151
330
1A126
100
AcDbEntity
  8
TITLE_BLOCK
  6
CONTINUOUS
 62
     7
100
AcDbVertex
100
AcDb2dVertex
 10
-16.682172
 20
-22.762192
 30
0.0
 70
    16
  0
VERTEX
  5
33152
330
1A126
100
AcDbEntity
  8
TITLE_BLOCK
  6
CONTINUOUS
 62
     7
100
AcDbVertex
100
AcDb2dVertex
 10
-16.616156
 20
-22.763364
 30
0.0
 70
    16
  0
VERTEX
  5
33153
330
1A126
100
AcDbEntity
  8
TITLE_BLOCK
  6
CONTINUOUS
 62
     7
100
AcDbVertex
100
AcDb2dVertex
 10
-16.54975
 20
-22.763793
 30
0.0
 70
    16
  0
VERTEX
  5
33154
330
1A126
100
AcDbEntity
  8
TITLE_BLOCK
  6
CONTINUOUS
 62
     7
100
AcDbVertex
100
AcDb2dVertex
 10
-16.483343
 20
-22.764575
 30
0.0
 70
    16
  0
VERTEX
  5
33155
330
1A126
100
AcDbEntity
  8
TITLE_BLOCK
  6
CONTINUOUS
 62
     7
100
AcDbVertex
100
AcDb2dVertex
 10
-16.48057
 20
-22.99059
 30
0.0
 70
    16
  0
VERTEX
  5
33156
330
1A126
100
AcDbEntity
  8
TITLE_BLOCK
  6
CONTINUOUS
 62
     7
100
AcDbVertex
100
AcDb2dVertex
 10
-16.484164
 20
-23.216567
 30
0.0
 70
    16
  0
VERTEX
  5
33157
330
1A126
100
AcDbEntity
  8
TITLE_BLOCK
  6
CONTINUOUS
 62
     7
100
AcDbVertex
100
AcDb2dVertex
 10
-16.481351
 20
-23.442582
 30
0.0
 70
    16
  0
VERTEX
  5
33158
330
1A126
100
AcDbEntity
  8
TITLE_BLOCK
  6
CONTINUOUS
 62
     7
100
AcDbVertex
100
AcDb2dVertex
 10
-16.548148
 20
-23.443793
 30
0.0
 70
    16
  0
VERTEX
  5
33159
330
1A126
100
AcDbEntity
  8
TITLE_BLOCK
  6
CONTINUOUS
 62
     7
100
AcDbVertex
100
AcDb2dVertex
 10
-16.614945
 20
-23.445356
 30
0.0
 70
    16
  0
VERTEX
  5
3315A
330
1A126
100
AcDbEntity
  8
TITLE_BLOCK
  6
CONTINUOUS
 62
     7
100
AcDbVertex
100
AcDb2dVertex
 10
-16.681781
 20
-23.447387
 30
0.0
 70
    16
  0
VERTEX
  5
3315B
330
1A126
100
AcDbEntity
  8
TITLE_BLOCK
  6
CONTINUOUS
 62
     7
100
AcDbVertex
100
AcDb2dVertex
 10
-16.683343
 20
-23.218989
 30
0.0
 70
    16
  0
VERTEX
  5
3315C
330
1A126
100
AcDbEntity
  8
TITLE_BLOCK
  6
CONTINUOUS
 62
     7
100
AcDbVertex
100
AcDb2dVertex
 10
-16.680961
 20
-22.99059
 30
0.0
 70
    16
  0
VERTEX
  5
3315D
330
1A126
100
AcDbEntity
  8
TITLE_BLOCK
  6
CONTINUOUS
 62
     7
100
AcDbVertex
100
AcDb2dVertex
 10
-16.682172
 20
-22.762192
 30
0.0
 70
    16
  0
VERTEX
  5
3315E
330
1A126
100
AcDbEntity
  8
TITLE_BLOCK
  6
CONTINUOUS
 62
     7
100
AcDbVertex
100
AcDb2dVertex
 10
-16.682172
 20
-22.762192
 30
0.0
 70
    16
  0
VERTEX
  5
3315F
330
1A126
100
AcDbEntity
  8
TITLE_BLOCK
  6
CONTINUOUS
 62
     7
100
AcDbVertex
100
AcDb2dVertex
 10
-16.682172
 20
-22.762192
 30
0.0
 70
    16
  0
VERTEX
  5
33160
330
1A126
100
AcDbEntity
  8
TITLE_BLOCK
  6
CONTINUOUS
 62
     7
100
AcDbVertex
100
AcDb2dVertex
 10
-16.682172
 20
-22.762192
 30
0.0
 70
    16
  0
SEQEND
  5
33161
330
1A126
100
AcDbEntity
  8
TITLE_BLOCK
  6
CONTINUOUS
 62
     7
  0
POLYLINE
  5
1A13D
330
32D05
100
AcDbEntity
  8
TITLE_BLOCK
  6
CONTINUOUS
 62
     7
100
AcDb2dPolyline
 66
     1
 10
0.0
 20
0.0
 30
0.0
 70
     5
 75
     5
  0
VERTEX
  5
33162
330
1A13D
100
AcDbEntity
  8
TITLE_BLOCK
  6
CONTINUOUS
 62
     7
100
AcDbVertex
100
AcDb2dVertex
 10
-16.326156
 20
-22.758168
 30
0.0
 70
     8
  0
VERTEX
  5
33163
330
1A13D
100
AcDbEntity
  8
TITLE_BLOCK
  6
CONTINUOUS
 62
     7
100
AcDbVertex
100
AcDb2dVertex
 10
-16.286633
 20
-22.759739
 30
0.0
 70
     8
  0
VERTEX
  5
33164
330
1A13D
100
AcDbEntity
  8
TITLE_BLOCK
  6
CONTINUOUS
 62
     7
100
AcDbVertex
100
AcDb2dVertex
 10
-16.247303
 20
-22.763173
 30
0.0
 70
     8
  0
VERTEX
  5
33165
330
1A13D
100
AcDbEntity
  8
TITLE_BLOCK
  6
CONTINUOUS
 62
     7
100
AcDbVertex
100
AcDb2dVertex
 10
-16.208201
 20
-22.768402
 30
0.0
 70
     8
  0
VERTEX
  5
33166
330
1A13D
100
AcDbEntity
  8
TITLE_BLOCK
  6
CONTINUOUS
 62
     7
100
AcDbVertex
100
AcDb2dVertex
 10
-16.169359
 20
-22.775356
 30
0.0
 70
     8
  0
VERTEX
  5
33167
330
1A13D
100
AcDbEntity
  8
TITLE_BLOCK
  6
CONTINUOUS
 62
     7
100
AcDbVertex
100
AcDb2dVertex
 10
-16.126673
 20
-22.829473
 30
0.0
 70
     8
  0
VERTEX
  5
33168
330
1A13D
100
AcDbEntity
  8
TITLE_BLOCK
  6
CONTINUOUS
 62
     7
100
AcDbVertex
100
AcDb2dVertex
 10
-16.085788
 20
-22.884979
 30
0.0
 70
     8
  0
VERTEX
  5
33169
330
1A13D
100
AcDbEntity
  8
TITLE_BLOCK
  6
CONTINUOUS
 62
     7
100
AcDbVertex
100
AcDb2dVertex
 10
-16.006869
 20
-22.998227
 30
0.0
 70
     8
  0
VERTEX
  5
3316A
330
1A13D
100
AcDbEntity
  8
TITLE_BLOCK
  6
CONTINUOUS
 62
     7
100
AcDbVertex
100
AcDb2dVertex
 10
-15.927495
 20
-23.111241
 30
0.0
 70
     8
  0
VERTEX
  5
3316B
330
1A13D
100
AcDbEntity
  8
TITLE_BLOCK
  6
CONTINUOUS
 62
     7
100
AcDbVertex
100
AcDb2dVertex
 10
-15.886043
 20
-23.166454
 30
0.0
 70
     8
  0
VERTEX
  5
3316C
330
1A13D
100
AcDbEntity
  8
TITLE_BLOCK
  6
CONTINUOUS
 62
     7
100
AcDbVertex
100
AcDb2dVertex
 10
-15.842562
 20
-23.220161
 30
0.0
 70
     8
  0
VERTEX
  5
3316D
330
1A13D
100
AcDbEntity
  8
TITLE_BLOCK
  6
CONTINUOUS
 62
     7
100
AcDbVertex
100
AcDb2dVertex
 10
-15.843465
 20
-22.991977
 30
0.0
 70
     8
  0
VERTEX
  5
3316E
330
1A13D
100
AcDbEntity
  8
TITLE_BLOCK
  6
CONTINUOUS
 62
     7
100
AcDbVertex
100
AcDb2dVertex
 10
-15.843458
 20
-22.877849
 30
0.0
 70
     8
  0
VERTEX
  5
3316F
330
1A13D
100
AcDbEntity
  8
TITLE_BLOCK
  6
CONTINUOUS
 62
     7
100
AcDbVertex
100
AcDb2dVertex
 10
-15.841351
 20
-22.763793
 30
0.0
 70
     8
  0
VERTEX
  5
33170
330
1A13D
100
AcDbEntity
  8
TITLE_BLOCK
  6
CONTINUOUS
 62
     7
100
AcDbVertex
100
AcDb2dVertex
 10
-15.67975
 20
-22.766567
 30
0.0
 70
     8
  0
VERTEX
  5
33171
330
1A13D
100
AcDbEntity
  8
TITLE_BLOCK
  6
CONTINUOUS
 62
     7
100
AcDbVertex
100
AcDb2dVertex
 10
-15.682289
 20
-22.936005
 30
0.0
 70
     8
  0
VERTEX
  5
33172
330
1A13D
100
AcDbEntity
  8
TITLE_BLOCK
  6
CONTINUOUS
 62
     7
100
AcDbVertex
100
AcDb2dVertex
 10
-15.682953
 20
-23.105327
 30
0.0
 70
     8
  0
VERTEX
  5
33173
330
1A13D
100
AcDbEntity
  8
TITLE_BLOCK
  6
CONTINUOUS
 62
     7
100
AcDbVertex
100
AcDb2dVertex
 10
-15.680179
 20
-23.443793
 30
0.0
 70
     8
  0
VERTEX
  5
33174
330
1A13D
100
AcDbEntity
  8
TITLE_BLOCK
  6
CONTINUOUS
 62
     7
100
AcDbVertex
100
AcDb2dVertex
 10
-15.835375
 20
-23.444965
 30
0.0
 70
     8
  0
VERTEX
  5
33175
330
1A13D
100
AcDbEntity
  8
TITLE_BLOCK
  6
CONTINUOUS
 62
     7
100
AcDbVertex
100
AcDb2dVertex
 10
-15.994823
 20
-23.214521
 30
0.0
 70
     8
  0
VERTEX
  5
33176
330
1A13D
100
AcDbEntity
  8
TITLE_BLOCK
  6
CONTINUOUS
 62
     7
100
AcDbVertex
100
AcDb2dVertex
 10
-16.075728
 20
-23.100099
 30
0.0
 70
     8
  0
VERTEX
  5
33177
330
1A13D
100
AcDbEntity
  8
TITLE_BLOCK
  6
CONTINUOUS
 62
     7
100
AcDbVertex
100
AcDb2dVertex
 10
-16.117509
 20
-23.043859
 30
0.0
 70
     8
  0
VERTEX
  5
33178
330
1A13D
100
AcDbEntity
  8
TITLE_BLOCK
  6
CONTINUOUS
 62
     7
100
AcDbVertex
100
AcDb2dVertex
 10
-16.16057
 20
-22.988559
 30
0.0
 70
     8
  0
VERTEX
  5
33179
330
1A13D
100
AcDbEntity
  8
TITLE_BLOCK
  6
CONTINUOUS
 62
     7
100
AcDbVertex
100
AcDb2dVertex
 10
-16.162572
 20
-23.214575
 30
0.0
 70
     8
  0
VERTEX
  5
3317A
330
1A13D
100
AcDbEntity
  8
TITLE_BLOCK
  6
CONTINUOUS
 62
     7
100
AcDbVertex
100
AcDb2dVertex
 10
-16.163343
 20
-23.44059
 30
0.0
 70
     8
  0
VERTEX
  5
3317B
330
1A13D
100
AcDbEntity
  8
TITLE_BLOCK
  6
CONTINUOUS
 62
     7
100
AcDbVertex
100
AcDb2dVertex
 10
-16.320961
 20
-23.448559
 30
0.0
 70
     8
  0
VERTEX
  5
3317C
330
1A13D
100
AcDbEntity
  8
TITLE_BLOCK
  6
CONTINUOUS
 62
     7
100
AcDbVertex
100
AcDb2dVertex
 10
-16.322569
 20
-23.275833
 30
0.0
 70
     8
  0
VERTEX
  5
3317D
330
1A13D
100
AcDbEntity
  8
TITLE_BLOCK
  6
CONTINUOUS
 62
     7
100
AcDbVertex
100
AcDb2dVertex
 10
-16.322372
 20
-23.103217
 30
0.0
 70
     8
  0
VERTEX
  5
3317E
330
1A13D
100
AcDbEntity
  8
TITLE_BLOCK
  6
CONTINUOUS
 62
     7
100
AcDbVertex
100
AcDb2dVertex
 10
-16.322768
 20
-22.930675
 30
0.0
 70
     8
  0
VERTEX
  5
3317F
330
1A13D
100
AcDbEntity
  8
TITLE_BLOCK
  6
CONTINUOUS
 62
     7
100
AcDbVertex
100
AcDb2dVertex
 10
-16.326156
 20
-22.758168
 30
0.0
 70
     8
  0
VERTEX
  5
33180
330
1A13D
100
AcDbEntity
  8
TITLE_BLOCK
  6
CONTINUOUS
 62
     7
100
AcDbVertex
100
AcDb2dVertex
 10
-16.326156
 20
-22.758168
 30
0.0
 70
     8
  0
VERTEX
  5
33181
330
1A13D
100
AcDbEntity
  8
TITLE_BLOCK
  6
CONTINUOUS
 62
     7
100
AcDbVertex
100
AcDb2dVertex
 10
-16.326156
 20
-22.758168
 30
0.0
 70
    16
  0
VERTEX
  5
33182
330
1A13D
100
AcDbEntity
  8
TITLE_BLOCK
  6
CONTINUOUS
 62
     7
100
AcDbVertex
100
AcDb2dVertex
 10
-16.273343
 20
-22.758989
 30
0.0
 70
    16
  0
VERTEX
  5
33183
330
1A13D
100
AcDbEntity
  8
TITLE_BLOCK
  6
CONTINUOUS
 62
     7
100
AcDbVertex
100
AcDb2dVertex
 10
-16.220961
 20
-22.764965
 30
0.0
 70
    16
  0
VERTEX
  5
33184
330
1A13D
100
AcDbEntity
  8
TITLE_BLOCK
  6
CONTINUOUS
 62
     7
100
AcDbVertex
100
AcDb2dVertex
 10
-16.169359
 20
-22.775356
 30
0.0
 70
    16
  0
VERTEX
  5
33185
330
1A13D
100
AcDbEntity
  8
TITLE_BLOCK
  6
CONTINUOUS
 62
     7
100
AcDbVertex
100
AcDb2dVertex
 10
-16.052562
 20
-22.917387
 30
0.0
 70
    16
  0
VERTEX
  5
33186
330
1A13D
100
AcDbEntity
  8
TITLE_BLOCK
  6
CONTINUOUS
 62
     7
100
AcDbVertex
100
AcDb2dVertex
 10
-15.961781
 20
-23.079379
 30
0.0
 70
    16
  0
VERTEX
  5
33187
330
1A13D
100
AcDbEntity
  8
TITLE_BLOCK
  6
CONTINUOUS
 62
     7
100
AcDbVertex
100
AcDb2dVertex
 10
-15.842562
 20
-23.220161
 30
0.0
 70
    16
  0
VERTEX
  5
33188
330
1A13D
100
AcDbEntity
  8
TITLE_BLOCK
  6
CONTINUOUS
 62
     7
100
AcDbVertex
100
AcDb2dVertex
 10
-15.841781
 20
-23.068168
 30
0.0
 70
    16
  0
VERTEX
  5
33189
330
1A13D
100
AcDbEntity
  8
TITLE_BLOCK
  6
CONTINUOUS
 62
     7
100
AcDbVertex
100
AcDb2dVertex
 10
-15.846156
 20
-22.915786
 30
0.0
 70
    16
  0
VERTEX
  5
3318A
330
1A13D
100
AcDbEntity
  8
TITLE_BLOCK
  6
CONTINUOUS
 62
     7
100
AcDbVertex
100
AcDb2dVertex
 10
-15.841351
 20
-22.763793
 30
0.0
 70
    16
  0
VERTEX
  5
3318B
330
1A13D
100
AcDbEntity
  8
TITLE_BLOCK
  6
CONTINUOUS
 62
     7
100
AcDbVertex
100
AcDb2dVertex
 10
-15.787367
 20
-22.764965
 30
0.0
 70
    16
  0
VERTEX
  5
3318C
330
1A13D
100
AcDbEntity
  8
TITLE_BLOCK
  6
CONTINUOUS
 62
     7
100
AcDbVertex
100
AcDb2dVertex
 10
-15.733773
 20
-22.765786
 30
0.0
 70
    16
  0
VERTEX
  5
3318D
330
1A13D
100
AcDbEntity
  8
TITLE_BLOCK
  6
CONTINUOUS
 62
     7
100
AcDbVertex
100
AcDb2dVertex
 10
-15.67975
 20
-22.766567
 30
0.0
 70
    16
  0
VERTEX
  5
3318E
330
1A13D
100
AcDbEntity
  8
TITLE_BLOCK
  6
CONTINUOUS
 62
     7
100
AcDbVertex
100
AcDb2dVertex
 10
-15.684554
 20
-22.992582
 30
0.0
 70
    16
  0
VERTEX
  5
3318F
330
1A13D
100
AcDbEntity
  8
TITLE_BLOCK
  6
CONTINUOUS
 62
     7
100
AcDbVertex
100
AcDb2dVertex
 10
-15.683343
 20
-23.218168
 30
0.0
 70
    16
  0
VERTEX
  5
33190
330
1A13D
100
AcDbEntity
  8
TITLE_BLOCK
  6
CONTINUOUS
 62
     7
100
AcDbVertex
100
AcDb2dVertex
 10
-15.680179
 20
-23.443793
 30
0.0
 70
    16
  0
VERTEX
  5
33191
330
1A13D
100
AcDbEntity
  8
TITLE_BLOCK
  6
CONTINUOUS
 62
     7
100
AcDbVertex
100
AcDb2dVertex
 10
-15.732172
 20
-23.444184
 30
0.0
 70
    16
  0
VERTEX
  5
33192
330
1A13D
100
AcDbEntity
  8
TITLE_BLOCK
  6
CONTINUOUS
 62
     7
100
AcDbVertex
100
AcDb2dVertex
 10
-15.783773
 20
-23.444575
 30
0.0
 70
    16
  0
VERTEX
  5
33193
330
1A13D
100
AcDbEntity
  8
TITLE_BLOCK
  6
CONTINUOUS
 62
     7
100
AcDbVertex
100
AcDb2dVertex
 10
-15.835375
 20
-23.444965
 30
0.0
 70
    16
  0
VERTEX
  5
33194
330
1A13D
100
AcDbEntity
  8
TITLE_BLOCK
  6
CONTINUOUS
 62
     7
100
AcDbVertex
100
AcDb2dVertex
 10
-15.943773
 20
-23.292973
 30
0.0
 70
    16
  0
VERTEX
  5
33195
330
1A13D
100
AcDbEntity
  8
TITLE_BLOCK
  6
CONTINUOUS
 62
     7
100
AcDbVertex
100
AcDb2dVertex
 10
-16.043773
 20
-23.134575
 30
0.0
 70
    16
  0
VERTEX
  5
33196
330
1A13D
100
AcDbEntity
  8
TITLE_BLOCK
  6
CONTINUOUS
 62
     7
100
AcDbVertex
100
AcDb2dVertex
 10
-16.16057
 20
-22.988559
 30
0.0
 70
    16
  0
VERTEX
  5
33197
330
1A13D
100
AcDbEntity
  8
TITLE_BLOCK
  6
CONTINUOUS
 62
     7
100
AcDbVertex
100
AcDb2dVertex
 10
-16.163773
 20
-23.139379
 30
0.0
 70
    16
  0
VERTEX
  5
33198
330
1A13D
100
AcDbEntity
  8
TITLE_BLOCK
  6
CONTINUOUS
 62
     7
100
AcDbVertex
100
AcDb2dVertex
 10
-16.161781
 20
-23.28977
 30
0.0
 70
    16
  0
VERTEX
  5
33199
330
1A13D
100
AcDbEntity
  8
TITLE_BLOCK
  6
CONTINUOUS
 62
     7
100
AcDbVertex
100
AcDb2dVertex
 10
-16.163343
 20
-23.44059
 30
0.0
 70
    16
  0
VERTEX
  5
3319A
330
1A13D
100
AcDbEntity
  8
TITLE_BLOCK
  6
CONTINUOUS
 62
     7
100
AcDbVertex
100
AcDb2dVertex
 10
-16.216156
 20
-23.443364
 30
0.0
 70
    16
  0
VERTEX
  5
3319B
330
1A13D
100
AcDbEntity
  8
TITLE_BLOCK
  6
CONTINUOUS
 62
     7
100
AcDbVertex
100
AcDb2dVertex
 10
-16.268578
 20
-23.445786
 30
0.0
 70
    16
  0
VERTEX
  5
3319C
330
1A13D
100
AcDbEntity
  8
TITLE_BLOCK
  6
CONTINUOUS
 62
     7
100
AcDbVertex
100
AcDb2dVertex
 10
-16.320961
 20
-23.448559
 30
0.0
 70
    16
  0
VERTEX
  5
3319D
330
1A13D
100
AcDbEntity
  8
TITLE_BLOCK
  6
CONTINUOUS
 62
     7
100
AcDbVertex
100
AcDb2dVertex
 10
-16.325375
 20
-23.218168
 30
0.0
 70
    16
  0
VERTEX
  5
3319E
330
1A13D
100
AcDbEntity
  8
TITLE_BLOCK
  6
CONTINUOUS
 62
     7
100
AcDbVertex
100
AcDb2dVertex
 10
-16.318578
 20
-22.988168
 30
0.0
 70
    16
  0
VERTEX
  5
3319F
330
1A13D
100
AcDbEntity
  8
TITLE_BLOCK
  6
CONTINUOUS
 62
     7
100
AcDbVertex
100
AcDb2dVertex
 10
-16.326156
 20
-22.758168
 30
0.0
 70
    16
  0
VERTEX
  5
331A0
330
1A13D
100
AcDbEntity
  8
TITLE_BLOCK
  6
CONTINUOUS
 62
     7
100
AcDbVertex
100
AcDb2dVertex
 10
-16.326156
 20
-22.758168
 30
0.0
 70
    16
  0
VERTEX
  5
331A1
330
1A13D
100
AcDbEntity
  8
TITLE_BLOCK
  6
CONTINUOUS
 62
     7
100
AcDbVertex
100
AcDb2dVertex
 10
-16.326156
 20
-22.758168
 30
0.0
 70
    16
  0
VERTEX
  5
331A2
330
1A13D
100
AcDbEntity
  8
TITLE_BLOCK
  6
CONTINUOUS
 62
     7
100
AcDbVertex
100
AcDb2dVertex
 10
-16.326156
 20
-22.758168
 30
0.0
 70
    16
  0
SEQEND
  5
331A3
330
1A13D
100
AcDbEntity
  8
TITLE_BLOCK
  6
CONTINUOUS
 62
     7
  0
POLYLINE
  5
1A17F
330
32D05
100
AcDbEntity
  8
TITLE_BLOCK
  6
CONTINUOUS
 62
     7
100
AcDb2dPolyline
 66
     1
 10
0.0
 20
0.0
 30
0.0
 70
     5
 75
     5
  0
VERTEX
  5
331A4
330
1A17F
100
AcDbEntity
  8
TITLE_BLOCK
  6
CONTINUOUS
 62
     7
100
AcDbVertex
100
AcDb2dVertex
 10
-15.523343
 20
-22.765356
 30
0.0
 70
     8
  0
VERTEX
  5
331A5
330
1A17F
100
AcDbEntity
  8
TITLE_BLOCK
  6
CONTINUOUS
 62
     7
100
AcDbVertex
100
AcDb2dVertex
 10
-15.324164
 20
-22.762973
 30
0.0
 70
     8
  0
VERTEX
  5
331A6
330
1A17F
100
AcDbEntity
  8
TITLE_BLOCK
  6
CONTINUOUS
 62
     7
100
AcDbVertex
100
AcDb2dVertex
 10
-15.321112
 20
-23.023417
 30
0.0
 70
     8
  0
VERTEX
  5
331A7
330
1A17F
100
AcDbEntity
  8
TITLE_BLOCK
  6
CONTINUOUS
 62
     7
100
AcDbVertex
100
AcDb2dVertex
 10
-15.321631
 20
-23.15374
 30
0.0
 70
     8
  0
VERTEX
  5
331A8
330
1A17F
100
AcDbEntity
  8
TITLE_BLOCK
  6
CONTINUOUS
 62
     7
100
AcDbVertex
100
AcDb2dVertex
 10
-15.323773
 20
-23.284184
 30
0.0
 70
     8
  0
VERTEX
  5
331A9
330
1A17F
100
AcDbEntity
  8
TITLE_BLOCK
  6
CONTINUOUS
 62
     7
100
AcDbVertex
100
AcDb2dVertex
 10
-15.002953
 20
-23.285786
 30
0.0
 70
     8
  0
VERTEX
  5
331AA
330
1A17F
100
AcDbEntity
  8
TITLE_BLOCK
  6
CONTINUOUS
 62
     7
100
AcDbVertex
100
AcDb2dVertex
 10
-15.003773
 20
-23.442973
 30
0.0
 70
     8
  0
VERTEX
  5
331AB
330
1A17F
100
AcDbEntity
  8
TITLE_BLOCK
  6
CONTINUOUS
 62
     7
100
AcDbVertex
100
AcDb2dVertex
 10
-15.264769
 20
-23.444829
 30
0.0
 70
     8
  0
VERTEX
  5
331AC
330
1A17F
100
AcDbEntity
  8
TITLE_BLOCK
  6
CONTINUOUS
 62
     7
100
AcDbVertex
100
AcDb2dVertex
 10
-15.525765
 20
-23.444575
 30
0.0
 70
     8
  0
VERTEX
  5
331AD
330
1A17F
100
AcDbEntity
  8
TITLE_BLOCK
  6
CONTINUOUS
 62
     7
100
AcDbVertex
100
AcDb2dVertex
 10
-15.522695
 20
-23.27477
 30
0.0
 70
     8
  0
VERTEX
  5
331AE
330
1A17F
100
AcDbEntity
  8
TITLE_BLOCK
  6
CONTINUOUS
 62
     7
100
AcDbVertex
100
AcDb2dVertex
 10
-15.522767
 20
-23.104965
 30
0.0
 70
     8
  0
VERTEX
  5
331AF
330
1A17F
100
AcDbEntity
  8
TITLE_BLOCK
  6
CONTINUOUS
 62
     7
100
AcDbVertex
100
AcDb2dVertex
 10
-15.523343
 20
-22.765356
 30
0.0
 70
     8
  0
VERTEX
  5
331B0
330
1A17F
100
AcDbEntity
  8
TITLE_BLOCK
  6
CONTINUOUS
 62
     7
100
AcDbVertex
100
AcDb2dVertex
 10
-15.523343
 20
-22.765356
 30
0.0
 70
     8
  0
VERTEX
  5
331B1
330
1A17F
100
AcDbEntity
  8
TITLE_BLOCK
  6
CONTINUOUS
 62
     7
100
AcDbVertex
100
AcDb2dVertex
 10
-15.523343
 20
-22.765356
 30
0.0
 70
    16
  0
VERTEX
  5
331B2
330
1A17F
100
AcDbEntity
  8
TITLE_BLOCK
  6
CONTINUOUS
 62
     7
100
AcDbVertex
100
AcDb2dVertex
 10
-15.456976
 20
-22.764575
 30
0.0
 70
    16
  0
VERTEX
  5
331B3
330
1A17F
100
AcDbEntity
  8
TITLE_BLOCK
  6
CONTINUOUS
 62
     7
100
AcDbVertex
100
AcDb2dVertex
 10
-15.39057
 20
-22.763793
 30
0.0
 70
    16
  0
VERTEX
  5
331B4
330
1A17F
100
AcDbEntity
  8
TITLE_BLOCK
  6
CONTINUOUS
 62
     7
100
AcDbVertex
100
AcDb2dVertex
 10
-15.324164
 20
-22.762973
 30
0.0
 70
    16
  0
VERTEX
  5
331B5
330
1A17F
100
AcDbEntity
  8
TITLE_BLOCK
  6
CONTINUOUS
 62
     7
100
AcDbVertex
100
AcDb2dVertex
 10
-15.32057
 20
-22.936567
 30
0.0
 70
    16
  0
VERTEX
  5
331B6
330
1A17F
100
AcDbEntity
  8
TITLE_BLOCK
  6
CONTINUOUS
 62
     7
100
AcDbVertex
100
AcDb2dVertex
 10
-15.31975
 20
-23.110161
 30
0.0
 70
    16
  0
VERTEX
  5
331B7
330
1A17F
100
AcDbEntity
  8
TITLE_BLOCK
  6
CONTINUOUS
 62
     7
100
AcDbVertex
100
AcDb2dVertex
 10
-15.323773
 20
-23.284184
 30
0.0
 70
    16
  0
VERTEX
  5
331B8
330
1A17F
100
AcDbEntity
  8
TITLE_BLOCK
  6
CONTINUOUS
 62
     7
100
AcDbVertex
100
AcDb2dVertex
 10
-15.216976
 20
-23.284965
 30
0.0
 70
    16
  0
VERTEX
  5
331B9
330
1A17F
100
AcDbEntity
  8
TITLE_BLOCK
  6
CONTINUOUS
 62
     7
100
AcDbVertex
100
AcDb2dVertex
 10
-15.110179
 20
-23.284965
 30
0.0
 70
    16
  0
VERTEX
  5
331BA
330
1A17F
100
AcDbEntity
  8
TITLE_BLOCK
  6
CONTINUOUS
 62
     7
100
AcDbVertex
100
AcDb2dVertex
 10
-15.002953
 20
-23.285786
 30
0.0
 70
    16
  0
VERTEX
  5
331BB
330
1A17F
100
AcDbEntity
  8
TITLE_BLOCK
  6
CONTINUOUS
 62
     7
100
AcDbVertex
100
AcDb2dVertex
 10
-15.003343
 20
-23.338168
 30
0.0
 70
    16
  0
VERTEX
  5
331BC
330
1A17F
100
AcDbEntity
  8
TITLE_BLOCK
  6
CONTINUOUS
 62
     7
100
AcDbVertex
100
AcDb2dVertex
 10
-15.003773
 20
-23.39059
 30
0.0
 70
    16
  0
VERTEX
  5
331BD
330
1A17F
100
AcDbEntity
  8
TITLE_BLOCK
  6
CONTINUOUS
 62
     7
100
AcDbVertex
100
AcDb2dVertex
 10
-15.003773
 20
-23.442973
 30
0.0
 70
    16
  0
VERTEX
  5
331BE
330
1A17F
100
AcDbEntity
  8
TITLE_BLOCK
  6
CONTINUOUS
 62
     7
100
AcDbVertex
100
AcDb2dVertex
 10
-15.177757
 20
-23.446176
 30
0.0
 70
    16
  0
VERTEX
  5
331BF
330
1A17F
100
AcDbEntity
  8
TITLE_BLOCK
  6
CONTINUOUS
 62
     7
100
AcDbVertex
100
AcDb2dVertex
 10
-15.351781
 20
-23.444184
 30
0.0
 70
    16
  0
VERTEX
  5
331C0
330
1A17F
100
AcDbEntity
  8
TITLE_BLOCK
  6
CONTINUOUS
 62
     7
100
AcDbVertex
100
AcDb2dVertex
 10
-15.525765
 20
-23.444575
 30
0.0
 70
    16
  0
VERTEX
  5
331C1
330
1A17F
100
AcDbEntity
  8
TITLE_BLOCK
  6
CONTINUOUS
 62
     7
100
AcDbVertex
100
AcDb2dVertex
 10
-15.518578
 20
-23.218168
 30
0.0
 70
    16
  0
VERTEX
  5
331C2
330
1A17F
100
AcDbEntity
  8
TITLE_BLOCK
  6
CONTINUOUS
 62
     7
100
AcDbVertex
100
AcDb2dVertex
 10
-15.525765
 20
-22.991762
 30
0.0
 70
    16
  0
VERTEX
  5
331C3
330
1A17F
100
AcDbEntity
  8
TITLE_BLOCK
  6
CONTINUOUS
 62
     7
100
AcDbVertex
100
AcDb2dVertex
 10
-15.523343
 20
-22.765356
 30
0.0
 70
    16
  0
VERTEX
  5
331C4
330
1A17F
100
AcDbEntity
  8
TITLE_BLOCK
  6
CONTINUOUS
 62
     7
100
AcDbVertex
100
AcDb2dVertex
 10
-15.523343
 20
-22.765356
 30
0.0
 70
    16
  0
VERTEX
  5
331C5
330
1A17F
100
AcDbEntity
  8
TITLE_BLOCK
  6
CONTINUOUS
 62
     7
100
AcDbVertex
100
AcDb2dVertex
 10
-15.523343
 20
-22.765356
 30
0.0
 70
    16
  0
VERTEX
  5
331C6
330
1A17F
100
AcDbEntity
  8
TITLE_BLOCK
  6
CONTINUOUS
 62
     7
100
AcDbVertex
100
AcDb2dVertex
 10
-15.523343
 20
-22.765356
 30
0.0
 70
    16
  0
SEQEND
  5
331C7
330
1A17F
100
AcDbEntity
  8
TITLE_BLOCK
  6
CONTINUOUS
 62
     7
  0
POLYLINE
  5
1A1A3
330
32D05
100
AcDbEntity
  8
TITLE_BLOCK
  6
CONTINUOUS
 62
     7
100
AcDb2dPolyline
 66
     1
 10
0.0
 20
0.0
 30
0.0
 70
     5
 75
     5
  0
VERTEX
  5
331C8
330
1A1A3
100
AcDbEntity
  8
TITLE_BLOCK
  6
CONTINUOUS
 62
     7
100
AcDbVertex
100
AcDb2dVertex
 10
-14.885375
 20
-22.762582
 30
0.0
 70
     8
  0
VERTEX
  5
331C9
330
1A1A3
100
AcDbEntity
  8
TITLE_BLOCK
  6
CONTINUOUS
 62
     7
100
AcDbVertex
100
AcDb2dVertex
 10
-14.744308
 20
-22.764799
 30
0.0
 70
     8
  0
VERTEX
  5
331CA
330
1A1A3
100
AcDbEntity
  8
TITLE_BLOCK
  6
CONTINUOUS
 62
     7
100
AcDbVertex
100
AcDb2dVertex
 10
-14.603168
 20
-22.76499
 30
0.0
 70
     8
  0
VERTEX
  5
331CB
330
1A1A3
100
AcDbEntity
  8
TITLE_BLOCK
  6
CONTINUOUS
 62
     7
100
AcDbVertex
100
AcDb2dVertex
 10
-14.320961
 20
-22.763793
 30
0.0
 70
     8
  0
VERTEX
  5
331CC
330
1A1A3
100
AcDbEntity
  8
TITLE_BLOCK
  6
CONTINUOUS
 62
     7
100
AcDbVertex
100
AcDb2dVertex
 10
-14.321781
 20
-22.925356
 30
0.0
 70
     8
  0
VERTEX
  5
331CD
330
1A1A3
100
AcDbEntity
  8
TITLE_BLOCK
  6
CONTINUOUS
 62
     7
100
AcDbVertex
100
AcDb2dVertex
 10
-14.501161
 20
-22.923422
 30
0.0
 70
     8
  0
VERTEX
  5
331CE
330
1A1A3
100
AcDbEntity
  8
TITLE_BLOCK
  6
CONTINUOUS
 62
     7
100
AcDbVertex
100
AcDb2dVertex
 10
-14.68057
 20
-22.924184
 30
0.0
 70
     8
  0
VERTEX
  5
331CF
330
1A1A3
100
AcDbEntity
  8
TITLE_BLOCK
  6
CONTINUOUS
 62
     7
100
AcDbVertex
100
AcDb2dVertex
 10
-14.682953
 20
-23.004575
 30
0.0
 70
     8
  0
VERTEX
  5
331D0
330
1A1A3
100
AcDbEntity
  8
TITLE_BLOCK
  6
CONTINUOUS
 62
     7
100
AcDbVertex
100
AcDb2dVertex
 10
-14.363773
 20
-23.002973
 30
0.0
 70
     8
  0
VERTEX
  5
331D1
330
1A1A3
100
AcDbEntity
  8
TITLE_BLOCK
  6
CONTINUOUS
 62
     7
100
AcDbVertex
100
AcDb2dVertex
 10
-14.363343
 20
-23.166176
 30
0.0
 70
     8
  0
VERTEX
  5
331D2
330
1A1A3
100
AcDbEntity
  8
TITLE_BLOCK
  6
CONTINUOUS
 62
     7
100
AcDbVertex
100
AcDb2dVertex
 10
-14.682953
 20
-23.164965
 30
0.0
 70
     8
  0
VERTEX
  5
331D3
330
1A1A3
100
AcDbEntity
  8
TITLE_BLOCK
  6
CONTINUOUS
 62
     7
100
AcDbVertex
100
AcDb2dVertex
 10
-14.682953
 20
-23.286567
 30
0.0
 70
     8
  0
VERTEX
  5
331D4
330
1A1A3
100
AcDbEntity
  8
TITLE_BLOCK
  6
CONTINUOUS
 62
     7
100
AcDbVertex
100
AcDb2dVertex
 10
-14.502167
 20
-23.284072
 30
0.0
 70
     8
  0
VERTEX
  5
331D5
330
1A1A3
100
AcDbEntity
  8
TITLE_BLOCK
  6
CONTINUOUS
 62
     7
100
AcDbVertex
100
AcDb2dVertex
 10
-14.321351
 20
-23.283364
 30
0.0
 70
     8
  0
VERTEX
  5
331D6
330
1A1A3
100
AcDbEntity
  8
TITLE_BLOCK
  6
CONTINUOUS
 62
     7
100
AcDbVertex
100
AcDb2dVertex
 10
-14.326156
 20
-23.447387
 30
0.0
 70
     8
  0
VERTEX
  5
331D7
330
1A1A3
100
AcDbEntity
  8
TITLE_BLOCK
  6
CONTINUOUS
 62
     7
100
AcDbVertex
100
AcDb2dVertex
 10
-14.46482
 20
-23.445079
 30
0.0
 70
     8
  0
VERTEX
  5
331D8
330
1A1A3
100
AcDbEntity
  8
TITLE_BLOCK
  6
CONTINUOUS
 62
     7
100
AcDbVertex
100
AcDb2dVertex
 10
-14.603558
 20
-23.444536
 30
0.0
 70
     8
  0
VERTEX
  5
331D9
330
1A1A3
100
AcDbEntity
  8
TITLE_BLOCK
  6
CONTINUOUS
 62
     7
100
AcDbVertex
100
AcDb2dVertex
 10
-14.880961
 20
-23.443793
 30
0.0
 70
     8
  0
VERTEX
  5
331DA
330
1A1A3
100
AcDbEntity
  8
TITLE_BLOCK
  6
CONTINUOUS
 62
     7
100
AcDbVertex
100
AcDb2dVertex
 10
-14.882826
 20
-23.273441
 30
0.0
 70
     8
  0
VERTEX
  5
331DB
330
1A1A3
100
AcDbEntity
  8
TITLE_BLOCK
  6
CONTINUOUS
 62
     7
100
AcDbVertex
100
AcDb2dVertex
 10
-14.883314
 20
-23.103173
 30
0.0
 70
     8
  0
VERTEX
  5
331DC
330
1A1A3
100
AcDbEntity
  8
TITLE_BLOCK
  6
CONTINUOUS
 62
     7
100
AcDbVertex
100
AcDb2dVertex
 10
-14.885375
 20
-22.762582
 30
0.0
 70
     8
  0
VERTEX
  5
331DD
330
1A1A3
100
AcDbEntity
  8
TITLE_BLOCK
  6
CONTINUOUS
 62
     7
100
AcDbVertex
100
AcDb2dVertex
 10
-14.885375
 20
-22.762582
 30
0.0
 70
     8
  0
VERTEX
  5
331DE
330
1A1A3
100
AcDbEntity
  8
TITLE_BLOCK
  6
CONTINUOUS
 62
     7
100
AcDbVertex
100
AcDb2dVertex
 10
-14.885375
 20
-22.762582
 30
0.0
 70
    16
  0
VERTEX
  5
331DF
330
1A1A3
100
AcDbEntity
  8
TITLE_BLOCK
  6
CONTINUOUS
 62
     7
100
AcDbVertex
100
AcDb2dVertex
 10
-14.697367
 20
-22.767387
 30
0.0
 70
    16
  0
VERTEX
  5
331E0
330
1A1A3
100
AcDbEntity
  8
TITLE_BLOCK
  6
CONTINUOUS
 62
     7
100
AcDbVertex
100
AcDb2dVertex
 10
-14.508968
 20
-22.763793
 30
0.0
 70
    16
  0
VERTEX
  5
331E1
330
1A1A3
100
AcDbEntity
  8
TITLE_BLOCK
  6
CONTINUOUS
 62
     7
100
AcDbVertex
100
AcDb2dVertex
 10
-14.320961
 20
-22.763793
 30
0.0
 70
    16
  0
VERTEX
  5
331E2
330
1A1A3
100
AcDbEntity
  8
TITLE_BLOCK
  6
CONTINUOUS
 62
     7
100
AcDbVertex
100
AcDb2dVertex
 10
-14.320961
 20
-22.817387
 30
0.0
 70
    16
  0
VERTEX
  5
331E3
330
1A1A3
100
AcDbEntity
  8
TITLE_BLOCK
  6
CONTINUOUS
 62
     7
100
AcDbVertex
100
AcDb2dVertex
 10
-14.321351
 20
-22.871372
 30
0.0
 70
    16
  0
VERTEX
  5
331E4
330
1A1A3
100
AcDbEntity
  8
TITLE_BLOCK
  6
CONTINUOUS
 62
     7
100
AcDbVertex
100
AcDb2dVertex
 10
-14.321781
 20
-22.925356
 30
0.0
 70
    16
  0
VERTEX
  5
331E5
330
1A1A3
100
AcDbEntity
  8
TITLE_BLOCK
  6
CONTINUOUS
 62
     7
100
AcDbVertex
100
AcDb2dVertex
 10
-14.441351
 20
-22.922973
 30
0.0
 70
    16
  0
VERTEX
  5
331E6
330
1A1A3
100
AcDbEntity
  8
TITLE_BLOCK
  6
CONTINUOUS
 62
     7
100
AcDbVertex
100
AcDb2dVertex
 10
-14.560961
 20
-22.922973
 30
0.0
 70
    16
  0
VERTEX
  5
331E7
330
1A1A3
100
AcDbEntity
  8
TITLE_BLOCK
  6
CONTINUOUS
 62
     7
100
AcDbVertex
100
AcDb2dVertex
 10
-14.68057
 20
-22.924184
 30
0.0
 70
    16
  0
VERTEX
  5
331E8
330
1A1A3
100
AcDbEntity
  8
TITLE_BLOCK
  6
CONTINUOUS
 62
     7
100
AcDbVertex
100
AcDb2dVertex
 10
-14.681351
 20
-22.944184
 30
0.0
 70
    16
  0
VERTEX
  5
331E9
330
1A1A3
100
AcDbEntity
  8
TITLE_BLOCK
  6
CONTINUOUS
 62
     7
100
AcDbVertex
100
AcDb2dVertex
 10
-14.682562
 20
-22.984184
 30
0.0
 70
    16
  0
VERTEX
  5
331EA
330
1A1A3
100
AcDbEntity
  8
TITLE_BLOCK
  6
CONTINUOUS
 62
     7
100
AcDbVertex
100
AcDb2dVertex
 10
-14.682953
 20
-23.004575
 30
0.0
 70
    16
  0
VERTEX
  5
331EB
330
1A1A3
100
AcDbEntity
  8
TITLE_BLOCK
  6
CONTINUOUS
 62
     7
100
AcDbVertex
100
AcDb2dVertex
 10
-14.576976
 20
-23.003364
 30
0.0
 70
    16
  0
VERTEX
  5
331EC
330
1A1A3
100
AcDbEntity
  8
TITLE_BLOCK
  6
CONTINUOUS
 62
     7
100
AcDbVertex
100
AcDb2dVertex
 10
-14.47057
 20
-23.003364
 30
0.0
 70
    16
  0
VERTEX
  5
331ED
330
1A1A3
100
AcDbEntity
  8
TITLE_BLOCK
  6
CONTINUOUS
 62
     7
100
AcDbVertex
100
AcDb2dVertex
 10
-14.363773
 20
-23.002973
 30
0.0
 70
    16
  0
VERTEX
  5
331EE
330
1A1A3
100
AcDbEntity
  8
TITLE_BLOCK
  6
CONTINUOUS
 62
     7
100
AcDbVertex
100
AcDb2dVertex
 10
-14.363773
 20
-23.057387
 30
0.0
 70
    16
  0
VERTEX
  5
331EF
330
1A1A3
100
AcDbEntity
  8
TITLE_BLOCK
  6
CONTINUOUS
 62
     7
100
AcDbVertex
100
AcDb2dVertex
 10
-14.363773
 20
-23.111762
 30
0.0
 70
    16
  0
VERTEX
  5
331F0
330
1A1A3
100
AcDbEntity
  8
TITLE_BLOCK
  6
CONTINUOUS
 62
     7
100
AcDbVertex
100
AcDb2dVertex
 10
-14.363343
 20
-23.166176
 30
0.0
 70
    16
  0
VERTEX
  5
331F1
330
1A1A3
100
AcDbEntity
  8
TITLE_BLOCK
  6
CONTINUOUS
 62
     7
100
AcDbVertex
100
AcDb2dVertex
 10
-14.46975
 20
-23.164965
 30
0.0
 70
    16
  0
VERTEX
  5
331F2
330
1A1A3
100
AcDbEntity
  8
TITLE_BLOCK
  6
CONTINUOUS
 62
     7
100
AcDbVertex
100
AcDb2dVertex
 10
-14.576547
 20
-23.165356
 30
0.0
 70
    16
  0
VERTEX
  5
331F3
330
1A1A3
100
AcDbEntity
  8
TITLE_BLOCK
  6
CONTINUOUS
 62
     7
100
AcDbVertex
100
AcDb2dVertex
 10
-14.682953
 20
-23.164965
 30
0.0
 70
    16
  0
VERTEX
  5
331F4
330
1A1A3
100
AcDbEntity
  8
TITLE_BLOCK
  6
CONTINUOUS
 62
     7
100
AcDbVertex
100
AcDb2dVertex
 10
-14.682953
 20
-23.195356
 30
0.0
 70
    16
  0
VERTEX
  5
331F5
330
1A1A3
100
AcDbEntity
  8
TITLE_BLOCK
  6
CONTINUOUS
 62
     7
100
AcDbVertex
100
AcDb2dVertex
 10
-14.682953
 20
-23.256176
 30
0.0
 70
    16
  0
VERTEX
  5
331F6
330
1A1A3
100
AcDbEntity
  8
TITLE_BLOCK
  6
CONTINUOUS
 62
     7
100
AcDbVertex
100
AcDb2dVertex
 10
-14.682953
 20
-23.286567
 30
0.0
 70
    16
  0
VERTEX
  5
331F7
330
1A1A3
100
AcDbEntity
  8
TITLE_BLOCK
  6
CONTINUOUS
 62
     7
100
AcDbVertex
100
AcDb2dVertex
 10
-14.562562
 20
-23.284575
 30
0.0
 70
    16
  0
VERTEX
  5
331F8
330
1A1A3
100
AcDbEntity
  8
TITLE_BLOCK
  6
CONTINUOUS
 62
     7
100
AcDbVertex
100
AcDb2dVertex
 10
-14.441781
 20
-23.282973
 30
0.0
 70
    16
  0
VERTEX
  5
331F9
330
1A1A3
100
AcDbEntity
  8
TITLE_BLOCK
  6
CONTINUOUS
 62
     7
100
AcDbVertex
100
AcDb2dVertex
 10
-14.321351
 20
-23.283364
 30
0.0
 70
    16
  0
VERTEX
  5
331FA
330
1A1A3
100
AcDbEntity
  8
TITLE_BLOCK
  6
CONTINUOUS
 62
     7
100
AcDbVertex
100
AcDb2dVertex
 10
-14.322953
 20
-23.338168
 30
0.0
 70
    16
  0
VERTEX
  5
331FB
330
1A1A3
100
AcDbEntity
  8
TITLE_BLOCK
  6
CONTINUOUS
 62
     7
100
AcDbVertex
100
AcDb2dVertex
 10
-14.324554
 20
-23.392582
 30
0.0
 70
    16
  0
VERTEX
  5
331FC
330
1A1A3
100
AcDbEntity
  8
TITLE_BLOCK
  6
CONTINUOUS
 62
     7
100
AcDbVertex
100
AcDb2dVertex
 10
-14.326156
 20
-23.447387
 30
0.0
 70
    16
  0
VERTEX
  5
331FD
330
1A1A3
100
AcDbEntity
  8
TITLE_BLOCK
  6
CONTINUOUS
 62
     7
100
AcDbVertex
100
AcDb2dVertex
 10
-14.510961
 20
-23.442582
 30
0.0
 70
    16
  0
VERTEX
  5
331FE
330
1A1A3
100
AcDbEntity
  8
TITLE_BLOCK
  6
CONTINUOUS
 62
     7
100
AcDbVertex
100
AcDb2dVertex
 10
-14.696156
 20
-23.445786
 30
0.0
 70
    16
  0
VERTEX
  5
331FF
330
1A1A3
100
AcDbEntity
  8
TITLE_BLOCK
  6
CONTINUOUS
 62
     7
100
AcDbVertex
100
AcDb2dVertex
 10
-14.880961
 20
-23.443793
 30
0.0
 70
    16
  0
VERTEX
  5
33200
330
1A1A3
100
AcDbEntity
  8
TITLE_BLOCK
  6
CONTINUOUS
 62
     7
100
AcDbVertex
100
AcDb2dVertex
 10
-14.884945
 20
-23.216567
 30
0.0
 70
    16
  0
VERTEX
  5
33201
330
1A1A3
100
AcDbEntity
  8
TITLE_BLOCK
  6
CONTINUOUS
 62
     7
100
AcDbVertex
100
AcDb2dVertex
 10
-14.881781
 20
-22.98977
 30
0.0
 70
    16
  0
VERTEX
  5
33202
330
1A1A3
100
AcDbEntity
  8
TITLE_BLOCK
  6
CONTINUOUS
 62
     7
100
AcDbVertex
100
AcDb2dVertex
 10
-14.885375
 20
-22.762582
 30
0.0
 70
    16
  0
VERTEX
  5
33203
330
1A1A3
100
AcDbEntity
  8
TITLE_BLOCK
  6
CONTINUOUS
 62
     7
100
AcDbVertex
100
AcDb2dVertex
 10
-14.885375
 20
-22.762582
 30
0.0
 70
    16
  0
VERTEX
  5
33204
330
1A1A3
100
AcDbEntity
  8
TITLE_BLOCK
  6
CONTINUOUS
 62
     7
100
AcDbVertex
100
AcDb2dVertex
 10
-14.885375
 20
-22.762582
 30
0.0
 70
    16
  0
VERTEX
  5
33205
330
1A1A3
100
AcDbEntity
  8
TITLE_BLOCK
  6
CONTINUOUS
 62
     7
100
AcDbVertex
100
AcDb2dVertex
 10
-14.885375
 20
-22.762582
 30
0.0
 70
    16
  0
SEQEND
  5
33206
330
1A1A3
100
AcDbEntity
  8
TITLE_BLOCK
  6
CONTINUOUS
 62
     7
  0
POLYLINE
  5
1A1E2
330
32D05
100
AcDbEntity
  8
TITLE_BLOCK
  6
CONTINUOUS
 62
     7
100
AcDb2dPolyline
 66
     1
 10
0.0
 20
0.0
 30
0.0
 70
     5
 75
     5
  0
VERTEX
  5
33207
330
1A1E2
100
AcDbEntity
  8
TITLE_BLOCK
  6
CONTINUOUS
 62
     7
100
AcDbVertex
100
AcDb2dVertex
 10
-14.14975
 20
-22.795786
 30
0.0
 70
     8
  0
VERTEX
  5
33208
330
1A1E2
100
AcDbEntity
  8
TITLE_BLOCK
  6
CONTINUOUS
 62
     7
100
AcDbVertex
100
AcDb2dVertex
 10
-14.027718
 20
-22.774726
 30
0.0
 70
     8
  0
VERTEX
  5
33209
330
1A1E2
100
AcDbEntity
  8
TITLE_BLOCK
  6
CONTINUOUS
 62
     7
100
AcDbVertex
100
AcDb2dVertex
 10
-13.966223
 20
-22.76726
 30
0.0
 70
     8
  0
VERTEX
  5
3320A
330
1A1E2
100
AcDbEntity
  8
TITLE_BLOCK
  6
CONTINUOUS
 62
     7
100
AcDbVertex
100
AcDb2dVertex
 10
-13.904164
 20
-22.764184
 30
0.0
 70
     8
  0
VERTEX
  5
3320B
330
1A1E2
100
AcDbEntity
  8
TITLE_BLOCK
  6
CONTINUOUS
 62
     7
100
AcDbVertex
100
AcDb2dVertex
 10
-13.835809
 20
-22.785532
 30
0.0
 70
     8
  0
VERTEX
  5
3320C
330
1A1E2
100
AcDbEntity
  8
TITLE_BLOCK
  6
CONTINUOUS
 62
     7
100
AcDbVertex
100
AcDb2dVertex
 10
-13.766547
 20
-22.804184
 30
0.0
 70
     8
  0
VERTEX
  5
3320D
330
1A1E2
100
AcDbEntity
  8
TITLE_BLOCK
  6
CONTINUOUS
 62
     7
100
AcDbVertex
100
AcDb2dVertex
 10
-13.742502
 20
-22.84368
 30
0.0
 70
     8
  0
VERTEX
  5
3320E
330
1A1E2
100
AcDbEntity
  8
TITLE_BLOCK
  6
CONTINUOUS
 62
     7
100
AcDbVertex
100
AcDb2dVertex
 10
-13.719999
 20
-22.884077
 30
0.0
 70
     8
  0
VERTEX
  5
3320F
330
1A1E2
100
AcDbEntity
  8
TITLE_BLOCK
  6
CONTINUOUS
 62
     7
100
AcDbVertex
100
AcDb2dVertex
 10
-13.678578
 20
-22.966957
 30
0.0
 70
     8
  0
VERTEX
  5
33210
330
1A1E2
100
AcDbEntity
  8
TITLE_BLOCK
  6
CONTINUOUS
 62
     7
100
AcDbVertex
100
AcDb2dVertex
 10
-13.702946
 20
-22.972852
 30
0.0
 70
     8
  0
VERTEX
  5
33211
330
1A1E2
100
AcDbEntity
  8
TITLE_BLOCK
  6
CONTINUOUS
 62
     7
100
AcDbVertex
100
AcDb2dVertex
 10
-13.728347
 20
-22.974547
 30
0.0
 70
     8
  0
VERTEX
  5
33212
330
1A1E2
100
AcDbEntity
  8
TITLE_BLOCK
  6
CONTINUOUS
 62
     7
100
AcDbVertex
100
AcDb2dVertex
 10
-13.754548
 20
-22.972821
 30
0.0
 70
     8
  0
VERTEX
  5
33213
330
1A1E2
100
AcDbEntity
  8
TITLE_BLOCK
  6
CONTINUOUS
 62
     7
100
AcDbVertex
100
AcDb2dVertex
 10
-13.781317
 20
-22.968452
 30
0.0
 70
     8
  0
VERTEX
  5
33214
330
1A1E2
100
AcDbEntity
  8
TITLE_BLOCK
  6
CONTINUOUS
 62
     7
100
AcDbVertex
100
AcDb2dVertex
 10
-13.835627
 20
-22.954902
 30
0.0
 70
     8
  0
VERTEX
  5
33215
330
1A1E2
100
AcDbEntity
  8
TITLE_BLOCK
  6
CONTINUOUS
 62
     7
100
AcDbVertex
100
AcDb2dVertex
 10
-13.889418
 20
-22.940126
 30
0.0
 70
     8
  0
VERTEX
  5
33216
330
1A1E2
100
AcDbEntity
  8
TITLE_BLOCK
  6
CONTINUOUS
 62
     7
100
AcDbVertex
100
AcDb2dVertex
 10
-13.915536
 20
-22.934226
 30
0.0
 70
     8
  0
VERTEX
  5
33217
330
1A1E2
100
AcDbEntity
  8
TITLE_BLOCK
  6
CONTINUOUS
 62
     7
100
AcDbVertex
100
AcDb2dVertex
 10
-13.940828
 20
-22.930355
 30
0.0
 70
     8
  0
VERTEX
  5
33218
330
1A1E2
100
AcDbEntity
  8
TITLE_BLOCK
  6
CONTINUOUS
 62
     7
100
AcDbVertex
100
AcDb2dVertex
 10
-13.965058
 20
-22.929293
 30
0.0
 70
     8
  0
VERTEX
  5
33219
330
1A1E2
100
AcDbEntity
  8
TITLE_BLOCK
  6
CONTINUOUS
 62
     7
100
AcDbVertex
100
AcDb2dVertex
 10
-13.987997
 20
-22.931818
 30
0.0
 70
     8
  0
VERTEX
  5
3321A
330
1A1E2
100
AcDbEntity
  8
TITLE_BLOCK
  6
CONTINUOUS
 62
     7
100
AcDbVertex
100
AcDb2dVertex
 10
-14.00941
 20
-22.938709
 30
0.0
 70
     8
  0
VERTEX
  5
3321B
330
1A1E2
100
AcDbEntity
  8
TITLE_BLOCK
  6
CONTINUOUS
 62
     7
100
AcDbVertex
100
AcDb2dVertex
 10
-14.029065
 20
-22.950744
 30
0.0
 70
     8
  0
VERTEX
  5
3321C
330
1A1E2
100
AcDbEntity
  8
TITLE_BLOCK
  6
CONTINUOUS
 62
     7
100
AcDbVertex
100
AcDb2dVertex
 10
-14.04673
 20
-22.968703
 30
0.0
 70
     8
  0
VERTEX
  5
3321D
330
1A1E2
100
AcDbEntity
  8
TITLE_BLOCK
  6
CONTINUOUS
 62
     7
100
AcDbVertex
100
AcDb2dVertex
 10
-14.062172
 20
-22.993364
 30
0.0
 70
     8
  0
VERTEX
  5
3321E
330
1A1E2
100
AcDbEntity
  8
TITLE_BLOCK
  6
CONTINUOUS
 62
     7
100
AcDbVertex
100
AcDb2dVertex
 10
-14.001023
 20
-23.008531
 30
0.0
 70
     8
  0
VERTEX
  5
3321F
330
1A1E2
100
AcDbEntity
  8
TITLE_BLOCK
  6
CONTINUOUS
 62
     7
100
AcDbVertex
100
AcDb2dVertex
 10
-13.936883
 20
-23.022003
 30
0.0
 70
     8
  0
VERTEX
  5
33220
330
1A1E2
100
AcDbEntity
  8
TITLE_BLOCK
  6
CONTINUOUS
 62
     7
100
AcDbVertex
100
AcDb2dVertex
 10
-13.872311
 20
-23.036583
 30
0.0
 70
     8
  0
VERTEX
  5
33221
330
1A1E2
100
AcDbEntity
  8
TITLE_BLOCK
  6
CONTINUOUS
 62
     7
100
AcDbVertex
100
AcDb2dVertex
 10
-13.840663
 20
-23.045164
 30
0.0
 70
     8
  0
VERTEX
  5
33222
330
1A1E2
100
AcDbEntity
  8
TITLE_BLOCK
  6
CONTINUOUS
 62
     7
100
AcDbVertex
100
AcDb2dVertex
 10
-13.809867
 20
-23.055073
 30
0.0
 70
     8
  0
VERTEX
  5
33223
330
1A1E2
100
AcDbEntity
  8
TITLE_BLOCK
  6
CONTINUOUS
 62
     7
100
AcDbVertex
100
AcDb2dVertex
 10
-13.780242
 20
-23.06666
 30
0.0
 70
     8
  0
VERTEX
  5
33224
330
1A1E2
100
AcDbEntity
  8
TITLE_BLOCK
  6
CONTINUOUS
 62
     7
100
AcDbVertex
100
AcDb2dVertex
 10
-13.75211
 20
-23.080276
 30
0.0
 70
     8
  0
VERTEX
  5
33225
330
1A1E2
100
AcDbEntity
  8
TITLE_BLOCK
  6
CONTINUOUS
 62
     7
100
AcDbVertex
100
AcDb2dVertex
 10
-13.725789
 20
-23.09627
 30
0.0
 70
     8
  0
VERTEX
  5
33226
330
1A1E2
100
AcDbEntity
  8
TITLE_BLOCK
  6
CONTINUOUS
 62
     7
100
AcDbVertex
100
AcDb2dVertex
 10
-13.7016
 20
-23.114993
 30
0.0
 70
     8
  0
VERTEX
  5
33227
330
1A1E2
100
AcDbEntity
  8
TITLE_BLOCK
  6
CONTINUOUS
 62
     7
100
AcDbVertex
100
AcDb2dVertex
 10
-13.679863
 20
-23.136796
 30
0.0
 70
     8
  0
VERTEX
  5
33228
330
1A1E2
100
AcDbEntity
  8
TITLE_BLOCK
  6
CONTINUOUS
 62
     7
100
AcDbVertex
100
AcDb2dVertex
 10
-13.660898
 20
-23.162029
 30
0.0
 70
     8
  0
VERTEX
  5
33229
330
1A1E2
100
AcDbEntity
  8
TITLE_BLOCK
  6
CONTINUOUS
 62
     7
100
AcDbVertex
100
AcDb2dVertex
 10
-13.645024
 20
-23.191041
 30
0.0
 70
     8
  0
VERTEX
  5
3322A
330
1A1E2
100
AcDbEntity
  8
TITLE_BLOCK
  6
CONTINUOUS
 62
     7
100
AcDbVertex
100
AcDb2dVertex
 10
-13.632562
 20
-23.224184
 30
0.0
 70
     8
  0
VERTEX
  5
3322B
330
1A1E2
100
AcDbEntity
  8
TITLE_BLOCK
  6
CONTINUOUS
 62
     7
100
AcDbVertex
100
AcDb2dVertex
 10
-13.640646
 20
-23.250781
 30
0.0
 70
     8
  0
VERTEX
  5
3322C
330
1A1E2
100
AcDbEntity
  8
TITLE_BLOCK
  6
CONTINUOUS
 62
     7
100
AcDbVertex
100
AcDb2dVertex
 10
-13.651069
 20
-23.275676
 30
0.0
 70
     8
  0
VERTEX
  5
3322D
330
1A1E2
100
AcDbEntity
  8
TITLE_BLOCK
  6
CONTINUOUS
 62
     7
100
AcDbVertex
100
AcDb2dVertex
 10
-13.663675
 20
-23.298869
 30
0.0
 70
     8
  0
VERTEX
  5
3322E
330
1A1E2
100
AcDbEntity
  8
TITLE_BLOCK
  6
CONTINUOUS
 62
     7
100
AcDbVertex
100
AcDb2dVertex
 10
-13.678311
 20
-23.320361
 30
0.0
 70
     8
  0
VERTEX
  5
3322F
330
1A1E2
100
AcDbEntity
  8
TITLE_BLOCK
  6
CONTINUOUS
 62
     7
100
AcDbVertex
100
AcDb2dVertex
 10
-13.694821
 20
-23.340149
 30
0.0
 70
     8
  0
VERTEX
  5
33230
330
1A1E2
100
AcDbEntity
  8
TITLE_BLOCK
  6
CONTINUOUS
 62
     7
100
AcDbVertex
100
AcDb2dVertex
 10
-13.713051
 20
-23.358235
 30
0.0
 70
     8
  0
VERTEX
  5
33231
330
1A1E2
100
AcDbEntity
  8
TITLE_BLOCK
  6
CONTINUOUS
 62
     7
100
AcDbVertex
100
AcDb2dVertex
 10
-13.732845
 20
-23.374618
 30
0.0
 70
     8
  0
VERTEX
  5
33232
330
1A1E2
100
AcDbEntity
  8
TITLE_BLOCK
  6
CONTINUOUS
 62
     7
100
AcDbVertex
100
AcDb2dVertex
 10
-13.75405
 20
-23.389297
 30
0.0
 70
     8
  0
VERTEX
  5
33233
330
1A1E2
100
AcDbEntity
  8
TITLE_BLOCK
  6
CONTINUOUS
 62
     7
100
AcDbVertex
100
AcDb2dVertex
 10
-13.776509
 20
-23.402272
 30
0.0
 70
     8
  0
VERTEX
  5
33234
330
1A1E2
100
AcDbEntity
  8
TITLE_BLOCK
  6
CONTINUOUS
 62
     7
100
AcDbVertex
100
AcDb2dVertex
 10
-13.800068
 20
-23.413544
 30
0.0
 70
     8
  0
VERTEX
  5
33235
330
1A1E2
100
AcDbEntity
  8
TITLE_BLOCK
  6
CONTINUOUS
 62
     7
100
AcDbVertex
100
AcDb2dVertex
 10
-13.824573
 20
-23.423111
 30
0.0
 70
     8
  0
VERTEX
  5
33236
330
1A1E2
100
AcDbEntity
  8
TITLE_BLOCK
  6
CONTINUOUS
 62
     7
100
AcDbVertex
100
AcDb2dVertex
 10
-13.849868
 20
-23.430974
 30
0.0
 70
     8
  0
VERTEX
  5
33237
330
1A1E2
100
AcDbEntity
  8
TITLE_BLOCK
  6
CONTINUOUS
 62
     7
100
AcDbVertex
100
AcDb2dVertex
 10
-13.875799
 20
-23.437131
 30
0.0
 70
     8
  0
VERTEX
  5
33238
330
1A1E2
100
AcDbEntity
  8
TITLE_BLOCK
  6
CONTINUOUS
 62
     7
100
AcDbVertex
100
AcDb2dVertex
 10
-13.902211
 20
-23.441583
 30
0.0
 70
     8
  0
VERTEX
  5
33239
330
1A1E2
100
AcDbEntity
  8
TITLE_BLOCK
  6
CONTINUOUS
 62
     7
100
AcDbVertex
100
AcDb2dVertex
 10
-13.928949
 20
-23.44433
 30
0.0
 70
     8
  0
VERTEX
  5
3323A
330
1A1E2
100
AcDbEntity
  8
TITLE_BLOCK
  6
CONTINUOUS
 62
     7
100
AcDbVertex
100
AcDb2dVertex
 10
-13.955858
 20
-23.445371
 30
0.0
 70
     8
  0
VERTEX
  5
3323B
330
1A1E2
100
AcDbEntity
  8
TITLE_BLOCK
  6
CONTINUOUS
 62
     7
100
AcDbVertex
100
AcDb2dVertex
 10
-13.982783
 20
-23.444705
 30
0.0
 70
     8
  0
VERTEX
  5
3323C
330
1A1E2
100
AcDbEntity
  8
TITLE_BLOCK
  6
CONTINUOUS
 62
     7
100
AcDbVertex
100
AcDb2dVertex
 10
-14.00957
 20
-23.442333
 30
0.0
 70
     8
  0
VERTEX
  5
3323D
330
1A1E2
100
AcDbEntity
  8
TITLE_BLOCK
  6
CONTINUOUS
 62
     7
100
AcDbVertex
100
AcDb2dVertex
 10
-14.036064
 20
-23.438254
 30
0.0
 70
     8
  0
VERTEX
  5
3323E
330
1A1E2
100
AcDbEntity
  8
TITLE_BLOCK
  6
CONTINUOUS
 62
     7
100
AcDbVertex
100
AcDb2dVertex
 10
-14.06211
 20
-23.432468
 30
0.0
 70
     8
  0
VERTEX
  5
3323F
330
1A1E2
100
AcDbEntity
  8
TITLE_BLOCK
  6
CONTINUOUS
 62
     7
100
AcDbVertex
100
AcDb2dVertex
 10
-14.087552
 20
-23.424975
 30
0.0
 70
     8
  0
VERTEX
  5
33240
330
1A1E2
100
AcDbEntity
  8
TITLE_BLOCK
  6
CONTINUOUS
 62
     7
100
AcDbVertex
100
AcDb2dVertex
 10
-14.112237
 20
-23.415774
 30
0.0
 70
     8
  0
VERTEX
  5
33241
330
1A1E2
100
AcDbEntity
  8
TITLE_BLOCK
  6
CONTINUOUS
 62
     7
100
AcDbVertex
100
AcDb2dVertex
 10
-14.136009
 20
-23.404865
 30
0.0
 70
     8
  0
VERTEX
  5
33242
330
1A1E2
100
AcDbEntity
  8
TITLE_BLOCK
  6
CONTINUOUS
 62
     7
100
AcDbVertex
100
AcDb2dVertex
 10
-14.158714
 20
-23.392247
 30
0.0
 70
     8
  0
VERTEX
  5
33243
330
1A1E2
100
AcDbEntity
  8
TITLE_BLOCK
  6
CONTINUOUS
 62
     7
100
AcDbVertex
100
AcDb2dVertex
 10
-14.180196
 20
-23.377921
 30
0.0
 70
     8
  0
VERTEX
  5
33244
330
1A1E2
100
AcDbEntity
  8
TITLE_BLOCK
  6
CONTINUOUS
 62
     7
100
AcDbVertex
100
AcDb2dVertex
 10
-14.200302
 20
-23.361886
 30
0.0
 70
     8
  0
VERTEX
  5
33245
330
1A1E2
100
AcDbEntity
  8
TITLE_BLOCK
  6
CONTINUOUS
 62
     7
100
AcDbVertex
100
AcDb2dVertex
 10
-14.218875
 20
-23.344142
 30
0.0
 70
     8
  0
VERTEX
  5
33246
330
1A1E2
100
AcDbEntity
  8
TITLE_BLOCK
  6
CONTINUOUS
 62
     7
100
AcDbVertex
100
AcDb2dVertex
 10
-14.235762
 20
-23.324688
 30
0.0
 70
     8
  0
VERTEX
  5
33247
330
1A1E2
100
AcDbEntity
  8
TITLE_BLOCK
  6
CONTINUOUS
 62
     7
100
AcDbVertex
100
AcDb2dVertex
 10
-14.250806
 20
-23.303524
 30
0.0
 70
     8
  0
VERTEX
  5
33248
330
1A1E2
100
AcDbEntity
  8
TITLE_BLOCK
  6
CONTINUOUS
 62
     7
100
AcDbVertex
100
AcDb2dVertex
 10
-14.263855
 20
-23.28065
 30
0.0
 70
     8
  0
VERTEX
  5
33249
330
1A1E2
100
AcDbEntity
  8
TITLE_BLOCK
  6
CONTINUOUS
 62
     7
100
AcDbVertex
100
AcDb2dVertex
 10
-14.274752
 20
-23.256065
 30
0.0
 70
     8
  0
VERTEX
  5
3324A
330
1A1E2
100
AcDbEntity
  8
TITLE_BLOCK
  6
CONTINUOUS
 62
     7
100
AcDbVertex
100
AcDb2dVertex
 10
-14.283343
 20
-23.22977
 30
0.0
 70
     8
  0
VERTEX
  5
3324B
330
1A1E2
100
AcDbEntity
  8
TITLE_BLOCK
  6
CONTINUOUS
 62
     7
100
AcDbVertex
100
AcDb2dVertex
 10
-14.101781
 20
-23.203364
 30
0.0
 70
     8
  0
VERTEX
  5
3324C
330
1A1E2
100
AcDbEntity
  8
TITLE_BLOCK
  6
CONTINUOUS
 62
     7
100
AcDbVertex
100
AcDb2dVertex
 10
-14.091507
 20
-23.222692
 30
0.0
 70
     8
  0
VERTEX
  5
3324D
330
1A1E2
100
AcDbEntity
  8
TITLE_BLOCK
  6
CONTINUOUS
 62
     7
100
AcDbVertex
100
AcDb2dVertex
 10
-14.07941
 20
-23.238843
 30
0.0
 70
     8
  0
VERTEX
  5
3324E
330
1A1E2
100
AcDbEntity
  8
TITLE_BLOCK
  6
CONTINUOUS
 62
     7
100
AcDbVertex
100
AcDb2dVertex
 10
-14.065674
 20
-23.25206
 30
0.0
 70
     8
  0
VERTEX
  5
3324F
330
1A1E2
100
AcDbEntity
  8
TITLE_BLOCK
  6
CONTINUOUS
 62
     7
100
AcDbVertex
100
AcDb2dVertex
 10
-14.050482
 20
-23.262587
 30
0.0
 70
     8
  0
VERTEX
  5
33250
330
1A1E2
100
AcDbEntity
  8
TITLE_BLOCK
  6
CONTINUOUS
 62
     7
100
AcDbVertex
100
AcDb2dVertex
 10
-14.034018
 20
-23.270667
 30
0.0
 70
     8
  0
VERTEX
  5
33251
330
1A1E2
100
AcDbEntity
  8
TITLE_BLOCK
  6
CONTINUOUS
 62
     7
100
AcDbVertex
100
AcDb2dVertex
 10
-14.016464
 20
-23.276544
 30
0.0
 70
     8
  0
VERTEX
  5
33252
330
1A1E2
100
AcDbEntity
  8
TITLE_BLOCK
  6
CONTINUOUS
 62
     7
100
AcDbVertex
100
AcDb2dVertex
 10
-13.998004
 20
-23.280463
 30
0.0
 70
     8
  0
VERTEX
  5
33253
330
1A1E2
100
AcDbEntity
  8
TITLE_BLOCK
  6
CONTINUOUS
 62
     7
100
AcDbVertex
100
AcDb2dVertex
 10
-13.978822
 20
-23.282665
 30
0.0
 70
     8
  0
VERTEX
  5
33254
330
1A1E2
100
AcDbEntity
  8
TITLE_BLOCK
  6
CONTINUOUS
 62
     7
100
AcDbVertex
100
AcDb2dVertex
 10
-13.939023
 20
-23.2829
 30
0.0
 70
     8
  0
VERTEX
  5
33255
330
1A1E2
100
AcDbEntity
  8
TITLE_BLOCK
  6
CONTINUOUS
 62
     7
100
AcDbVertex
100
AcDb2dVertex
 10
-13.898534
 20
-23.279197
 30
0.0
 70
     8
  0
VERTEX
  5
33256
330
1A1E2
100
AcDbEntity
  8
TITLE_BLOCK
  6
CONTINUOUS
 62
     7
100
AcDbVertex
100
AcDb2dVertex
 10
-13.821351
 20
-23.267778
 30
0.0
 70
     8
  0
VERTEX
  5
33257
330
1A1E2
100
AcDbEntity
  8
TITLE_BLOCK
  6
CONTINUOUS
 62
     7
100
AcDbVertex
100
AcDb2dVertex
 10
-13.828154
 20
-23.244058
 30
0.0
 70
     8
  0
VERTEX
  5
33258
330
1A1E2
100
AcDbEntity
  8
TITLE_BLOCK
  6
CONTINUOUS
 62
     7
100
AcDbVertex
100
AcDb2dVertex
 10
-13.837867
 20
-23.223701
 30
0.0
 70
     8
  0
VERTEX
  5
33259
330
1A1E2
100
AcDbEntity
  8
TITLE_BLOCK
  6
CONTINUOUS
 62
     7
100
AcDbVertex
100
AcDb2dVertex
 10
-13.850205
 20
-23.206405
 30
0.0
 70
     8
  0
VERTEX
  5
3325A
330
1A1E2
100
AcDbEntity
  8
TITLE_BLOCK
  6
CONTINUOUS
 62
     7
100
AcDbVertex
100
AcDb2dVertex
 10
-13.864883
 20
-23.191867
 30
0.0
 70
     8
  0
VERTEX
  5
3325B
330
1A1E2
100
AcDbEntity
  8
TITLE_BLOCK
  6
CONTINUOUS
 62
     7
100
AcDbVertex
100
AcDb2dVertex
 10
-13.881613
 20
-23.179783
 30
0.0
 70
     8
  0
VERTEX
  5
3325C
330
1A1E2
100
AcDbEntity
  8
TITLE_BLOCK
  6
CONTINUOUS
 62
     7
100
AcDbVertex
100
AcDb2dVertex
 10
-13.900111
 20
-23.169851
 30
0.0
 70
     8
  0
VERTEX
  5
3325D
330
1A1E2
100
AcDbEntity
  8
TITLE_BLOCK
  6
CONTINUOUS
 62
     7
100
AcDbVertex
100
AcDb2dVertex
 10
-13.92009
 20
-23.161767
 30
0.0
 70
     8
  0
VERTEX
  5
3325E
330
1A1E2
100
AcDbEntity
  8
TITLE_BLOCK
  6
CONTINUOUS
 62
     7
100
AcDbVertex
100
AcDb2dVertex
 10
-13.941263
 20
-23.155229
 30
0.0
 70
     8
  0
VERTEX
  5
3325F
330
1A1E2
100
AcDbEntity
  8
TITLE_BLOCK
  6
CONTINUOUS
 62
     7
100
AcDbVertex
100
AcDb2dVertex
 10
-13.986052
 20
-23.145576
 30
0.0
 70
     8
  0
VERTEX
  5
33260
330
1A1E2
100
AcDbEntity
  8
TITLE_BLOCK
  6
CONTINUOUS
 62
     7
100
AcDbVertex
100
AcDb2dVertex
 10
-14.03219
 20
-23.138469
 30
0.0
 70
     8
  0
VERTEX
  5
33261
330
1A1E2
100
AcDbEntity
  8
TITLE_BLOCK
  6
CONTINUOUS
 62
     7
100
AcDbVertex
100
AcDb2dVertex
 10
-14.077388
 20
-23.131482
 30
0.0
 70
     8
  0
VERTEX
  5
33262
330
1A1E2
100
AcDbEntity
  8
TITLE_BLOCK
  6
CONTINUOUS
 62
     7
100
AcDbVertex
100
AcDb2dVertex
 10
-14.119359
 20
-23.122192
 30
0.0
 70
     8
  0
VERTEX
  5
33263
330
1A1E2
100
AcDbEntity
  8
TITLE_BLOCK
  6
CONTINUOUS
 62
     7
100
AcDbVertex
100
AcDb2dVertex
 10
-14.158783
 20
-23.082545
 30
0.0
 70
     8
  0
VERTEX
  5
33264
330
1A1E2
100
AcDbEntity
  8
TITLE_BLOCK
  6
CONTINUOUS
 62
     7
100
AcDbVertex
100
AcDb2dVertex
 10
-14.195013
 20
-23.040273
 30
0.0
 70
     8
  0
VERTEX
  5
33265
330
1A1E2
100
AcDbEntity
  8
TITLE_BLOCK
  6
CONTINUOUS
 62
     7
100
AcDbVertex
100
AcDb2dVertex
 10
-14.227421
 20
-22.995151
 30
0.0
 70
     8
  0
VERTEX
  5
33266
330
1A1E2
100
AcDbEntity
  8
TITLE_BLOCK
  6
CONTINUOUS
 62
     7
100
AcDbVertex
100
AcDb2dVertex
 10
-14.255375
 20
-22.946957
 30
0.0
 70
     8
  0
VERTEX
  5
33267
330
1A1E2
100
AcDbEntity
  8
TITLE_BLOCK
  6
CONTINUOUS
 62
     7
100
AcDbVertex
100
AcDb2dVertex
 10
-14.203763
 20
-22.870478
 30
0.0
 70
     8
  0
VERTEX
  5
33268
330
1A1E2
100
AcDbEntity
  8
TITLE_BLOCK
  6
CONTINUOUS
 62
     7
100
AcDbVertex
100
AcDb2dVertex
 10
-14.14975
 20
-22.795786
 30
0.0
 70
     8
  0
VERTEX
  5
33269
330
1A1E2
100
AcDbEntity
  8
TITLE_BLOCK
  6
CONTINUOUS
 62
     7
100
AcDbVertex
100
AcDb2dVertex
 10
-14.14975
 20
-22.795786
 30
0.0
 70
     8
  0
VERTEX
  5
3326A
330
1A1E2
100
AcDbEntity
  8
TITLE_BLOCK
  6
CONTINUOUS
 62
     7
100
AcDbVertex
100
AcDb2dVertex
 10
-14.14975
 20
-22.795786
 30
0.0
 70
    16
  0
VERTEX
  5
3326B
330
1A1E2
100
AcDbEntity
  8
TITLE_BLOCK
  6
CONTINUOUS
 62
     7
100
AcDbVertex
100
AcDb2dVertex
 10
-14.068578
 20
-22.781372
 30
0.0
 70
    16
  0
VERTEX
  5
3326C
330
1A1E2
100
AcDbEntity
  8
TITLE_BLOCK
  6
CONTINUOUS
 62
     7
100
AcDbVertex
100
AcDb2dVertex
 10
-13.987367
 20
-22.764575
 30
0.0
 70
    16
  0
VERTEX
  5
3326D
330
1A1E2
100
AcDbEntity
  8
TITLE_BLOCK
  6
CONTINUOUS
 62
     7
100
AcDbVertex
100
AcDb2dVertex
 10
-13.904164
 20
-22.764184
 30
0.0
 70
    16
  0
VERTEX
  5
3326E
330
1A1E2
100
AcDbEntity
  8
TITLE_BLOCK
  6
CONTINUOUS
 62
     7
100
AcDbVertex
100
AcDb2dVertex
 10
-13.858968
 20
-22.779379
 30
0.0
 70
    16
  0
VERTEX
  5
3326F
330
1A1E2
100
AcDbEntity
  8
TITLE_BLOCK
  6
CONTINUOUS
 62
     7
100
AcDbVertex
100
AcDb2dVertex
 10
-13.812953
 20
-22.792582
 30
0.0
 70
    16
  0
VERTEX
  5
33270
330
1A1E2
100
AcDbEntity
  8
TITLE_BLOCK
  6
CONTINUOUS
 62
     7
100
AcDbVertex
100
AcDb2dVertex
 10
-13.766547
 20
-22.804184
 30
0.0
 70
    16
  0
VERTEX
  5
33271
330
1A1E2
100
AcDbEntity
  8
TITLE_BLOCK
  6
CONTINUOUS
 62
     7
100
AcDbVertex
100
AcDb2dVertex
 10
-13.733343
 20
-22.856176
 30
0.0
 70
    16
  0
VERTEX
  5
33272
330
1A1E2
100
AcDbEntity
  8
TITLE_BLOCK
  6
CONTINUOUS
 62
     7
100
AcDbVertex
100
AcDb2dVertex
 10
-13.704945
 20
-22.910981
 30
0.0
 70
    16
  0
VERTEX
  5
33273
330
1A1E2
100
AcDbEntity
  8
TITLE_BLOCK
  6
CONTINUOUS
 62
     7
100
AcDbVertex
100
AcDb2dVertex
 10
-13.678578
 20
-22.966957
 30
0.0
 70
    16
  0
VERTEX
  5
33274
330
1A1E2
100
AcDbEntity
  8
TITLE_BLOCK
  6
CONTINUOUS
 62
     7
100
AcDbVertex
100
AcDb2dVertex
 10
-13.805375
 20
-23.010981
 30
0.0
 70
    16
  0
VERTEX
  5
33275
330
1A1E2
100
AcDbEntity
  8
TITLE_BLOCK
  6
CONTINUOUS
 62
     7
100
AcDbVertex
100
AcDb2dVertex
 10
-13.986156
 20
-22.842582
 30
0.0
 70
    16
  0
VERTEX
  5
33276
330
1A1E2
100
AcDbEntity
  8
TITLE_BLOCK
  6
CONTINUOUS
 62
     7
100
AcDbVertex
100
AcDb2dVertex
 10
-14.062172
 20
-22.993364
 30
0.0
 70
    16
  0
VERTEX
  5
33277
330
1A1E2
100
AcDbEntity
  8
TITLE_BLOCK
  6
CONTINUOUS
 62
     7
100
AcDbVertex
100
AcDb2dVertex
 10
-13.905375
 20
-23.038559
 30
0.0
 70
    16
  0
VERTEX
  5
33278
330
1A1E2
100
AcDbEntity
  8
TITLE_BLOCK
  6
CONTINUOUS
 62
     7
100
AcDbVertex
100
AcDb2dVertex
 10
-13.689359
 20
-23.035786
 30
0.0
 70
    16
  0
VERTEX
  5
33279
330
1A1E2
100
AcDbEntity
  8
TITLE_BLOCK
  6
CONTINUOUS
 62
     7
100
AcDbVertex
100
AcDb2dVertex
 10
-13.632562
 20
-23.224184
 30
0.0
 70
    16
  0
VERTEX
  5
3327A
330
1A1E2
100
AcDbEntity
  8
TITLE_BLOCK
  6
CONTINUOUS
 62
     7
100
AcDbVertex
100
AcDb2dVertex
 10
-13.705765
 20
-23.516957
 30
0.0
 70
    16
  0
VERTEX
  5
3327B
330
1A1E2
100
AcDbEntity
  8
TITLE_BLOCK
  6
CONTINUOUS
 62
     7
100
AcDbVertex
100
AcDb2dVertex
 10
-14.204554
 20
-23.519379
 30
0.0
 70
    16
  0
VERTEX
  5
3327C
330
1A1E2
100
AcDbEntity
  8
TITLE_BLOCK
  6
CONTINUOUS
 62
     7
100
AcDbVertex
100
AcDb2dVertex
 10
-14.283343
 20
-23.22977
 30
0.0
 70
    16
  0
VERTEX
  5
3327D
330
1A1E2
100
AcDbEntity
  8
TITLE_BLOCK
  6
CONTINUOUS
 62
     7
100
AcDbVertex
100
AcDb2dVertex
 10
-14.222953
 20
-23.221372
 30
0.0
 70
    16
  0
VERTEX
  5
3327E
330
1A1E2
100
AcDbEntity
  8
TITLE_BLOCK
  6
CONTINUOUS
 62
     7
100
AcDbVertex
100
AcDb2dVertex
 10
-14.162562
 20
-23.211762
 30
0.0
 70
    16
  0
VERTEX
  5
3327F
330
1A1E2
100
AcDbEntity
  8
TITLE_BLOCK
  6
CONTINUOUS
 62
     7
100
AcDbVertex
100
AcDb2dVertex
 10
-14.101781
 20
-23.203364
 30
0.0
 70
    16
  0
VERTEX
  5
33280
330
1A1E2
100
AcDbEntity
  8
TITLE_BLOCK
  6
CONTINUOUS
 62
     7
100
AcDbVertex
100
AcDb2dVertex
 10
-14.052172
 20
-23.315356
 30
0.0
 70
    16
  0
VERTEX
  5
33281
330
1A1E2
100
AcDbEntity
  8
TITLE_BLOCK
  6
CONTINUOUS
 62
     7
100
AcDbVertex
100
AcDb2dVertex
 10
-13.916976
 20
-23.281372
 30
0.0
 70
    16
  0
VERTEX
  5
33282
330
1A1E2
100
AcDbEntity
  8
TITLE_BLOCK
  6
CONTINUOUS
 62
     7
100
AcDbVertex
100
AcDb2dVertex
 10
-13.821351
 20
-23.267778
 30
0.0
 70
    16
  0
VERTEX
  5
33283
330
1A1E2
100
AcDbEntity
  8
TITLE_BLOCK
  6
CONTINUOUS
 62
     7
100
AcDbVertex
100
AcDb2dVertex
 10
-13.849359
 20
-23.131762
 30
0.0
 70
    16
  0
VERTEX
  5
33284
330
1A1E2
100
AcDbEntity
  8
TITLE_BLOCK
  6
CONTINUOUS
 62
     7
100
AcDbVertex
100
AcDb2dVertex
 10
-14.013773
 20
-23.152192
 30
0.0
 70
    16
  0
VERTEX
  5
33285
330
1A1E2
100
AcDbEntity
  8
TITLE_BLOCK
  6
CONTINUOUS
 62
     7
100
AcDbVertex
100
AcDb2dVertex
 10
-14.119359
 20
-23.122192
 30
0.0
 70
    16
  0
VERTEX
  5
33286
330
1A1E2
100
AcDbEntity
  8
TITLE_BLOCK
  6
CONTINUOUS
 62
     7
100
AcDbVertex
100
AcDb2dVertex
 10
-14.173773
 20
-23.070981
 30
0.0
 70
    16
  0
VERTEX
  5
33287
330
1A1E2
100
AcDbEntity
  8
TITLE_BLOCK
  6
CONTINUOUS
 62
     7
100
AcDbVertex
100
AcDb2dVertex
 10
-14.221351
 20
-23.013364
 30
0.0
 70
    16
  0
VERTEX
  5
33288
330
1A1E2
100
AcDbEntity
  8
TITLE_BLOCK
  6
CONTINUOUS
 62
     7
100
AcDbVertex
100
AcDb2dVertex
 10
-14.255375
 20
-22.946957
 30
0.0
 70
    16
  0
VERTEX
  5
33289
330
1A1E2
100
AcDbEntity
  8
TITLE_BLOCK
  6
CONTINUOUS
 62
     7
100
AcDbVertex
100
AcDb2dVertex
 10
-14.221351
 20
-22.895786
 30
0.0
 70
    16
  0
VERTEX
  5
3328A
330
1A1E2
100
AcDbEntity
  8
TITLE_BLOCK
  6
CONTINUOUS
 62
     7
100
AcDbVertex
100
AcDb2dVertex
 10
-14.186976
 20
-22.844575
 30
0.0
 70
    16
  0
VERTEX
  5
3328B
330
1A1E2
100
AcDbEntity
  8
TITLE_BLOCK
  6
CONTINUOUS
 62
     7
100
AcDbVertex
100
AcDb2dVertex
 10
-14.14975
 20
-22.795786
 30
0.0
 70
    16
  0
VERTEX
  5
3328C
330
1A1E2
100
AcDbEntity
  8
TITLE_BLOCK
  6
CONTINUOUS
 62
     7
100
AcDbVertex
100
AcDb2dVertex
 10
-14.14975
 20
-22.795786
 30
0.0
 70
    16
  0
VERTEX
  5
3328D
330
1A1E2
100
AcDbEntity
  8
TITLE_BLOCK
  6
CONTINUOUS
 62
     7
100
AcDbVertex
100
AcDb2dVertex
 10
-14.14975
 20
-22.795786
 30
0.0
 70
    16
  0
VERTEX
  5
3328E
330
1A1E2
100
AcDbEntity
  8
TITLE_BLOCK
  6
CONTINUOUS
 62
     7
100
AcDbVertex
100
AcDb2dVertex
 10
-14.14975
 20
-22.795786
 30
0.0
 70
    16
  0
SEQEND
  5
3328F
330
1A1E2
100
AcDbEntity
  8
TITLE_BLOCK
  6
CONTINUOUS
 62
     7
  0
POLYLINE
  5
1A26B
330
32D05
100
AcDbEntity
  8
TITLE_BLOCK
  6
CONTINUOUS
 62
     7
100
AcDb2dPolyline
 66
     1
 10
0.0
 20
0.0
 30
0.0
 70
     5
 75
     5
  0
VERTEX
  5
33290
330
1A26B
100
AcDbEntity
  8
TITLE_BLOCK
  6
CONTINUOUS
 62
     7
100
AcDbVertex
100
AcDb2dVertex
 10
-13.575765
 20
-22.992582
 30
0.0
 70
     8
  0
VERTEX
  5
33291
330
1A26B
100
AcDbEntity
  8
TITLE_BLOCK
  6
CONTINUOUS
 62
     7
100
AcDbVertex
100
AcDb2dVertex
 10
-13.572373
 20
-22.965798
 30
0.0
 70
     8
  0
VERTEX
  5
33292
330
1A26B
100
AcDbEntity
  8
TITLE_BLOCK
  6
CONTINUOUS
 62
     7
100
AcDbVertex
100
AcDb2dVertex
 10
-13.566289
 20
-22.940649
 30
0.0
 70
     8
  0
VERTEX
  5
33293
330
1A26B
100
AcDbEntity
  8
TITLE_BLOCK
  6
CONTINUOUS
 62
     7
100
AcDbVertex
100
AcDb2dVertex
 10
-13.55769
 20
-22.917141
 30
0.0
 70
     8
  0
VERTEX
  5
33294
330
1A26B
100
AcDbEntity
  8
TITLE_BLOCK
  6
CONTINUOUS
 62
     7
100
AcDbVertex
100
AcDb2dVertex
 10
-13.54675
 20
-22.895277
 30
0.0
 70
     8
  0
VERTEX
  5
33295
330
1A26B
100
AcDbEntity
  8
TITLE_BLOCK
  6
CONTINUOUS
 62
     7
100
AcDbVertex
100
AcDb2dVertex
 10
-13.533645
 20
-22.875064
 30
0.0
 70
     8
  0
VERTEX
  5
33296
330
1A26B
100
AcDbEntity
  8
TITLE_BLOCK
  6
CONTINUOUS
 62
     7
100
AcDbVertex
100
AcDb2dVertex
 10
-13.518551
 20
-22.856504
 30
0.0
 70
     8
  0
VERTEX
  5
33297
330
1A26B
100
AcDbEntity
  8
TITLE_BLOCK
  6
CONTINUOUS
 62
     7
100
AcDbVertex
100
AcDb2dVertex
 10
-13.501641
 20
-22.839603
 30
0.0
 70
     8
  0
VERTEX
  5
33298
330
1A26B
100
AcDbEntity
  8
TITLE_BLOCK
  6
CONTINUOUS
 62
     7
100
AcDbVertex
100
AcDb2dVertex
 10
-13.483092
 20
-22.824365
 30
0.0
 70
     8
  0
VERTEX
  5
33299
330
1A26B
100
AcDbEntity
  8
TITLE_BLOCK
  6
CONTINUOUS
 62
     7
100
AcDbVertex
100
AcDb2dVertex
 10
-13.463079
 20
-22.810795
 30
0.0
 70
     8
  0
VERTEX
  5
3329A
330
1A26B
100
AcDbEntity
  8
TITLE_BLOCK
  6
CONTINUOUS
 62
     7
100
AcDbVertex
100
AcDb2dVertex
 10
-13.441777
 20
-22.798897
 30
0.0
 70
     8
  0
VERTEX
  5
3329B
330
1A26B
100
AcDbEntity
  8
TITLE_BLOCK
  6
CONTINUOUS
 62
     7
100
AcDbVertex
100
AcDb2dVertex
 10
-13.419361
 20
-22.788676
 30
0.0
 70
     8
  0
VERTEX
  5
3329C
330
1A26B
100
AcDbEntity
  8
TITLE_BLOCK
  6
CONTINUOUS
 62
     7
100
AcDbVertex
100
AcDb2dVertex
 10
-13.396007
 20
-22.780136
 30
0.0
 70
     8
  0
VERTEX
  5
3329D
330
1A26B
100
AcDbEntity
  8
TITLE_BLOCK
  6
CONTINUOUS
 62
     7
100
AcDbVertex
100
AcDb2dVertex
 10
-13.37189
 20
-22.773282
 30
0.0
 70
     8
  0
VERTEX
  5
3329E
330
1A26B
100
AcDbEntity
  8
TITLE_BLOCK
  6
CONTINUOUS
 62
     7
100
AcDbVertex
100
AcDb2dVertex
 10
-13.347185
 20
-22.768119
 30
0.0
 70
     8
  0
VERTEX
  5
3329F
330
1A26B
100
AcDbEntity
  8
TITLE_BLOCK
  6
CONTINUOUS
 62
     7
100
AcDbVertex
100
AcDb2dVertex
 10
-13.322067
 20
-22.76465
 30
0.0
 70
     8
  0
VERTEX
  5
332A0
330
1A26B
100
AcDbEntity
  8
TITLE_BLOCK
  6
CONTINUOUS
 62
     7
100
AcDbVertex
100
AcDb2dVertex
 10
-13.296713
 20
-22.76288
 30
0.0
 70
     8
  0
VERTEX
  5
332A1
330
1A26B
100
AcDbEntity
  8
TITLE_BLOCK
  6
CONTINUOUS
 62
     7
100
AcDbVertex
100
AcDb2dVertex
 10
-13.271296
 20
-22.762815
 30
0.0
 70
     8
  0
VERTEX
  5
332A2
330
1A26B
100
AcDbEntity
  8
TITLE_BLOCK
  6
CONTINUOUS
 62
     7
100
AcDbVertex
100
AcDb2dVertex
 10
-13.245992
 20
-22.764458
 30
0.0
 70
     8
  0
VERTEX
  5
332A3
330
1A26B
100
AcDbEntity
  8
TITLE_BLOCK
  6
CONTINUOUS
 62
     7
100
AcDbVertex
100
AcDb2dVertex
 10
-13.220977
 20
-22.767813
 30
0.0
 70
     8
  0
VERTEX
  5
332A4
330
1A26B
100
AcDbEntity
  8
TITLE_BLOCK
  6
CONTINUOUS
 62
     7
100
AcDbVertex
100
AcDb2dVertex
 10
-13.196426
 20
-22.772887
 30
0.0
 70
     8
  0
VERTEX
  5
332A5
330
1A26B
100
AcDbEntity
  8
TITLE_BLOCK
  6
CONTINUOUS
 62
     7
100
AcDbVertex
100
AcDb2dVertex
 10
-13.172513
 20
-22.779682
 30
0.0
 70
     8
  0
VERTEX
  5
332A6
330
1A26B
100
AcDbEntity
  8
TITLE_BLOCK
  6
CONTINUOUS
 62
     7
100
AcDbVertex
100
AcDb2dVertex
 10
-13.149415
 20
-22.788204
 30
0.0
 70
     8
  0
VERTEX
  5
332A7
330
1A26B
100
AcDbEntity
  8
TITLE_BLOCK
  6
CONTINUOUS
 62
     7
100
AcDbVertex
100
AcDb2dVertex
 10
-13.127307
 20
-22.798457
 30
0.0
 70
     8
  0
VERTEX
  5
332A8
330
1A26B
100
AcDbEntity
  8
TITLE_BLOCK
  6
CONTINUOUS
 62
     7
100
AcDbVertex
100
AcDb2dVertex
 10
-13.106363
 20
-22.810446
 30
0.0
 70
     8
  0
VERTEX
  5
332A9
330
1A26B
100
AcDbEntity
  8
TITLE_BLOCK
  6
CONTINUOUS
 62
     7
100
AcDbVertex
100
AcDb2dVertex
 10
-13.08676
 20
-22.824174
 30
0.0
 70
     8
  0
VERTEX
  5
332AA
330
1A26B
100
AcDbEntity
  8
TITLE_BLOCK
  6
CONTINUOUS
 62
     7
100
AcDbVertex
100
AcDb2dVertex
 10
-13.068672
 20
-22.839648
 30
0.0
 70
     8
  0
VERTEX
  5
332AB
330
1A26B
100
AcDbEntity
  8
TITLE_BLOCK
  6
CONTINUOUS
 62
     7
100
AcDbVertex
100
AcDb2dVertex
 10
-13.052274
 20
-22.85687
 30
0.0
 70
     8
  0
VERTEX
  5
332AC
330
1A26B
100
AcDbEntity
  8
TITLE_BLOCK
  6
CONTINUOUS
 62
     7
100
AcDbVertex
100
AcDb2dVertex
 10
-13.037743
 20
-22.875847
 30
0.0
 70
     8
  0
VERTEX
  5
332AD
330
1A26B
100
AcDbEntity
  8
TITLE_BLOCK
  6
CONTINUOUS
 62
     7
100
AcDbVertex
100
AcDb2dVertex
 10
-13.025252
 20
-22.896581
 30
0.0
 70
     8
  0
VERTEX
  5
332AE
330
1A26B
100
AcDbEntity
  8
TITLE_BLOCK
  6
CONTINUOUS
 62
     7
100
AcDbVertex
100
AcDb2dVertex
 10
-13.014978
 20
-22.919078
 30
0.0
 70
     8
  0
VERTEX
  5
332AF
330
1A26B
100
AcDbEntity
  8
TITLE_BLOCK
  6
CONTINUOUS
 62
     7
100
AcDbVertex
100
AcDb2dVertex
 10
-13.007096
 20
-22.943343
 30
0.0
 70
     8
  0
VERTEX
  5
332B0
330
1A26B
100
AcDbEntity
  8
TITLE_BLOCK
  6
CONTINUOUS
 62
     7
100
AcDbVertex
100
AcDb2dVertex
 10
-13.001781
 20
-22.969379
 30
0.0
 70
     8
  0
VERTEX
  5
332B1
330
1A26B
100
AcDbEntity
  8
TITLE_BLOCK
  6
CONTINUOUS
 62
     7
100
AcDbVertex
100
AcDb2dVertex
 10
-13.049149
 20
-22.969277
 30
0.0
 70
     8
  0
VERTEX
  5
332B2
330
1A26B
100
AcDbEntity
  8
TITLE_BLOCK
  6
CONTINUOUS
 62
     7
100
AcDbVertex
100
AcDb2dVertex
 10
-13.095975
 20
-22.965026
 30
0.0
 70
     8
  0
VERTEX
  5
332B3
330
1A26B
100
AcDbEntity
  8
TITLE_BLOCK
  6
CONTINUOUS
 62
     7
100
AcDbVertex
100
AcDb2dVertex
 10
-13.188671
 20
-22.949233
 30
0.0
 70
     8
  0
VERTEX
  5
332B4
330
1A26B
100
AcDbEntity
  8
TITLE_BLOCK
  6
CONTINUOUS
 62
     7
100
AcDbVertex
100
AcDb2dVertex
 10
-13.281213
 20
-22.932311
 30
0.0
 70
     8
  0
VERTEX
  5
332B5
330
1A26B
100
AcDbEntity
  8
TITLE_BLOCK
  6
CONTINUOUS
 62
     7
100
AcDbVertex
100
AcDb2dVertex
 10
-13.327846
 20
-22.92665
 30
0.0
 70
     8
  0
VERTEX
  5
332B6
330
1A26B
100
AcDbEntity
  8
TITLE_BLOCK
  6
CONTINUOUS
 62
     7
100
AcDbVertex
100
AcDb2dVertex
 10
-13.374945
 20
-22.924575
 30
0.0
 70
     8
  0
VERTEX
  5
332B7
330
1A26B
100
AcDbEntity
  8
TITLE_BLOCK
  6
CONTINUOUS
 62
     7
100
AcDbVertex
100
AcDb2dVertex
 10
-13.371645
 20
-22.945669
 30
0.0
 70
     8
  0
VERTEX
  5
332B8
330
1A26B
100
AcDbEntity
  8
TITLE_BLOCK
  6
CONTINUOUS
 62
     7
100
AcDbVertex
100
AcDb2dVertex
 10
-13.365519
 20
-22.963558
 30
0.0
 70
     8
  0
VERTEX
  5
332B9
330
1A26B
100
AcDbEntity
  8
TITLE_BLOCK
  6
CONTINUOUS
 62
     7
100
AcDbVertex
100
AcDb2dVertex
 10
-13.356847
 20
-22.978553
 30
0.0
 70
     8
  0
VERTEX
  5
332BA
330
1A26B
100
AcDbEntity
  8
TITLE_BLOCK
  6
CONTINUOUS
 62
     7
100
AcDbVertex
100
AcDb2dVertex
 10
-13.345907
 20
-22.990963
 30
0.0
 70
     8
  0
VERTEX
  5
332BB
330
1A26B
100
AcDbEntity
  8
TITLE_BLOCK
  6
CONTINUOUS
 62
     7
100
AcDbVertex
100
AcDb2dVertex
 10
-13.33298
 20
-23.0011
 30
0.0
 70
     8
  0
VERTEX
  5
332BC
330
1A26B
100
AcDbEntity
  8
TITLE_BLOCK
  6
CONTINUOUS
 62
     7
100
AcDbVertex
100
AcDb2dVertex
 10
-13.318343
 20
-23.009274
 30
0.0
 70
     8
  0
VERTEX
  5
332BD
330
1A26B
100
AcDbEntity
  8
TITLE_BLOCK
  6
CONTINUOUS
 62
     7
100
AcDbVertex
100
AcDb2dVertex
 10
-13.285057
 20
-23.020976
 30
0.0
 70
     8
  0
VERTEX
  5
332BE
330
1A26B
100
AcDbEntity
  8
TITLE_BLOCK
  6
CONTINUOUS
 62
     7
100
AcDbVertex
100
AcDb2dVertex
 10
-13.248284
 20
-23.028552
 30
0.0
 70
     8
  0
VERTEX
  5
332BF
330
1A26B
100
AcDbEntity
  8
TITLE_BLOCK
  6
CONTINUOUS
 62
     7
100
AcDbVertex
100
AcDb2dVertex
 10
-13.210254
 20
-23.034487
 30
0.0
 70
     8
  0
VERTEX
  5
332C0
330
1A26B
100
AcDbEntity
  8
TITLE_BLOCK
  6
CONTINUOUS
 62
     7
100
AcDbVertex
100
AcDb2dVertex
 10
-13.173202
 20
-23.041266
 30
0.0
 70
     8
  0
VERTEX
  5
332C1
330
1A26B
100
AcDbEntity
  8
TITLE_BLOCK
  6
CONTINUOUS
 62
     7
100
AcDbVertex
100
AcDb2dVertex
 10
-13.139359
 20
-23.051372
 30
0.0
 70
     8
  0
VERTEX
  5
332C2
330
1A26B
100
AcDbEntity
  8
TITLE_BLOCK
  6
CONTINUOUS
 62
     7
100
AcDbVertex
100
AcDb2dVertex
 10
-13.104995
 20
-23.059394
 30
0.0
 70
     8
  0
VERTEX
  5
332C3
330
1A26B
100
AcDbEntity
  8
TITLE_BLOCK
  6
CONTINUOUS
 62
     7
100
AcDbVertex
100
AcDb2dVertex
 10
-13.073872
 20
-23.072818
 30
0.0
 70
     8
  0
VERTEX
  5
332C4
330
1A26B
100
AcDbEntity
  8
TITLE_BLOCK
  6
CONTINUOUS
 62
     7
100
AcDbVertex
100
AcDb2dVertex
 10
-13.04593
 20
-23.090968
 30
0.0
 70
     8
  0
VERTEX
  5
332C5
330
1A26B
100
AcDbEntity
  8
TITLE_BLOCK
  6
CONTINUOUS
 62
     7
100
AcDbVertex
100
AcDb2dVertex
 10
-13.021107
 20
-23.113168
 30
0.0
 70
     8
  0
VERTEX
  5
332C6
330
1A26B
100
AcDbEntity
  8
TITLE_BLOCK
  6
CONTINUOUS
 62
     7
100
AcDbVertex
100
AcDb2dVertex
 10
-12.999342
 20
-23.138746
 30
0.0
 70
     8
  0
VERTEX
  5
332C7
330
1A26B
100
AcDbEntity
  8
TITLE_BLOCK
  6
CONTINUOUS
 62
     7
100
AcDbVertex
100
AcDb2dVertex
 10
-12.980574
 20
-23.167025
 30
0.0
 70
     8
  0
VERTEX
  5
332C8
330
1A26B
100
AcDbEntity
  8
TITLE_BLOCK
  6
CONTINUOUS
 62
     7
100
AcDbVertex
100
AcDb2dVertex
 10
-12.96474
 20
-23.197331
 30
0.0
 70
     8
  0
VERTEX
  5
332C9
330
1A26B
100
AcDbEntity
  8
TITLE_BLOCK
  6
CONTINUOUS
 62
     7
100
AcDbVertex
100
AcDb2dVertex
 10
-12.951781
 20
-23.228989
 30
0.0
 70
     8
  0
VERTEX
  5
332CA
330
1A26B
100
AcDbEntity
  8
TITLE_BLOCK
  6
CONTINUOUS
 62
     7
100
AcDbVertex
100
AcDb2dVertex
 10
-12.965959
 20
-23.268379
 30
0.0
 70
     8
  0
VERTEX
  5
332CB
330
1A26B
100
AcDbEntity
  8
TITLE_BLOCK
  6
CONTINUOUS
 62
     7
100
AcDbVertex
100
AcDb2dVertex
 10
-12.984529
 20
-23.30327
 30
0.0
 70
     8
  0
VERTEX
  5
332CC
330
1A26B
100
AcDbEntity
  8
TITLE_BLOCK
  6
CONTINUOUS
 62
     7
100
AcDbVertex
100
AcDb2dVertex
 10
-13.007071
 20
-23.333828
 30
0.0
 70
     8
  0
VERTEX
  5
332CD
330
1A26B
100
AcDbEntity
  8
TITLE_BLOCK
  6
CONTINUOUS
 62
     7
100
AcDbVertex
100
AcDb2dVertex
 10
-13.033166
 20
-23.360223
 30
0.0
 70
     8
  0
VERTEX
  5
332CE
330
1A26B
100
AcDbEntity
  8
TITLE_BLOCK
  6
CONTINUOUS
 62
     7
100
AcDbVertex
100
AcDb2dVertex
 10
-13.062396
 20
-23.382622
 30
0.0
 70
     8
  0
VERTEX
  5
332CF
330
1A26B
100
AcDbEntity
  8
TITLE_BLOCK
  6
CONTINUOUS
 62
     7
100
AcDbVertex
100
AcDb2dVertex
 10
-13.094341
 20
-23.401193
 30
0.0
 70
     8
  0
VERTEX
  5
332D0
330
1A26B
100
AcDbEntity
  8
TITLE_BLOCK
  6
CONTINUOUS
 62
     7
100
AcDbVertex
100
AcDb2dVertex
 10
-13.128582
 20
-23.416104
 30
0.0
 70
     8
  0
VERTEX
  5
332D1
330
1A26B
100
AcDbEntity
  8
TITLE_BLOCK
  6
CONTINUOUS
 62
     7
100
AcDbVertex
100
AcDb2dVertex
 10
-13.164701
 20
-23.427524
 30
0.0
 70
     8
  0
VERTEX
  5
332D2
330
1A26B
100
AcDbEntity
  8
TITLE_BLOCK
  6
CONTINUOUS
 62
     7
100
AcDbVertex
100
AcDb2dVertex
 10
-13.202278
 20
-23.43562
 30
0.0
 70
     8
  0
VERTEX
  5
332D3
330
1A26B
100
AcDbEntity
  8
TITLE_BLOCK
  6
CONTINUOUS
 62
     7
100
AcDbVertex
100
AcDb2dVertex
 10
-13.240895
 20
-23.440562
 30
0.0
 70
     8
  0
VERTEX
  5
332D4
330
1A26B
100
AcDbEntity
  8
TITLE_BLOCK
  6
CONTINUOUS
 62
     7
100
AcDbVertex
100
AcDb2dVertex
 10
-13.280132
 20
-23.442516
 30
0.0
 70
     8
  0
VERTEX
  5
332D5
330
1A26B
100
AcDbEntity
  8
TITLE_BLOCK
  6
CONTINUOUS
 62
     7
100
AcDbVertex
100
AcDb2dVertex
 10
-13.31957
 20
-23.441651
 30
0.0
 70
     8
  0
VERTEX
  5
332D6
330
1A26B
100
AcDbEntity
  8
TITLE_BLOCK
  6
CONTINUOUS
 62
     7
100
AcDbVertex
100
AcDb2dVertex
 10
-13.358791
 20
-23.438135
 30
0.0
 70
     8
  0
VERTEX
  5
332D7
330
1A26B
100
AcDbEntity
  8
TITLE_BLOCK
  6
CONTINUOUS
 62
     7
100
AcDbVertex
100
AcDb2dVertex
 10
-13.397376
 20
-23.432137
 30
0.0
 70
     8
  0
VERTEX
  5
332D8
330
1A26B
100
AcDbEntity
  8
TITLE_BLOCK
  6
CONTINUOUS
 62
     7
100
AcDbVertex
100
AcDb2dVertex
 10
-13.434906
 20
-23.423824
 30
0.0
 70
     8
  0
VERTEX
  5
332D9
330
1A26B
100
AcDbEntity
  8
TITLE_BLOCK
  6
CONTINUOUS
 62
     7
100
AcDbVertex
100
AcDb2dVertex
 10
-13.470961
 20
-23.413364
 30
0.0
 70
     8
  0
VERTEX
  5
332DA
330
1A26B
100
AcDbEntity
  8
TITLE_BLOCK
  6
CONTINUOUS
 62
     7
100
AcDbVertex
100
AcDb2dVertex
 10
-13.492786
 20
-23.394401
 30
0.0
 70
     8
  0
VERTEX
  5
332DB
330
1A26B
100
AcDbEntity
  8
TITLE_BLOCK
  6
CONTINUOUS
 62
     7
100
AcDbVertex
100
AcDb2dVertex
 10
-13.512775
 20
-23.373939
 30
0.0
 70
     8
  0
VERTEX
  5
332DC
330
1A26B
100
AcDbEntity
  8
TITLE_BLOCK
  6
CONTINUOUS
 62
     7
100
AcDbVertex
100
AcDb2dVertex
 10
-13.531121
 20
-23.352163
 30
0.0
 70
     8
  0
VERTEX
  5
332DD
330
1A26B
100
AcDbEntity
  8
TITLE_BLOCK
  6
CONTINUOUS
 62
     7
100
AcDbVertex
100
AcDb2dVertex
 10
-13.548016
 20
-23.329262
 30
0.0
 70
     8
  0
VERTEX
  5
332DE
330
1A26B
100
AcDbEntity
  8
TITLE_BLOCK
  6
CONTINUOUS
 62
     7
100
AcDbVertex
100
AcDb2dVertex
 10
-13.578226
 20
-23.280836
 30
0.0
 70
     8
  0
VERTEX
  5
332DF
330
1A26B
100
AcDbEntity
  8
TITLE_BLOCK
  6
CONTINUOUS
 62
     7
100
AcDbVertex
100
AcDb2dVertex
 10
-13.604945
 20
-23.230161
 30
0.0
 70
     8
  0
VERTEX
  5
332E0
330
1A26B
100
AcDbEntity
  8
TITLE_BLOCK
  6
CONTINUOUS
 62
     7
100
AcDbVertex
100
AcDb2dVertex
 10
-13.577959
 20
-23.228611
 30
0.0
 70
     8
  0
VERTEX
  5
332E1
330
1A26B
100
AcDbEntity
  8
TITLE_BLOCK
  6
CONTINUOUS
 62
     7
100
AcDbVertex
100
AcDb2dVertex
 10
-13.549648
 20
-23.223358
 30
0.0
 70
     8
  0
VERTEX
  5
332E2
330
1A26B
100
AcDbEntity
  8
TITLE_BLOCK
  6
CONTINUOUS
 62
     7
100
AcDbVertex
100
AcDb2dVertex
 10
-13.491864
 20
-23.210781
 30
0.0
 70
     8
  0
VERTEX
  5
332E3
330
1A26B
100
AcDbEntity
  8
TITLE_BLOCK
  6
CONTINUOUS
 62
     7
100
AcDbVertex
100
AcDb2dVertex
 10
-13.463798
 20
-23.207974
 30
0.0
 70
     8
  0
VERTEX
  5
332E4
330
1A26B
100
AcDbEntity
  8
TITLE_BLOCK
  6
CONTINUOUS
 62
     7
100
AcDbVertex
100
AcDb2dVertex
 10
-13.437222
 20
-23.210501
 30
0.0
 70
     8
  0
VERTEX
  5
332E5
330
1A26B
100
AcDbEntity
  8
TITLE_BLOCK
  6
CONTINUOUS
 62
     7
100
AcDbVertex
100
AcDb2dVertex
 10
-13.412839
 20
-23.22062
 30
0.0
 70
     8
  0
VERTEX
  5
332E6
330
1A26B
100
AcDbEntity
  8
TITLE_BLOCK
  6
CONTINUOUS
 62
     7
100
AcDbVertex
100
AcDb2dVertex
 10
-13.401689
 20
-23.229232
 30
0.0
 70
     8
  0
VERTEX
  5
332E7
330
1A26B
100
AcDbEntity
  8
TITLE_BLOCK
  6
CONTINUOUS
 62
     7
100
AcDbVertex
100
AcDb2dVertex
 10
-13.391351
 20
-23.24059
 30
0.0
 70
     8
  0
VERTEX
  5
332E8
330
1A26B
100
AcDbEntity
  8
TITLE_BLOCK
  6
CONTINUOUS
 62
     7
100
AcDbVertex
100
AcDb2dVertex
 10
-13.377617
 20
-23.253459
 30
0.0
 70
     8
  0
VERTEX
  5
332E9
330
1A26B
100
AcDbEntity
  8
TITLE_BLOCK
  6
CONTINUOUS
 62
     7
100
AcDbVertex
100
AcDb2dVertex
 10
-13.361867
 20
-23.264563
 30
0.0
 70
     8
  0
VERTEX
  5
332EA
330
1A26B
100
AcDbEntity
  8
TITLE_BLOCK
  6
CONTINUOUS
 62
     7
100
AcDbVertex
100
AcDb2dVertex
 10
-13.344486
 20
-23.273825
 30
0.0
 70
     8
  0
VERTEX
  5
332EB
330
1A26B
100
AcDbEntity
  8
TITLE_BLOCK
  6
CONTINUOUS
 62
     7
100
AcDbVertex
100
AcDb2dVertex
 10
-13.325857
 20
-23.281169
 30
0.0
 70
     8
  0
VERTEX
  5
332EC
330
1A26B
100
AcDbEntity
  8
TITLE_BLOCK
  6
CONTINUOUS
 62
     7
100
AcDbVertex
100
AcDb2dVertex
 10
-13.306365
 20
-23.286518
 30
0.0
 70
     8
  0
VERTEX
  5
332ED
330
1A26B
100
AcDbEntity
  8
TITLE_BLOCK
  6
CONTINUOUS
 62
     7
100
AcDbVertex
100
AcDb2dVertex
 10
-13.286395
 20
-23.289795
 30
0.0
 70
     8
  0
VERTEX
  5
332EE
330
1A26B
100
AcDbEntity
  8
TITLE_BLOCK
  6
CONTINUOUS
 62
     7
100
AcDbVertex
100
AcDb2dVertex
 10
-13.26633
 20
-23.290924
 30
0.0
 70
     8
  0
VERTEX
  5
332EF
330
1A26B
100
AcDbEntity
  8
TITLE_BLOCK
  6
CONTINUOUS
 62
     7
100
AcDbVertex
100
AcDb2dVertex
 10
-13.246556
 20
-23.289829
 30
0.0
 70
     8
  0
VERTEX
  5
332F0
330
1A26B
100
AcDbEntity
  8
TITLE_BLOCK
  6
CONTINUOUS
 62
     7
100
AcDbVertex
100
AcDb2dVertex
 10
-13.227457
 20
-23.286431
 30
0.0
 70
     8
  0
VERTEX
  5
332F1
330
1A26B
100
AcDbEntity
  8
TITLE_BLOCK
  6
CONTINUOUS
 62
     7
100
AcDbVertex
100
AcDb2dVertex
 10
-13.209417
 20
-23.280655
 30
0.0
 70
     8
  0
VERTEX
  5
332F2
330
1A26B
100
AcDbEntity
  8
TITLE_BLOCK
  6
CONTINUOUS
 62
     7
100
AcDbVertex
100
AcDb2dVertex
 10
-13.19282
 20
-23.272425
 30
0.0
 70
     8
  0
VERTEX
  5
332F3
330
1A26B
100
AcDbEntity
  8
TITLE_BLOCK
  6
CONTINUOUS
 62
     7
100
AcDbVertex
100
AcDb2dVertex
 10
-13.178052
 20
-23.261662
 30
0.0
 70
     8
  0
VERTEX
  5
332F4
330
1A26B
100
AcDbEntity
  8
TITLE_BLOCK
  6
CONTINUOUS
 62
     7
100
AcDbVertex
100
AcDb2dVertex
 10
-13.165495
 20
-23.248291
 30
0.0
 70
     8
  0
VERTEX
  5
332F5
330
1A26B
100
AcDbEntity
  8
TITLE_BLOCK
  6
CONTINUOUS
 62
     7
100
AcDbVertex
100
AcDb2dVertex
 10
-13.155536
 20
-23.232235
 30
0.0
 70
     8
  0
VERTEX
  5
332F6
330
1A26B
100
AcDbEntity
  8
TITLE_BLOCK
  6
CONTINUOUS
 62
     7
100
AcDbVertex
100
AcDb2dVertex
 10
-13.148558
 20
-23.213418
 30
0.0
 70
     8
  0
VERTEX
  5
332F7
330
1A26B
100
AcDbEntity
  8
TITLE_BLOCK
  6
CONTINUOUS
 62
     7
100
AcDbVertex
100
AcDb2dVertex
 10
-13.144945
 20
-23.191762
 30
0.0
 70
     8
  0
VERTEX
  5
332F8
330
1A26B
100
AcDbEntity
  8
TITLE_BLOCK
  6
CONTINUOUS
 62
     7
100
AcDbVertex
100
AcDb2dVertex
 10
-13.253366
 20
-23.164574
 30
0.0
 70
     8
  0
VERTEX
  5
332F9
330
1A26B
100
AcDbEntity
  8
TITLE_BLOCK
  6
CONTINUOUS
 62
     7
100
AcDbVertex
100
AcDb2dVertex
 10
-13.307855
 20
-23.151416
 30
0.0
 70
     8
  0
VERTEX
  5
332FA
330
1A26B
100
AcDbEntity
  8
TITLE_BLOCK
  6
CONTINUOUS
 62
     7
100
AcDbVertex
100
AcDb2dVertex
 10
-13.361512
 20
-23.136474
 30
0.0
 70
     8
  0
VERTEX
  5
332FB
330
1A26B
100
AcDbEntity
  8
TITLE_BLOCK
  6
CONTINUOUS
 62
     7
100
AcDbVertex
100
AcDb2dVertex
 10
-13.413575
 20
-23.118195
 30
0.0
 70
     8
  0
VERTEX
  5
332FC
330
1A26B
100
AcDbEntity
  8
TITLE_BLOCK
  6
CONTINUOUS
 62
     7
100
AcDbVertex
100
AcDb2dVertex
 10
-13.463279
 20
-23.095022
 30
0.0
 70
     8
  0
VERTEX
  5
332FD
330
1A26B
100
AcDbEntity
  8
TITLE_BLOCK
  6
CONTINUOUS
 62
     7
100
AcDbVertex
100
AcDb2dVertex
 10
-13.487009
 20
-23.081115
 30
0.0
 70
     8
  0
VERTEX
  5
332FE
330
1A26B
100
AcDbEntity
  8
TITLE_BLOCK
  6
CONTINUOUS
 62
     7
100
AcDbVertex
100
AcDb2dVertex
 10
-13.509863
 20
-23.065401
 30
0.0
 70
     8
  0
VERTEX
  5
332FF
330
1A26B
100
AcDbEntity
  8
TITLE_BLOCK
  6
CONTINUOUS
 62
     7
100
AcDbVertex
100
AcDb2dVertex
 10
-13.531746
 20
-23.047687
 30
0.0
 70
     8
  0
VERTEX
  5
33300
330
1A26B
100
AcDbEntity
  8
TITLE_BLOCK
  6
CONTINUOUS
 62
     7
100
AcDbVertex
100
AcDb2dVertex
 10
-13.552562
 20
-23.027778
 30
0.0
 70
     8
  0
VERTEX
  5
33301
330
1A26B
100
AcDbEntity
  8
TITLE_BLOCK
  6
CONTINUOUS
 62
     7
100
AcDbVertex
100
AcDb2dVertex
 10
-13.492172
 20
-22.992582
 30
0.0
 70
     8
  0
VERTEX
  5
33302
330
1A26B
100
AcDbEntity
  8
TITLE_BLOCK
  6
CONTINUOUS
 62
     7
100
AcDbVertex
100
AcDb2dVertex
 10
-13.575765
 20
-22.992582
 30
0.0
 70
     8
  0
VERTEX
  5
33303
330
1A26B
100
AcDbEntity
  8
TITLE_BLOCK
  6
CONTINUOUS
 62
     7
100
AcDbVertex
100
AcDb2dVertex
 10
-13.575765
 20
-22.992582
 30
0.0
 70
     8
  0
VERTEX
  5
33304
330
1A26B
100
AcDbEntity
  8
TITLE_BLOCK
  6
CONTINUOUS
 62
     7
100
AcDbVertex
100
AcDb2dVertex
 10
-13.575765
 20
-22.992582
 30
0.0
 70
    16
  0
VERTEX
  5
33305
330
1A26B
100
AcDbEntity
  8
TITLE_BLOCK
  6
CONTINUOUS
 62
     7
100
AcDbVertex
100
AcDb2dVertex
 10
-13.554554
 20
-22.698168
 30
0.0
 70
    16
  0
VERTEX
  5
33306
330
1A26B
100
AcDbEntity
  8
TITLE_BLOCK
  6
CONTINUOUS
 62
     7
100
AcDbVertex
100
AcDb2dVertex
 10
-13.044164
 20
-22.682192
 30
0.0
 70
    16
  0
VERTEX
  5
33307
330
1A26B
100
AcDbEntity
  8
TITLE_BLOCK
  6
CONTINUOUS
 62
     7
100
AcDbVertex
100
AcDb2dVertex
 10
-13.001781
 20
-22.969379
 30
0.0
 70
    16
  0
VERTEX
  5
33308
330
1A26B
100
AcDbEntity
  8
TITLE_BLOCK
  6
CONTINUOUS
 62
     7
100
AcDbVertex
100
AcDb2dVertex
 10
-13.128968
 20
-22.975786
 30
0.0
 70
    16
  0
VERTEX
  5
33309
330
1A26B
100
AcDbEntity
  8
TITLE_BLOCK
  6
CONTINUOUS
 62
     7
100
AcDbVertex
100
AcDb2dVertex
 10
-13.248578
 20
-22.924184
 30
0.0
 70
    16
  0
VERTEX
  5
3330A
330
1A26B
100
AcDbEntity
  8
TITLE_BLOCK
  6
CONTINUOUS
 62
     7
100
AcDbVertex
100
AcDb2dVertex
 10
-13.374945
 20
-22.924575
 30
0.0
 70
    16
  0
VERTEX
  5
3330B
330
1A26B
100
AcDbEntity
  8
TITLE_BLOCK
  6
CONTINUOUS
 62
     7
100
AcDbVertex
100
AcDb2dVertex
 10
-13.365375
 20
-23.046176
 30
0.0
 70
    16
  0
VERTEX
  5
3330C
330
1A26B
100
AcDbEntity
  8
TITLE_BLOCK
  6
CONTINUOUS
 62
     7
100
AcDbVertex
100
AcDb2dVertex
 10
-13.223343
 20
-23.017778
 30
0.0
 70
    16
  0
VERTEX
  5
3330D
330
1A26B
100
AcDbEntity
  8
TITLE_BLOCK
  6
CONTINUOUS
 62
     7
100
AcDbVertex
100
AcDb2dVertex
 10
-13.139359
 20
-23.051372
 30
0.0
 70
    16
  0
VERTEX
  5
3330E
330
1A26B
100
AcDbEntity
  8
TITLE_BLOCK
  6
CONTINUOUS
 62
     7
100
AcDbVertex
100
AcDb2dVertex
 10
-13.043343
 20
-23.064965
 30
0.0
 70
    16
  0
VERTEX
  5
3330F
330
1A26B
100
AcDbEntity
  8
TITLE_BLOCK
  6
CONTINUOUS
 62
     7
100
AcDbVertex
100
AcDb2dVertex
 10
-12.982562
 20
-23.143364
 30
0.0
 70
    16
  0
VERTEX
  5
33310
330
1A26B
100
AcDbEntity
  8
TITLE_BLOCK
  6
CONTINUOUS
 62
     7
100
AcDbVertex
100
AcDb2dVertex
 10
-12.951781
 20
-23.228989
 30
0.0
 70
    16
  0
VERTEX
  5
33311
330
1A26B
100
AcDbEntity
  8
TITLE_BLOCK
  6
CONTINUOUS
 62
     7
100
AcDbVertex
100
AcDb2dVertex
 10
-13.014945
 20
-23.451372
 30
0.0
 70
    16
  0
VERTEX
  5
33312
330
1A26B
100
AcDbEntity
  8
TITLE_BLOCK
  6
CONTINUOUS
 62
     7
100
AcDbVertex
100
AcDb2dVertex
 10
-13.283343
 20
-23.474575
 30
0.0
 70
    16
  0
VERTEX
  5
33313
330
1A26B
100
AcDbEntity
  8
TITLE_BLOCK
  6
CONTINUOUS
 62
     7
100
AcDbVertex
100
AcDb2dVertex
 10
-13.470961
 20
-23.413364
 30
0.0
 70
    16
  0
VERTEX
  5
33314
330
1A26B
100
AcDbEntity
  8
TITLE_BLOCK
  6
CONTINUOUS
 62
     7
100
AcDbVertex
100
AcDb2dVertex
 10
-13.531781
 20
-23.364965
 30
0.0
 70
    16
  0
VERTEX
  5
33315
330
1A26B
100
AcDbEntity
  8
TITLE_BLOCK
  6
CONTINUOUS
 62
     7
100
AcDbVertex
100
AcDb2dVertex
 10
-13.570961
 20
-23.298559
 30
0.0
 70
    16
  0
VERTEX
  5
33316
330
1A26B
100
AcDbEntity
  8
TITLE_BLOCK
  6
CONTINUOUS
 62
     7
100
AcDbVertex
100
AcDb2dVertex
 10
-13.604945
 20
-23.230161
 30
0.0
 70
    16
  0
VERTEX
  5
33317
330
1A26B
100
AcDbEntity
  8
TITLE_BLOCK
  6
CONTINUOUS
 62
     7
100
AcDbVertex
100
AcDb2dVertex
 10
-13.535375
 20
-23.232973
 30
0.0
 70
    16
  0
VERTEX
  5
33318
330
1A26B
100
AcDbEntity
  8
TITLE_BLOCK
  6
CONTINUOUS
 62
     7
100
AcDbVertex
100
AcDb2dVertex
 10
-13.444164
 20
-23.172192
 30
0.0
 70
    16
  0
VERTEX
  5
33319
330
1A26B
100
AcDbEntity
  8
TITLE_BLOCK
  6
CONTINUOUS
 62
     7
100
AcDbVertex
100
AcDb2dVertex
 10
-13.391351
 20
-23.24059
 30
0.0
 70
    16
  0
VERTEX
  5
3331A
330
1A26B
100
AcDbEntity
  8
TITLE_BLOCK
  6
CONTINUOUS
 62
     7
100
AcDbVertex
100
AcDb2dVertex
 10
-13.324164
 20
-23.313793
 30
0.0
 70
    16
  0
VERTEX
  5
3331B
330
1A26B
100
AcDbEntity
  8
TITLE_BLOCK
  6
CONTINUOUS
 62
     7
100
AcDbVertex
100
AcDb2dVertex
 10
-13.154554
 20
-23.314965
 30
0.0
 70
    16
  0
VERTEX
  5
3331C
330
1A26B
100
AcDbEntity
  8
TITLE_BLOCK
  6
CONTINUOUS
 62
     7
100
AcDbVertex
100
AcDb2dVertex
 10
-13.144945
 20
-23.191762
 30
0.0
 70
    16
  0
VERTEX
  5
3331D
330
1A26B
100
AcDbEntity
  8
TITLE_BLOCK
  6
CONTINUOUS
 62
     7
100
AcDbVertex
100
AcDb2dVertex
 10
-13.286976
 20
-23.15059
 30
0.0
 70
    16
  0
VERTEX
  5
3331E
330
1A26B
100
AcDbEntity
  8
TITLE_BLOCK
  6
CONTINUOUS
 62
     7
100
AcDbVertex
100
AcDb2dVertex
 10
-13.444554
 20
-23.140161
 30
0.0
 70
    16
  0
VERTEX
  5
3331F
330
1A26B
100
AcDbEntity
  8
TITLE_BLOCK
  6
CONTINUOUS
 62
     7
100
AcDbVertex
100
AcDb2dVertex
 10
-13.552562
 20
-23.027778
 30
0.0
 70
    16
  0
VERTEX
  5
33320
330
1A26B
100
AcDbEntity
  8
TITLE_BLOCK
  6
CONTINUOUS
 62
     7
100
AcDbVertex
100
AcDb2dVertex
 10
-13.552562
 20
-23.027778
 30
0.0
 70
    16
  0
VERTEX
  5
33321
330
1A26B
100
AcDbEntity
  8
TITLE_BLOCK
  6
CONTINUOUS
 62
     7
100
AcDbVertex
100
AcDb2dVertex
 10
-13.492172
 20
-22.992582
 30
0.0
 70
    16
  0
VERTEX
  5
33322
330
1A26B
100
AcDbEntity
  8
TITLE_BLOCK
  6
CONTINUOUS
 62
     7
100
AcDbVertex
100
AcDb2dVertex
 10
-13.492172
 20
-22.992582
 30
0.0
 70
    16
  0
VERTEX
  5
33323
330
1A26B
100
AcDbEntity
  8
TITLE_BLOCK
  6
CONTINUOUS
 62
     7
100
AcDbVertex
100
AcDb2dVertex
 10
-13.512953
 20
-22.992582
 30
0.0
 70
    16
  0
VERTEX
  5
33324
330
1A26B
100
AcDbEntity
  8
TITLE_BLOCK
  6
CONTINUOUS
 62
     7
100
AcDbVertex
100
AcDb2dVertex
 10
-13.554945
 20
-22.992582
 30
0.0
 70
    16
  0
VERTEX
  5
33325
330
1A26B
100
AcDbEntity
  8
TITLE_BLOCK
  6
CONTINUOUS
 62
     7
100
AcDbVertex
100
AcDb2dVertex
 10
-13.575765
 20
-22.992582
 30
0.0
 70
    16
  0
VERTEX
  5
33326
330
1A26B
100
AcDbEntity
  8
TITLE_BLOCK
  6
CONTINUOUS
 62
     7
100
AcDbVertex
100
AcDb2dVertex
 10
-13.575765
 20
-22.992582
 30
0.0
 70
    16
  0
VERTEX
  5
33327
330
1A26B
100
AcDbEntity
  8
TITLE_BLOCK
  6
CONTINUOUS
 62
     7
100
AcDbVertex
100
AcDb2dVertex
 10
-13.575765
 20
-22.992582
 30
0.0
 70
    16
  0
VERTEX
  5
33328
330
1A26B
100
AcDbEntity
  8
TITLE_BLOCK
  6
CONTINUOUS
 62
     7
100
AcDbVertex
100
AcDb2dVertex
 10
-13.575765
 20
-22.992582
 30
0.0
 70
    16
  0
SEQEND
  5
33329
330
1A26B
100
AcDbEntity
  8
TITLE_BLOCK
  6
CONTINUOUS
 62
     7
  0
POLYLINE
  5
1A305
330
32D05
100
AcDbEntity
  8
TITLE_BLOCK
  6
CONTINUOUS
 62
     7
100
AcDb2dPolyline
 66
     1
 10
0.0
 20
0.0
 30
0.0
 70
     5
 75
     5
  0
VERTEX
  5
3332A
330
1A305
100
AcDbEntity
  8
TITLE_BLOCK
  6
CONTINUOUS
 62
     7
100
AcDbVertex
100
AcDb2dVertex
 10
-20.961371
 20
-22.919379
 30
0.0
 70
     8
  0
VERTEX
  5
3332B
330
1A305
100
AcDbEntity
  8
TITLE_BLOCK
  6
CONTINUOUS
 62
     7
100
AcDbVertex
100
AcDb2dVertex
 10
-20.809769
 20
-22.93059
 30
0.0
 70
     8
  0
VERTEX
  5
3332C
330
1A305
100
AcDbEntity
  8
TITLE_BLOCK
  6
CONTINUOUS
 62
     7
100
AcDbVertex
100
AcDb2dVertex
 10
-20.806666
 20
-23.001621
 30
0.0
 70
     8
  0
VERTEX
  5
3332D
330
1A305
100
AcDbEntity
  8
TITLE_BLOCK
  6
CONTINUOUS
 62
     7
100
AcDbVertex
100
AcDb2dVertex
 10
-20.804164
 20
-23.072973
 30
0.0
 70
     8
  0
VERTEX
  5
3332E
330
1A305
100
AcDbEntity
  8
TITLE_BLOCK
  6
CONTINUOUS
 62
     7
100
AcDbVertex
100
AcDb2dVertex
 10
-20.964554
 20
-23.088168
 30
0.0
 70
     8
  0
VERTEX
  5
3332F
330
1A305
100
AcDbEntity
  8
TITLE_BLOCK
  6
CONTINUOUS
 62
     7
100
AcDbVertex
100
AcDb2dVertex
 10
-20.961371
 20
-22.919379
 30
0.0
 70
     8
  0
VERTEX
  5
33330
330
1A305
100
AcDbEntity
  8
TITLE_BLOCK
  6
CONTINUOUS
 62
     7
100
AcDbVertex
100
AcDb2dVertex
 10
-20.961371
 20
-22.919379
 30
0.0
 70
     8
  0
VERTEX
  5
33331
330
1A305
100
AcDbEntity
  8
TITLE_BLOCK
  6
CONTINUOUS
 62
     7
100
AcDbVertex
100
AcDb2dVertex
 10
-20.961371
 20
-22.919379
 30
0.0
 70
    16
  0
VERTEX
  5
33332
330
1A305
100
AcDbEntity
  8
TITLE_BLOCK
  6
CONTINUOUS
 62
     7
100
AcDbVertex
100
AcDb2dVertex
 10
-20.910961
 20
-22.922973
 30
0.0
 70
    16
  0
VERTEX
  5
33333
330
1A305
100
AcDbEntity
  8
TITLE_BLOCK
  6
CONTINUOUS
 62
     7
100
AcDbVertex
100
AcDb2dVertex
 10
-20.86016
 20
-22.926567
 30
0.0
 70
    16
  0
VERTEX
  5
33334
330
1A305
100
AcDbEntity
  8
TITLE_BLOCK
  6
CONTINUOUS
 62
     7
100
AcDbVertex
100
AcDb2dVertex
 10
-20.809769
 20
-22.93059
 30
0.0
 70
    16
  0
VERTEX
  5
33335
330
1A305
100
AcDbEntity
  8
TITLE_BLOCK
  6
CONTINUOUS
 62
     7
100
AcDbVertex
100
AcDb2dVertex
 10
-20.807367
 20
-22.977778
 30
0.0
 70
    16
  0
VERTEX
  5
33336
330
1A305
100
AcDbEntity
  8
TITLE_BLOCK
  6
CONTINUOUS
 62
     7
100
AcDbVertex
100
AcDb2dVertex
 10
-20.805765
 20
-23.025356
 30
0.0
 70
    16
  0
VERTEX
  5
33337
330
1A305
100
AcDbEntity
  8
TITLE_BLOCK
  6
CONTINUOUS
 62
     7
100
AcDbVertex
100
AcDb2dVertex
 10
-20.804164
 20
-23.072973
 30
0.0
 70
    16
  0
VERTEX
  5
33338
330
1A305
100
AcDbEntity
  8
TITLE_BLOCK
  6
CONTINUOUS
 62
     7
100
AcDbVertex
100
AcDb2dVertex
 10
-20.857757
 20
-23.078168
 30
0.0
 70
    16
  0
VERTEX
  5
33339
330
1A305
100
AcDbEntity
  8
TITLE_BLOCK
  6
CONTINUOUS
 62
     7
100
AcDbVertex
100
AcDb2dVertex
 10
-20.911371
 20
-23.083364
 30
0.0
 70
    16
  0
VERTEX
  5
3333A
330
1A305
100
AcDbEntity
  8
TITLE_BLOCK
  6
CONTINUOUS
 62
     7
100
AcDbVertex
100
AcDb2dVertex
 10
-20.964554
 20
-23.088168
 30
0.0
 70
    16
  0
VERTEX
  5
3333B
330
1A305
100
AcDbEntity
  8
TITLE_BLOCK
  6
CONTINUOUS
 62
     7
100
AcDbVertex
100
AcDb2dVertex
 10
-20.963754
 20
-23.031762
 30
0.0
 70
    16
  0
VERTEX
  5
3333C
330
1A305
100
AcDbEntity
  8
TITLE_BLOCK
  6
CONTINUOUS
 62
     7
100
AcDbVertex
100
AcDb2dVertex
 10
-20.962562
 20
-22.975356
 30
0.0
 70
    16
  0
VERTEX
  5
3333D
330
1A305
100
AcDbEntity
  8
TITLE_BLOCK
  6
CONTINUOUS
 62
     7
100
AcDbVertex
100
AcDb2dVertex
 10
-20.961371
 20
-22.919379
 30
0.0
 70
    16
  0
VERTEX
  5
3333E
330
1A305
100
AcDbEntity
  8
TITLE_BLOCK
  6
CONTINUOUS
 62
     7
100
AcDbVertex
100
AcDb2dVertex
 10
-20.961371
 20
-22.919379
 30
0.0
 70
    16
  0
VERTEX
  5
3333F
330
1A305
100
AcDbEntity
  8
TITLE_BLOCK
  6
CONTINUOUS
 62
     7
100
AcDbVertex
100
AcDb2dVertex
 10
-20.961371
 20
-22.919379
 30
0.0
 70
    16
  0
VERTEX
  5
33340
330
1A305
100
AcDbEntity
  8
TITLE_BLOCK
  6
CONTINUOUS
 62
     7
100
AcDbVertex
100
AcDb2dVertex
 10
-20.961371
 20
-22.919379
 30
0.0
 70
    16
  0
SEQEND
  5
33341
330
1A305
100
AcDbEntity
  8
TITLE_BLOCK
  6
CONTINUOUS
 62
     7
  0
POLYLINE
  5
1A31D
330
32D05
100
AcDbEntity
  8
TITLE_BLOCK
  6
CONTINUOUS
 62
     7
100
AcDb2dPolyline
 66
     1
 10
0.0
 20
0.0
 30
0.0
 70
     5
 75
     5
  0
VERTEX
  5
33342
330
1A31D
100
AcDbEntity
  8
TITLE_BLOCK
  6
CONTINUOUS
 62
     7
100
AcDbVertex
100
AcDb2dVertex
 10
-17.232953
 20
-23.170161
 30
0.0
 70
     8
  0
VERTEX
  5
33343
330
1A31D
100
AcDbEntity
  8
TITLE_BLOCK
  6
CONTINUOUS
 62
     7
100
AcDbVertex
100
AcDb2dVertex
 10
-17.187411
 20
-23.042665
 30
0.0
 70
     8
  0
VERTEX
  5
33344
330
1A31D
100
AcDbEntity
  8
TITLE_BLOCK
  6
CONTINUOUS
 62
     7
100
AcDbVertex
100
AcDb2dVertex
 10
-17.140961
 20
-22.915786
 30
0.0
 70
     8
  0
VERTEX
  5
33345
330
1A31D
100
AcDbEntity
  8
TITLE_BLOCK
  6
CONTINUOUS
 62
     7
100
AcDbVertex
100
AcDb2dVertex
 10
-17.096117
 20
-23.037924
 30
0.0
 70
     8
  0
VERTEX
  5
33346
330
1A31D
100
AcDbEntity
  8
TITLE_BLOCK
  6
CONTINUOUS
 62
     7
100
AcDbVertex
100
AcDb2dVertex
 10
-17.04975
 20
-23.15977
 30
0.0
 70
     8
  0
VERTEX
  5
33347
330
1A31D
100
AcDbEntity
  8
TITLE_BLOCK
  6
CONTINUOUS
 62
     7
100
AcDbVertex
100
AcDb2dVertex
 10
-17.232953
 20
-23.170161
 30
0.0
 70
     8
  0
VERTEX
  5
33348
330
1A31D
100
AcDbEntity
  8
TITLE_BLOCK
  6
CONTINUOUS
 62
     7
100
AcDbVertex
100
AcDb2dVertex
 10
-17.232953
 20
-23.170161
 30
0.0
 70
     8
  0
VERTEX
  5
33349
330
1A31D
100
AcDbEntity
  8
TITLE_BLOCK
  6
CONTINUOUS
 62
     7
100
AcDbVertex
100
AcDb2dVertex
 10
-17.232953
 20
-23.170161
 30
0.0
 70
    16
  0
VERTEX
  5
3334A
330
1A31D
100
AcDbEntity
  8
TITLE_BLOCK
  6
CONTINUOUS
 62
     7
100
AcDbVertex
100
AcDb2dVertex
 10
-17.202562
 20
-23.084965
 30
0.0
 70
    16
  0
VERTEX
  5
3334B
330
1A31D
100
AcDbEntity
  8
TITLE_BLOCK
  6
CONTINUOUS
 62
     7
100
AcDbVertex
100
AcDb2dVertex
 10
-17.172562
 20
-23.000161
 30
0.0
 70
    16
  0
VERTEX
  5
3334C
330
1A31D
100
AcDbEntity
  8
TITLE_BLOCK
  6
CONTINUOUS
 62
     7
100
AcDbVertex
100
AcDb2dVertex
 10
-17.140961
 20
-22.915786
 30
0.0
 70
    16
  0
VERTEX
  5
3334D
330
1A31D
100
AcDbEntity
  8
TITLE_BLOCK
  6
CONTINUOUS
 62
     7
100
AcDbVertex
100
AcDb2dVertex
 10
-17.111781
 20
-22.997387
 30
0.0
 70
    16
  0
VERTEX
  5
3334E
330
1A31D
100
AcDbEntity
  8
TITLE_BLOCK
  6
CONTINUOUS
 62
     7
100
AcDbVertex
100
AcDb2dVertex
 10
-17.080961
 20
-23.078559
 30
0.0
 70
    16
  0
VERTEX
  5
3334F
330
1A31D
100
AcDbEntity
  8
TITLE_BLOCK
  6
CONTINUOUS
 62
     7
100
AcDbVertex
100
AcDb2dVertex
 10
-17.04975
 20
-23.15977
 30
0.0
 70
    16
  0
VERTEX
  5
33350
330
1A31D
100
AcDbEntity
  8
TITLE_BLOCK
  6
CONTINUOUS
 62
     7
100
AcDbVertex
100
AcDb2dVertex
 10
-17.110961
 20
-23.163364
 30
0.0
 70
    16
  0
VERTEX
  5
33351
330
1A31D
100
AcDbEntity
  8
TITLE_BLOCK
  6
CONTINUOUS
 62
     7
100
AcDbVertex
100
AcDb2dVertex
 10
-17.172172
 20
-23.166567
 30
0.0
 70
    16
  0
VERTEX
  5
33352
330
1A31D
100
AcDbEntity
  8
TITLE_BLOCK
  6
CONTINUOUS
 62
     7
100
AcDbVertex
100
AcDb2dVertex
 10
-17.232953
 20
-23.170161
 30
0.0
 70
    16
  0
VERTEX
  5
33353
330
1A31D
100
AcDbEntity
  8
TITLE_BLOCK
  6
CONTINUOUS
 62
     7
100
AcDbVertex
100
AcDb2dVertex
 10
-17.232953
 20
-23.170161
 30
0.0
 70
    16
  0
VERTEX
  5
33354
330
1A31D
100
AcDbEntity
  8
TITLE_BLOCK
  6
CONTINUOUS
 62
     7
100
AcDbVertex
100
AcDb2dVertex
 10
-17.232953
 20
-23.170161
 30
0.0
 70
    16
  0
VERTEX
  5
33355
330
1A31D
100
AcDbEntity
  8
TITLE_BLOCK
  6
CONTINUOUS
 62
     7
100
AcDbVertex
100
AcDb2dVertex
 10
-17.232953
 20
-23.170161
 30
0.0
 70
    16
  0
SEQEND
  5
33356
330
1A31D
100
AcDbEntity
  8
TITLE_BLOCK
  6
CONTINUOUS
 62
     7
  0
LINE
  5
1A332
330
32D05
100
AcDbEntity
  8
TITLE_BLOCK
  6
CONTINUOUS
 62
     7
100
AcDbLine
 10
-9.62
 20
-17.5
 30
0.0
 11
-9.62
 21
-25.0
 31
0.0
  0
LINE
  5
1A333
330
32D05
100
AcDbEntity
  8
TITLE_BLOCK
  6
CONTINUOUS
 62
     7
100
AcDbLine
 10
-9.12
 20
-17.5
 30
0.0
 11
-9.12
 21
-25.0
 31
0.0
  0
LINE
  5
1A334
330
32D05
100
AcDbEntity
  8
TITLE_BLOCK
  6
CONTINUOUS
 62
     7
100
AcDbLine
 10
-9.12
 20
-25.0
 30
0.0
 11
27.0
 21
-25.0
 31
0.0
  0
LINE
  5
1A335
330
32D05
100
AcDbEntity
  8
TITLE_BLOCK
  6
CONTINUOUS
 62
     7
100
AcDbLine
 10
-9.12
 20
-17.5
 30
0.0
 11
27.0
 21
-17.5
 31
0.0
  0
TEXT
  5
1A33B
330
32D05
100
AcDbEntity
  8
TITLE_BLOCK
100
AcDbText
 10
10.36
 20
-20.88
 30
0.0
 40
1.0
  1
ECLIPSE M602-18
 72
     4
 11
16.74
 21
-20.38
 31
0.0
100
AcDbText
  0
TEXT
  5
1A33C
330
32D05
100
AcDbEntity
  8
TITLE_BLOCK
100
AcDbText
 10
11.981967
 20
-22.558783
 30
0.0
 40
1.0
  1
1/8" REVEAL
 72
     4
 11
16.741967
 21
-22.058783
 31
0.0
100
AcDbText
  0
TEXT
  5
1AC46
330
32D05
100
AcDbEntity
  8
CUTOUT_TEMPLATE
100
AcDbText
 10
-8.325409
 20
-19.087531
 30
0.0
 40
0.38
  1
Eclipse provides DXF cutout templates for
100
AcDbText
  0
TEXT
  5
1AC47
330
32D05
100
AcDbEntity
  8
CUTOUT_TEMPLATE
100
AcDbText
 10
-8.325409
 20
-19.725931
 30
0.0
 40
0.38
  1
the convenience of the fabricator. Stainless
100
AcDbText
  0
TEXT
  5
1AC48
330
32D05
100
AcDbEntity
  8
CUTOUT_TEMPLATE
100
AcDbText
 10
-8.325409
 20
-20.364331
 30
0.0
 40
0.38
  1
sinks have 1/8" reveal, ceramic sinks have 
100
AcDbText
  0
TEXT
  5
1AC49
330
32D05
100
AcDbEntity
  8
CUTOUT_TEMPLATE
100
AcDbText
 10
-8.325409
 20
-21.002731
 30
0.0
 40
0.38
  1
1/2" overhang. Due to differences in
100
AcDbText
  0
TEXT
  5
1AC4A
330
32D05
100
AcDbEntity
  8
CUTOUT_TEMPLATE
100
AcDbText
 10
-8.325409
 20
-21.641131
 30
0.0
 40
0.38
  1
fabricator preference, Eclipse cannot accept 
100
AcDbText
  0
TEXT
  5
1AC4B
330
32D05
100
AcDbEntity
  8
CUTOUT_TEMPLATE
100
AcDbText
 10
-8.325409
 20
-22.279531
 30
0.0
 40
0.38
  1
responsibility for the finished cutout. Please 
100
AcDbText
  0
TEXT
  5
1AC4C
330
32D05
100
AcDbEntity
  8
CUTOUT_TEMPLATE
100
AcDbText
 10
-8.325409
 20
-22.917931
 30
0.0
 40
0.38
  1
check the files carefully to ensure that the 
100
AcDbText
  0
TEXT
  5
1AC4D
330
32D05
100
AcDbEntity
  8
CUTOUT_TEMPLATE
100
AcDbText
 10
-8.325409
 20
-23.556331
 30
0.0
 40
0.38
  1
cutout suits your needs before proceeding.
100
AcDbText
  0
ARC
  5
31FB1
330
32D05
100
AcDbEntity
  8
1
  6
CONTINUOUS
 62
     1
100
AcDbCircle
 10
-7.91337
 20
-23.42515
 30
0.0
 40
31.83599950000002
100
AcDbArc
 50
90.0
 51
96.637987
  0
LINE
  5
31FB2
330
32D05
100
AcDbEntity
  8
1
 62
     1
100
AcDbLine
 10
-7.91337
 20
8.410849
 30
0.0
 11
7.91337
 21
8.410849
 31
0.0
  0
ARC
  5
31FB3
330
32D05
100
AcDbEntity
  8
1
  6
CONTINUOUS
 62
     1
100
AcDbCircle
 10
7.91337
 20
-23.42515
 30
0.0
 40
31.83599949999999
100
AcDbArc
 50
83.362013
 51
90.0
  0
ARC
  5
31FB4
330
32D05
100
AcDbEntity
  8
1
  6
CONTINUOUS
 62
     1
100
AcDbCircle
 10
11.099073
 20
3.949104
 30
0.0
 40
4.276999499999997
100
AcDbArc
 50
5.231989
 51
83.362013
  0
ARC
  5
31FB5
330
32D05
100
AcDbEntity
  8
1
  6
CONTINUOUS
 62
     1
100
AcDbCircle
 10
-32.027495
 20
0.0
 30
0.0
 40
47.58399950000001
100
AcDbArc
 50
354.768011
 51
5.231989
  0
ARC
  5
31FB6
330
32D05
100
AcDbEntity
  8
1
  6
CONTINUOUS
 62
     1
100
AcDbCircle
 10
11.099073
 20
-3.949104
 30
0.0
 40
4.27699949999999
100
AcDbArc
 50
276.637987
 51
354.768011
  0
ARC
  5
31FB7
330
32D05
100
AcDbEntity
  8
1
  6
CONTINUOUS
 62
     1
100
AcDbCircle
 10
7.91337
 20
23.42515
 30
0.0
 40
31.8359995
100
AcDbArc
 50
270.0
 51
276.637987
  0
LINE
  5
31FB8
330
32D05
100
AcDbEntity
  8
1
 62
     1
100
AcDbLine
 10
7.91337
 20
-8.41085
 30
0.0
 11
-7.91337
 21
-8.41085
 31
0.0
  0
ARC
  5
31FB9
330
32D05
100
AcDbEntity
  8
1
  6
CONTINUOUS
 62
     1
100
AcDbCircle
 10
-7.91337
 20
23.42515
 30
0.0
 40
31.83599950000001
100
AcDbArc
 50
263.362013
 51
270.0
  0
ARC
  5
31FBA
330
32D05
100
AcDbEntity
  8
1
  6
CONTINUOUS
 62
     1
100
AcDbCircle
 10
-11.099072
 20
-3.949104
 30
0.0
 40
4.276999499999996
100
AcDbArc
 50
185.231989
 51
263.362013
  0
ARC
  5
31FBB
330
32D05
100
AcDbEntity
  8
1
  6
CONTINUOUS
 62
     1
100
AcDbCircle
 10
32.027495
 20
0.0
 30
0.0
 40
47.58399950000001
100
AcDbArc
 50
174.768011
 51
185.231989
  0
ARC
  5
31FBC
330
32D05
100
AcDbEntity
  8
1
  6
CONTINUOUS
 62
     1
100
AcDbCircle
 10
-11.099072
 20
3.949104
 30
0.0
 40
4.276999499999993
100
AcDbArc
 50
96.637987
 51
174.768011
  0
LINE
  5
31FBD
330
32D05
100
AcDbEntity
  8
1
 62
     1
100
AcDbLine
 10
-3.0
 20
0.0
 30
0.0
 11
3.0
 21
0.0
 31
0.0
  0
LINE
  5
31FBE
330
32D05
100
AcDbEntity
  8
1
 62
     1
100
AcDbLine
 10
0.0
 20
3.0
 30
0.0
 11
0.0
 21
-3.0
 31
0.0
  0
LINE
  5
31FBF
330
32D05
100
AcDbEntity
  8
1
 62
     1
100
AcDbLine
 10
0.0
 20
-8.41085
 30
0.0
 11
0.0
 21
-8.41085
 31
0.0
  0
TEXT
  5
31FC0
330
32D05
100
AcDbEntity
  8
1
 62
     7
100
AcDbText
 10
4.590623
 20
4.172201
 30
0.0
 40
1.0
  1
ECLIPSE
 72
     4
 11
7.460623
 21
4.672201
 31
0.0
100
AcDbText
  0
TEXT
  5
31FC1
330
32D05
100
AcDbEntity
  8
1
 62
     7
100
AcDbText
 10
4.42
 20
2.49
 30
0.0
 40
1.0
  1
M602-18
 72
     4
 11
7.46
 21
2.99
 31
0.0
100
AcDbText
  0
ENDSEC
  0
SECTION
  2
OBJECTS
  0
DICTIONARY
  5
32CF3
330
0
100
AcDbDictionary
  3
ACAD_COLOR
350
1A5E1
  3
ACAD_GROUP
350
32CF4
  3
ACAD_LAYOUT
350
32D00
  3
ACAD_MATERIAL
350
1A5E2
  3
ACAD_MLINESTYLE
350
32CFD
  3
ACAD_PLOTSETTINGS
350
19
  3
ACDBHEADERROUNDTRIPXREC
350
33357
  0
DICTIONARY
  5
1A5E1
102
{ACAD_REACTORS
330
32CF3
102
}
330
32CF3
100
AcDbDictionary
  0
DICTIONARY
  5
32CF4
102
{ACAD_REACTORS
330
32CF3
102
}
330
32CF3
100
AcDbDictionary
  0
DICTIONARY
  5
32D00
102
{ACAD_REACTORS
330
32CF3
102
}
330
32CF3
100
AcDbDictionary
  0
DICTIONARY
  5
1A5E2
102
{ACAD_REACTORS
330
32CF3
102
}
330
32CF3
100
AcDbDictionary
  0
DICTIONARY
  5
32CFD
102
{ACAD_REACTORS
330
32CF3
102
}
330
32CF3
100
AcDbDictionary
  3
STANDARD
350
32CFE
  0
DICTIONARY
  5
19
102
{ACAD_REACTORS
330
32CF3
102
}
330
32CF3
100
AcDbDictionary
  0
DICTIONARY
  5
33357
102
{ACAD_REACTORS
330
32CF3
102
}
330
32CF3
100
AcDbDictionary
  3
CEPSNTYPE
350
33360
  3
COLORDICT
350
33377
  3
DIMSTYLEDATA
350
33376
  3
FINGERPRINTGUID
350
33361
  3
HYPERLINKBASE
350
3335A
  3
INSUNITS
350
3335F
  3
LAYOUTDICT
350
3335C
  3
LWETCUNION
350
3335E
  3
MATERIALDICT
350
33378
  3
PLOTSETDICT
350
3335D
  3
PSVPSCALE
350
33363
  3
PUCSBASE
350
33366
  3
PUCSORGBACK
350
3336C
  3
PUCSORGBOTTOM
350
33368
  3
PUCSORGFRONT
350
3336B
  3
PUCSORGLEFT
350
33369
  3
PUCSORGRIGHT
350
3336A
  3
PUCSORGTOP
350
33367
  3
PUCSORTHOREF
350
33364
  3
PUCSORTHOVIEW
350
33365
  3
STYLESHEET
350
3335B
  3
TSTACKALIGN
350
33358
  3
TSTACKSIZE
350
33359
  3
UCSBASE
350
3336F
  3
UCSORGBACK
350
33375
  3
UCSORGBOTTOM
350
33371
  3
UCSORGFRONT
350
33374
  3
UCSORGLEFT
350
33372
  3
UCSORGRIGHT
350
33373
  3
UCSORGTOP
350
33370
  3
UCSORTHOREF
350
3336D
  3
UCSORTHOVIEW
350
3336E
  3
VERSIONGUID
350
33362
  0
MLINESTYLE
  5
32CFE
102
{ACAD_REACTORS
330
32CFD
102
}
330
32CFD
100
AcDbMlineStyle
  2
Standard
 70
     0
  3

 62
   256
 51
90.0
 52
90.0
 71
     2
 49
0.5
 62
   256
  6
BYLAYER
 49
-0.5
 62
   256
  6
BYLAYER
  0
XRECORD
  5
33360
102
{ACAD_REACTORS
330
33357
102
}
330
33357
100
AcDbXrecord
 90
        0
  0
XRECORD
  5
33377
102
{ACAD_REACTORS
330
33357
102
}
330
33357
100
AcDbXrecord
340
1A5E1
  0
XRECORD
  5
33376
102
{ACAD_REACTORS
330
33357
102
}
330
33357
100
AcDbXrecord
1000
DSTYLE
1002
{
1070
   278
 70
     0
1070
   371
 70
     0
1070
   372
 70
     0
1070
    40
 40
10.0
1070
   340
340
32CF8
1002
}
  0
XRECORD
  5
33361
102
{ACAD_REACTORS
330
33357
102
}
330
33357
100
AcDbXrecord
  1

  0
XRECORD
  5
3335A
102
{ACAD_REACTORS
330
33357
102
}
330
33357
100
AcDbXrecord
  1

  0
XRECORD
  5
3335F
102
{ACAD_REACTORS
330
33357
102
}
330
33357
100
AcDbXrecord
 90
        0
  0
XRECORD
  5
3335C
102
{ACAD_REACTORS
330
33357
102
}
330
33357
100
AcDbXrecord
340
32D00
  0
XRECORD
  5
3335E
102
{ACAD_REACTORS
330
33357
102
}
330
33357
100
AcDbXrecord
 90
    10781
  0
XRECORD
  5
33378
102
{ACAD_REACTORS
330
33357
102
}
330
33357
100
AcDbXrecord
340
1A5E2
  0
XRECORD
  5
3335D
102
{ACAD_REACTORS
330
33357
102
}
330
33357
100
AcDbXrecord
340
19
  0
XRECORD
  5
33363
102
{ACAD_REACTORS
330
33357
102
}
330
33357
100
AcDbXrecord
 40
0.0
  0
XRECORD
  5
33366
102
{ACAD_REACTORS
330
33357
102
}
330
33357
100
AcDbXrecord
340
0
  0
XRECORD
  5
3336C
102
{ACAD_REACTORS
330
33357
102
}
330
33357
100
AcDbXrecord
 10
0.0
 20
0.0
 30
0.0
  0
XRECORD
  5
33368
102
{ACAD_REACTORS
330
33357
102
}
330
33357
100
AcDbXrecord
 10
0.0
 20
0.0
 30
0.0
  0
XRECORD
  5
3336B
102
{ACAD_REACTORS
330
33357
102
}
330
33357
100
AcDbXrecord
 10
0.0
 20
0.0
 30
0.0
  0
XRECORD
  5
33369
102
{ACAD_REACTORS
330
33357
102
}
330
33357
100
AcDbXrecord
 10
0.0
 20
0.0
 30
0.0
  0
XRECORD
  5
3336A
102
{ACAD_REACTORS
330
33357
102
}
330
33357
100
AcDbXrecord
 10
0.0
 20
0.0
 30
0.0
  0
XRECORD
  5
33367
102
{ACAD_REACTORS
330
33357
102
}
330
33357
100
AcDbXrecord
 10
0.0
 20
0.0
 30
0.0
  0
XRECORD
  5
33364
102
{ACAD_REACTORS
330
33357
102
}
330
33357
100
AcDbXrecord
340
0
  0
XRECORD
  5
33365
102
{ACAD_REACTORS
330
33357
102
}
330
33357
100
AcDbXrecord
 70
     0
  0
XRECORD
  5
3335B
102
{ACAD_REACTORS
330
33357
102
}
330
33357
100
AcDbXrecord
  1

  0
XRECORD
  5
33358
102
{ACAD_REACTORS
330
33357
102
}
330
33357
100
AcDbXrecord
 90
        1
  0
XRECORD
  5
33359
102
{ACAD_REACTORS
330
33357
102
}
330
33357
100
AcDbXrecord
 90
       70
  0
XRECORD
  5
3336F
102
{ACAD_REACTORS
330
33357
102
}
330
33357
100
AcDbXrecord
340
0
  0
XRECORD
  5
33375
102
{ACAD_REACTORS
330
33357
102
}
330
33357
100
AcDbXrecord
 10
0.0
 20
0.0
 30
0.0
  0
XRECORD
  5
33371
102
{ACAD_REACTORS
330
33357
102
}
330
33357
100
AcDbXrecord
 10
0.0
 20
0.0
 30
0.0
  0
XRECORD
  5
33374
102
{ACAD_REACTORS
330
33357
102
}
330
33357
100
AcDbXrecord
 10
0.0
 20
0.0
 30
0.0
  0
XRECORD
  5
33372
102
{ACAD_REACTORS
330
33357
102
}
330
33357
100
AcDbXrecord
 10
0.0
 20
0.0
 30
0.0
  0
XRECORD
  5
33373
102
{ACAD_REACTORS
330
33357
102
}
330
33357
100
AcDbXrecord
 10
0.0
 20
0.0
 30
0.0
  0
XRECORD
  5
33370
102
{ACAD_REACTORS
330
33357
102
}
330
33357
100
AcDbXrecord
 10
0.0
 20
0.0
 30
0.0
  0
XRECORD
  5
3336D
102
{ACAD_REACTORS
330
33357
102
}
330
33357
100
AcDbXrecord
340
0
  0
XRECORD
  5
3336E
102
{ACAD_REACTORS
330
33357
102
}
330
33357
100
AcDbXrecord
 70
     0
  0
XRECORD
  5
33362
102
{ACAD_REACTORS
330
33357
102
}
330
33357
100
AcDbXrecord
  1

  0
ENDSEC
  0
EOF
