  0
SECTION
  2
HEADER
  9
$ACADVER
  1
AC1014
  9
$ACADMAINTVER
 70
     9
  9
$DWGCODEPAGE
  3
ANSI_1252
  9
$INSBASE
 10
0.0
 20
0.0
 30
0.0
  9
$EXTMIN
 10
-27.5
 20
-25.5
 30
0.0
  9
$EXTMAX
 10
27.5
 20
17.0
 30
0.0
  9
$LIMMIN
 10
0.0
 20
0.0
  9
$LIMMAX
 10
12.0
 20
9.0
  9
$ORTHOMODE
 70
     1
  9
$REGENMODE
 70
     1
  9
$FILLMODE
 70
     1
  9
$QTEXTMODE
 70
     0
  9
$MIRRTEXT
 70
     0
  9
$DRAGMODE
 70
     2
  9
$LTSCALE
 40
1.0
  9
$OSMODE
 70
    37
  9
$ATTMODE
 70
     1
  9
$TEXTSIZE
 40
1.0
  9
$TRACEWID
 40
0.05
  9
$TEXTSTYLE
  7
STANDARD
  9
$CLAYER
  8
CUTOUT_TEMPLATE
  9
$CELTYPE
  6
BYLAYER
  9
$CECOLOR
 62
   256
  9
$CELTSCALE
 40
1.0
  9
$DELOBJ
 70
     1
  9
$DISPSILH
 70
     0
  9
$DIMSCALE
 40
10.0
  9
$DIMASZ
 40
0.18
  9
$DIMEXO
 40
0.0625
  9
$DIMDLI
 40
0.38
  9
$DIMRND
 40
0.0
  9
$DIMDLE
 40
0.0
  9
$DIMEXE
 40
0.18
  9
$DIMTP
 40
0.0
  9
$DIMTM
 40
0.0
  9
$DIMTXT
 40
0.18
  9
$DIMCEN
 40
0.09
  9
$DIMTSZ
 40
0.0
  9
$DIMTOL
 70
     0
  9
$DIMLIM
 70
     0
  9
$DIMTIH
 70
     1
  9
$DIMTOH
 70
     1
  9
$DIMSE1
 70
     0
  9
$DIMSE2
 70
     0
  9
$DIMTAD
 70
     0
  9
$DIMZIN
 70
     0
  9
$DIMBLK
  1

  9
$DIMASO
 70
     1
  9
$DIMSHO
 70
     1
  9
$DIMPOST
  1

  9
$DIMAPOST
  1

  9
$DIMALT
 70
     0
  9
$DIMALTD
 70
     2
  9
$DIMALTF
 40
25.4
  9
$DIMLFAC
 40
1.0
  9
$DIMTOFL
 70
     0
  9
$DIMTVP
 40
0.0
  9
$DIMTIX
 70
     0
  9
$DIMSOXD
 70
     0
  9
$DIMSAH
 70
     0
  9
$DIMBLK1
  1

  9
$DIMBLK2
  1

  9
$DIMSTYLE
  2
STANDARD
  9
$DIMCLRD
 70
     0
  9
$DIMCLRE
 70
     0
  9
$DIMCLRT
 70
     0
  9
$DIMTFAC
 40
1.0
  9
$DIMGAP
 40
0.09
  9
$DIMJUST
 70
     0
  9
$DIMSD1
 70
     0
  9
$DIMSD2
 70
     0
  9
$DIMTOLJ
 70
     1
  9
$DIMTZIN
 70
     0
  9
$DIMALTZ
 70
     0
  9
$DIMALTTZ
 70
     0
  9
$DIMFIT
 70
     3
  9
$DIMUPT
 70
     0
  9
$DIMUNIT
 70
     2
  9
$DIMDEC
 70
     4
  9
$DIMTDEC
 70
     4
  9
$DIMALTU
 70
     2
  9
$DIMALTTD
 70
     2
  9
$DIMTXSTY
  7
STANDARD
  9
$DIMAUNIT
 70
     0
  9
$LUNITS
 70
     2
  9
$LUPREC
 70
     2
  9
$SKETCHINC
 40
0.1
  9
$FILLETRAD
 40
3.0
  9
$AUNITS
 70
     0
  9
$AUPREC
 70
     0
  9
$MENU
  1
acad
  9
$ELEVATION
 40
0.0
  9
$PELEVATION
 40
0.0
  9
$THICKNESS
 40
0.0
  9
$LIMCHECK
 70
     0
  9
$CHAMFERA
 40
0.0
  9
$CHAMFERB
 40
0.0
  9
$CHAMFERC
 40
1.0
  9
$CHAMFERD
 40
0.0
  9
$SKPOLY
 70
     0
  9
$TDCREATE
 40
2447892.791666667
  9
$TDUPDATE
 40
2447892.791666667
  9
$TDINDWG
 40
0.0
  9
$TDUSRTIMER
 40
0.0
  9
$USRTIMER
 70
     1
  9
$ANGBASE
 50
0.0
  9
$ANGDIR
 70
     0
  9
$PDMODE
 70
    34
  9
$PDSIZE
 40
0.0
  9
$PLINEWID
 40
0.0
  9
$COORDS
 70
     1
  9
$SPLFRAME
 70
     0
  9
$SPLINETYPE
 70
     6
  9
$SPLINESEGS
 70
     8
  9
$ATTDIA
 70
     0
  9
$ATTREQ
 70
     1
  9
$HANDLING
 70
     1
  9
$HANDSEED
  5
35307
  9
$SURFTAB1
 70
     6
  9
$SURFTAB2
 70
     6
  9
$SURFTYPE
 70
     6
  9
$SURFU
 70
     6
  9
$SURFV
 70
     6
  9
$UCSNAME
  2

  9
$UCSORG
 10
0.0
 20
0.0
 30
0.0
  9
$UCSXDIR
 10
1.0
 20
0.0
 30
0.0
  9
$UCSYDIR
 10
0.0
 20
1.0
 30
0.0
  9
$PUCSNAME
  2

  9
$PUCSORG
 10
0.0
 20
0.0
 30
0.0
  9
$PUCSXDIR
 10
1.0
 20
0.0
 30
0.0
  9
$PUCSYDIR
 10
0.0
 20
1.0
 30
0.0
  9
$USERI1
 70
     0
  9
$USERI2
 70
     0
  9
$USERI3
 70
     0
  9
$USERI4
 70
     0
  9
$USERI5
 70
     0
  9
$USERR1
 40
0.0
  9
$USERR2
 40
0.0
  9
$USERR3
 40
0.0
  9
$USERR4
 40
0.0
  9
$USERR5
 40
0.0
  9
$WORLDVIEW
 70
     1
  9
$SHADEDGE
 70
     1
  9
$SHADEDIF
 70
    70
  9
$TILEMODE
 70
     1
  9
$MAXACTVP
 70
    16
  9
$PINSBASE
 10
0.0
 20
0.0
 30
0.0
  9
$PLIMCHECK
 70
     0
  9
$PEXTMIN
 10
1.000000E+20
 20
1.000000E+20
 30
1.000000E+20
  9
$PEXTMAX
 10
-1.000000E+20
 20
-1.000000E+20
 30
-1.000000E+20
  9
$PLIMMIN
 10
0.0
 20
0.0
  9
$PLIMMAX
 10
12.0
 20
9.0
  9
$UNITMODE
 70
     0
  9
$VISRETAIN
 70
     0
  9
$PLINEGEN
 70
     0
  9
$PSLTSCALE
 70
     0
  9
$TREEDEPTH
 70
  3020
  9
$PICKSTYLE
 70
     1
  9
$CMLSTYLE
  2
STANDARD
  9
$CMLJUST
 70
     0
  9
$CMLSCALE
 40
1.0
  9
$PROXYGRAPHICS
 70
     1
  9
$MEASUREMENT
 70
     0
  0
ENDSEC
  0
SECTION
  2
CLASSES
  0
CLASS
  1
ACDBDICTIONARYWDFLT
  2
AcDbDictionaryWithDefault
  3
ObjectDBX Classes
 90
        0
280
     0
281
     0
  0
CLASS
  1
XRECORD
  2
AcDbXrecord
  3
AutoCAD 2000
 90
        0
280
     0
281
     0
  0
CLASS
  1
LWPOLYLINE
  2
AcDbPolyline
  3
AutoCAD 2000
 90
        0
280
     0
281
     1
  0
CLASS
  1
HATCH
  2
AcDbHatch
  3
AutoCAD 2000
 90
        0
280
     0
281
     1
  0
CLASS
  1
ACDBPLACEHOLDER
  2
AcDbPlaceHolder
  3
ObjectDBX Classes
 90
        0
280
     0
281
     0
  0
CLASS
  1
LAYOUT
  2
AcDbLayout
  3
ObjectDBX Classes
 90
        0
280
     0
281
     0
  0
ENDSEC
  0
SECTION
  2
TABLES
  0
TABLE
  2
VPORT
  5
34C7D
330
0
100
AcDbSymbolTable
 70
     2
  0
VPORT
  5
34CBD
330
34C7D
100
AcDbSymbolTableRecord
100
AcDbViewportTableRecord
  2
*ACTIVE
 70
     0
 10
0.0
 20
0.0
 11
1.0
 21
1.0
 12
-31.648383
 22
-6.086438
 13
0.0
 23
0.0
 14
1.0
 24
1.0
 15
1.0
 25
1.0
 16
0.0
 26
0.0
 36
1.0
 17
0.0
 27
0.0
 37
0.0
 40
52.178851
 41
1.294118
 42
50.0
 43
0.0
 44
0.0
 50
0.0
 51
0.0
 71
     0
 72
   100
 73
     1
 74
     1
 75
     0
 76
     0
 77
     0
 78
     0
  0
ENDTAB
  0
TABLE
  2
LTYPE
  5
34C7A
330
0
100
AcDbSymbolTable
 70
     3
  0
LTYPE
  5
34C88
330
34C7A
100
AcDbSymbolTableRecord
100
AcDbLinetypeTableRecord
  2
BYBLOCK
 70
     0
  3

 72
    65
 73
     0
 40
0.0
  0
LTYPE
  5
34C89
330
34C7A
100
AcDbSymbolTableRecord
100
AcDbLinetypeTableRecord
  2
BYLAYER
 70
     0
  3

 72
    65
 73
     0
 40
0.0
  0
LTYPE
  5
34C8A
330
34C7A
100
AcDbSymbolTableRecord
100
AcDbLinetypeTableRecord
  2
CONTINUOUS
 70
     0
  3
Solid Line
 72
    65
 73
     0
 40
0.0
  0
LTYPE
  5
34CA3
330
34C7A
100
AcDbSymbolTableRecord
100
AcDbLinetypeTableRecord
  2
DRAW
 70
     0
  3
 on template _________________________________
 72
    65
 73
     2
 40
1.25
 49
1.25
 74
     0
 49
0.0
 74
     0
  0
LTYPE
  5
34CA4
330
34C7A
100
AcDbSymbolTableRecord
100
AcDbLinetypeTableRecord
  2
EUROPEANCUT
 70
     0
  3
 on template _________________________________
 72
    65
 73
     2
 40
1.25
 49
1.25
 74
     0
 49
0.0
 74
     0
  0
ENDTAB
  0
TABLE
  2
LAYER
  5
34C77
330
0
100
AcDbSymbolTable
 70
     5
  0
LAYER
  5
34C85
330
34C77
100
AcDbSymbolTableRecord
100
AcDbLayerTableRecord
  2
0
 70
     0
 62
     7
  6
CONTINUOUS
  0
LAYER
  5
34CA5
330
34C77
100
AcDbSymbolTableRecord
100
AcDbLayerTableRecord
  2
1
 70
     0
 62
     7
  6
CONTINUOUS
  0
LAYER
  5
34CA6
330
34C77
100
AcDbSymbolTableRecord
100
AcDbLayerTableRecord
  2
CUTOUT_TEMPLATE
 70
     0
 62
     7
  6
CONTINUOUS
  0
LAYER
  5
34CA7
330
34C77
100
AcDbSymbolTableRecord
100
AcDbLayerTableRecord
  2
DEFPOINTS
 70
     0
 62
     7
  6
CONTINUOUS
  0
LAYER
  5
34CA8
330
34C77
100
AcDbSymbolTableRecord
100
AcDbLayerTableRecord
  2
TITLE_BLOCK
 70
     0
 62
     7
  6
CONTINUOUS
  0
ENDTAB
  0
TABLE
  2
STYLE
  5
34C78
330
0
100
AcDbSymbolTable
 70
     1
  0
STYLE
  5
34C86
330
34C78
100
AcDbSymbolTableRecord
100
AcDbTextStyleTableRecord
  2
STANDARD
 70
     0
 40
0.0
 41
1.0
 50
0.0
 71
     0
 42
1.0
  3
TXT.SHX
  4

  0
ENDTAB
  0
TABLE
  2
VIEW
  5
34C7B
330
0
100
AcDbSymbolTable
 70
     0
  0
ENDTAB
  0
TABLE
  2
UCS
  5
34C7C
330
0
100
AcDbSymbolTable
 70
     0
  0
ENDTAB
  0
TABLE
  2
APPID
  5
34C7E
330
0
100
AcDbSymbolTable
 70
    21
  0
APPID
  5
34C87
330
34C7E
100
AcDbSymbolTableRecord
100
AcDbRegAppTableRecord
  2
ACAD
 70
     0
  0
APPID
  5
34CA9
330
34C7E
100
AcDbSymbolTableRecord
100
AcDbRegAppTableRecord
  2
ACAD_DSTYLE_DIM_EXT1_LINET
 70
     0
  0
APPID
  5
34CAA
330
34C7E
100
AcDbSymbolTableRecord
100
AcDbRegAppTableRecord
  2
ACAD_DSTYLE_DIM_EXT2_LINET
 70
     0
  0
APPID
  5
34CAB
330
34C7E
100
AcDbSymbolTableRecord
100
AcDbRegAppTableRecord
  2
ACAD_DSTYLE_DIM_LINETYPE
 70
     0
  0
APPID
  5
34CAC
330
34C7E
100
AcDbSymbolTableRecord
100
AcDbRegAppTableRecord
  2
ACAD_DSTYLE_DIMARC_LENGTH_
 70
     0
  0
APPID
  5
34CAD
330
34C7E
100
AcDbSymbolTableRecord
100
AcDbRegAppTableRecord
  2
ACAD_DSTYLE_DIMEXT_ENABLED
 70
     0
  0
APPID
  5
34CAE
330
34C7E
100
AcDbSymbolTableRecord
100
AcDbRegAppTableRecord
  2
ACAD_DSTYLE_DIMEXT_LENGTH
 70
     0
  0
APPID
  5
34CAF
330
34C7E
100
AcDbSymbolTableRecord
100
AcDbRegAppTableRecord
  2
ACAD_DSTYLE_DIMJOGGED_JOGA
 70
     0
  0
APPID
  5
34CB0
330
34C7E
100
AcDbSymbolTableRecord
100
AcDbRegAppTableRecord
  2
ACAD_DSTYLE_DIMTEXT_FILL
 70
     0
  0
APPID
  5
34CB1
330
34C7E
100
AcDbSymbolTableRecord
100
AcDbRegAppTableRecord
  2
ACAD_EXEMPT_FROM_CAD_STAND
 70
     0
  0
APPID
  5
34CB2
330
34C7E
100
AcDbSymbolTableRecord
100
AcDbRegAppTableRecord
  2
ACAD_MLEADERVER
 70
     0
  0
APPID
  5
34CB3
330
34C7E
100
AcDbSymbolTableRecord
100
AcDbRegAppTableRecord
  2
ACAD_PSEXT
 70
     0
  0
APPID
  5
34CB4
330
34C7E
100
AcDbSymbolTableRecord
100
AcDbRegAppTableRecord
  2
ACADANNOTATIVE
 70
     0
  0
APPID
  5
34CB5
330
34C7E
100
AcDbSymbolTableRecord
100
AcDbRegAppTableRecord
  2
ACAECLAYERSTANDARD
 70
     0
  0
APPID
  5
34CB6
330
34C7E
100
AcDbSymbolTableRecord
100
AcDbRegAppTableRecord
  2
ACAUTHENVIRON
 70
     0
  0
APPID
  5
34CB7
330
34C7E
100
AcDbSymbolTableRecord
100
AcDbRegAppTableRecord
  2
ACDBBLOCKREPETAG
 70
     0
  0
APPID
  5
34CB8
330
34C7E
100
AcDbSymbolTableRecord
100
AcDbRegAppTableRecord
  2
ACDBDYNAMICBLOCKGUID
 70
     0
  0
APPID
  5
34CB9
330
34C7E
100
AcDbSymbolTableRecord
100
AcDbRegAppTableRecord
  2
ACDBDYNAMICBLOCKTRUENAME
 70
     0
  0
APPID
  5
34CBA
330
34C7E
100
AcDbSymbolTableRecord
100
AcDbRegAppTableRecord
  2
ARROW_TEXT
 70
     0
  0
APPID
  5
34CBB
330
34C7E
100
AcDbSymbolTableRecord
100
AcDbRegAppTableRecord
  2
DCO15
 70
     0
  0
APPID
  5
34CBC
330
34C7E
100
AcDbSymbolTableRecord
100
AcDbRegAppTableRecord
  2
TCAD
 70
     0
  0
ENDTAB
  0
TABLE
  2
DIMSTYLE
  5
34C7F
330
0
100
AcDbSymbolTable
 70
     1
  0
DIMSTYLE
105
34C9B
330
34C7F
100
AcDbSymbolTableRecord
100
AcDbDimStyleTableRecord
  2
STANDARD
 70
     0
  3

  4

  5

  6

  7

 40
1.0
 41
0.18
 42
0.0625
 43
0.38
 44
0.18
 45
0.0
 46
0.0
 47
0.0
 48
0.0
140
0.18
141
0.09
142
0.0
143
25.4
144
1.0
145
0.0
146
1.0
147
0.09
 71
     0
 72
     0
 73
     1
 74
     1
 75
     0
 76
     0
 77
     0
 78
     0
170
     0
171
     2
172
     0
173
     0
174
     0
175
     0
176
     0
177
     0
178
     0
270
     2
271
     4
272
     4
273
     2
274
     2
340
34C86
275
     0
280
     0
281
     0
282
     0
283
     1
284
     0
285
     0
286
     0
287
     3
288
     0
  0
ENDTAB
  0
TABLE
  2
BLOCK_RECORD
  5
34C76
330
0
100
AcDbSymbolTable
 70
     2
  0
BLOCK_RECORD
  5
34C93
330
34C76
100
AcDbSymbolTableRecord
100
AcDbBlockTableRecord
  2
*MODEL_SPACE
  0
BLOCK_RECORD
  5
34C8F
330
34C76
100
AcDbSymbolTableRecord
100
AcDbBlockTableRecord
  2
*PAPER_SPACE
  0
BLOCK_RECORD
  5
34CA0
330
34C76
100
AcDbSymbolTableRecord
100
AcDbBlockTableRecord
  2
ARROW
  0
ENDTAB
  0
ENDSEC
  0
SECTION
  2
BLOCKS
  0
BLOCK
  5
34C94
330
34C93
100
AcDbEntity
  8
0
100
AcDbBlockBegin
  2
*MODEL_SPACE
 70
     0
 71
     0
 10
0.0
 20
0.0
 30
0.0
  3
*MODEL_SPACE
  1

  0
ENDBLK
  5
34C95
330
34C93
100
AcDbEntity
  8
0
100
AcDbBlockEnd
  0
BLOCK
  5
34C90
330
34C8F
100
AcDbEntity
 67
     1
  8
0
100
AcDbBlockBegin
  2
*PAPER_SPACE
 70
     0
 71
     0
 10
0.0
 20
0.0
 30
0.0
  3
*PAPER_SPACE
  1

  0
ENDBLK
  5
34C91
330
34C8F
100
AcDbEntity
 67
     1
  8
0
100
AcDbBlockEnd
  0
BLOCK
  5
34CA1
330
34CA0
100
AcDbEntity
  8
0
100
AcDbBlockBegin
  2
ARROW
 70
     0
 71
     0
 10
0.0
 20
0.0
 30
0.0
  3
ARROW
  1

  0
SOLID
  5
1A33D
330
34CA0
100
AcDbEntity
  8
0
  6
CONTINUOUS
 62
     0
100
AcDbTrace
 10
-1.0
 20
0.176
 30
0.0
 11
-1.0
 21
-0.176
 31
0.0
 12
0.0
 22
0.0
 32
0.0
 13
0.0
 23
0.0
 33
0.0
  0
ENDBLK
  5
34CA2
330
34CA0
100
AcDbEntity
  8
0
100
AcDbBlockEnd
  0
ENDSEC
  0
SECTION
  2
ENTITIES
  0
LINE
  5
19CFE
330
34C93
100
AcDbEntity
  8
TITLE_BLOCK
  6
CONTINUOUS
 62
     7
100
AcDbLine
 10
-27.5
 20
17.0
 30
0.0
 11
-27.5
 21
-25.5
 31
0.0
  0
LINE
  5
19CFF
330
34C93
100
AcDbEntity
  8
TITLE_BLOCK
  6
CONTINUOUS
 62
     7
100
AcDbLine
 10
-27.5
 20
-25.5
 30
0.0
 11
27.5
 21
-25.5
 31
0.0
  0
LINE
  5
19D00
330
34C93
100
AcDbEntity
  8
TITLE_BLOCK
  6
CONTINUOUS
 62
     7
100
AcDbLine
 10
27.5
 20
-25.5
 30
0.0
 11
27.5
 21
17.0
 31
0.0
  0
LINE
  5
19D01
330
34C93
100
AcDbEntity
  8
TITLE_BLOCK
  6
CONTINUOUS
 62
     7
100
AcDbLine
 10
27.5
 20
17.0
 30
0.0
 11
-27.5
 21
17.0
 31
0.0
  0
LINE
  5
19D02
330
34C93
100
AcDbEntity
  8
TITLE_BLOCK
  6
CONTINUOUS
 62
     7
100
AcDbLine
 10
-27.5
 20
-17.0
 30
0.0
 11
27.5
 21
-17.0
 31
0.0
  0
LINE
  5
19D03
330
34C93
100
AcDbEntity
  8
TITLE_BLOCK
  6
CONTINUOUS
 62
     7
100
AcDbLine
 10
-27.0
 20
16.5
 30
0.0
 11
-27.0
 21
-16.5
 31
0.0
  0
LINE
  5
19D04
330
34C93
100
AcDbEntity
  8
TITLE_BLOCK
  6
CONTINUOUS
 62
     7
100
AcDbLine
 10
27.0
 20
16.5
 30
0.0
 11
-27.0
 21
16.5
 31
0.0
  0
LINE
  5
19D05
330
34C93
100
AcDbEntity
  8
TITLE_BLOCK
  6
CONTINUOUS
 62
     7
100
AcDbLine
 10
-27.0
 20
-16.5
 30
0.0
 11
27.0
 21
-16.5
 31
0.0
  0
LINE
  5
19D06
330
34C93
100
AcDbEntity
  8
TITLE_BLOCK
  6
CONTINUOUS
 62
     7
100
AcDbLine
 10
-27.0
 20
-17.5
 30
0.0
 11
-9.62
 21
-17.5
 31
0.0
  0
LINE
  5
19D07
330
34C93
100
AcDbEntity
  8
TITLE_BLOCK
  6
CONTINUOUS
 62
     7
100
AcDbLine
 10
-27.0
 20
-25.0
 30
0.0
 11
-9.62
 21
-25.0
 31
0.0
  0
LINE
  5
19D08
330
34C93
100
AcDbEntity
  8
TITLE_BLOCK
  6
CONTINUOUS
 62
     7
100
AcDbLine
 10
27.0
 20
-16.5
 30
0.0
 11
27.0
 21
16.5
 31
0.0
  0
LINE
  5
19D09
330
34C93
100
AcDbEntity
  8
TITLE_BLOCK
  6
CONTINUOUS
 62
     7
100
AcDbLine
 10
-27.0
 20
-17.5
 30
0.0
 11
-27.0
 21
-25.0
 31
0.0
  0
LINE
  5
19D0A
330
34C93
100
AcDbEntity
  8
TITLE_BLOCK
  6
CONTINUOUS
 62
     7
100
AcDbLine
 10
27.0
 20
-25.0
 30
0.0
 11
27.0
 21
-17.5
 31
0.0
  0
POLYLINE
  5
19D0B
330
34C93
100
AcDbEntity
  8
TITLE_BLOCK
  6
CONTINUOUS
 62
     7
100
AcDb2dPolyline
 66
     1
 10
0.0
 20
0.0
 30
0.0
 70
     5
 75
     5
  0
VERTEX
  5
34CBE
330
19D0B
100
AcDbEntity
  8
TITLE_BLOCK
  6
CONTINUOUS
 62
     7
100
AcDbVertex
100
AcDb2dVertex
 10
-22.714945
 20
-19.623364
 30
0.0
 70
     8
  0
VERTEX
  5
34CBF
330
19D0B
100
AcDbEntity
  8
TITLE_BLOCK
  6
CONTINUOUS
 62
     7
100
AcDbVertex
100
AcDb2dVertex
 10
-22.12179
 20
-19.286717
 30
0.0
 70
     8
  0
VERTEX
  5
34CC0
330
19D0B
100
AcDbEntity
  8
TITLE_BLOCK
  6
CONTINUOUS
 62
     7
100
AcDbVertex
100
AcDb2dVertex
 10
-21.502943
 20
-19.000248
 30
0.0
 70
     8
  0
VERTEX
  5
34CC1
330
19D0B
100
AcDbEntity
  8
TITLE_BLOCK
  6
CONTINUOUS
 62
     7
100
AcDbVertex
100
AcDb2dVertex
 10
-20.862787
 20
-18.765127
 30
0.0
 70
     8
  0
VERTEX
  5
34CC2
330
19D0B
100
AcDbEntity
  8
TITLE_BLOCK
  6
CONTINUOUS
 62
     7
100
AcDbVertex
100
AcDb2dVertex
 10
-20.205704
 20
-18.582519
 30
0.0
 70
     8
  0
VERTEX
  5
34CC3
330
19D0B
100
AcDbEntity
  8
TITLE_BLOCK
  6
CONTINUOUS
 62
     7
100
AcDbVertex
100
AcDb2dVertex
 10
-19.536078
 20
-18.453592
 30
0.0
 70
     8
  0
VERTEX
  5
34CC4
330
19D0B
100
AcDbEntity
  8
TITLE_BLOCK
  6
CONTINUOUS
 62
     7
100
AcDbVertex
100
AcDb2dVertex
 10
-18.858291
 20
-18.379514
 30
0.0
 70
     8
  0
VERTEX
  5
34CC5
330
19D0B
100
AcDbEntity
  8
TITLE_BLOCK
  6
CONTINUOUS
 62
     7
100
AcDbVertex
100
AcDb2dVertex
 10
-18.176725
 20
-18.361451
 30
0.0
 70
     8
  0
VERTEX
  5
34CC6
330
19D0B
100
AcDbEntity
  8
TITLE_BLOCK
  6
CONTINUOUS
 62
     7
100
AcDbVertex
100
AcDb2dVertex
 10
-17.495765
 20
-18.400571
 30
0.0
 70
     8
  0
VERTEX
  5
34CC7
330
19D0B
100
AcDbEntity
  8
TITLE_BLOCK
  6
CONTINUOUS
 62
     7
100
AcDbVertex
100
AcDb2dVertex
 10
-16.724623
 20
-18.508402
 30
0.0
 70
     8
  0
VERTEX
  5
34CC8
330
19D0B
100
AcDbEntity
  8
TITLE_BLOCK
  6
CONTINUOUS
 62
     7
100
AcDbVertex
100
AcDb2dVertex
 10
-15.968325
 20
-18.68976
 30
0.0
 70
     8
  0
VERTEX
  5
34CC9
330
19D0B
100
AcDbEntity
  8
TITLE_BLOCK
  6
CONTINUOUS
 62
     7
100
AcDbVertex
100
AcDb2dVertex
 10
-15.232405
 20
-18.941149
 30
0.0
 70
     8
  0
VERTEX
  5
34CCA
330
19D0B
100
AcDbEntity
  8
TITLE_BLOCK
  6
CONTINUOUS
 62
     7
100
AcDbVertex
100
AcDb2dVertex
 10
-14.522396
 20
-19.259072
 30
0.0
 70
     8
  0
VERTEX
  5
34CCB
330
19D0B
100
AcDbEntity
  8
TITLE_BLOCK
  6
CONTINUOUS
 62
     7
100
AcDbVertex
100
AcDb2dVertex
 10
-13.843834
 20
-19.640032
 30
0.0
 70
     8
  0
VERTEX
  5
34CCC
330
19D0B
100
AcDbEntity
  8
TITLE_BLOCK
  6
CONTINUOUS
 62
     7
100
AcDbVertex
100
AcDb2dVertex
 10
-13.202253
 20
-20.080534
 30
0.0
 70
     8
  0
VERTEX
  5
34CCD
330
19D0B
100
AcDbEntity
  8
TITLE_BLOCK
  6
CONTINUOUS
 62
     7
100
AcDbVertex
100
AcDb2dVertex
 10
-12.603188
 20
-20.577081
 30
0.0
 70
     8
  0
VERTEX
  5
34CCE
330
19D0B
100
AcDbEntity
  8
TITLE_BLOCK
  6
CONTINUOUS
 62
     7
100
AcDbVertex
100
AcDb2dVertex
 10
-12.052172
 20
-21.126176
 30
0.0
 70
     8
  0
VERTEX
  5
34CCF
330
19D0B
100
AcDbEntity
  8
TITLE_BLOCK
  6
CONTINUOUS
 62
     7
100
AcDbVertex
100
AcDb2dVertex
 10
-11.525129
 20
-21.755985
 30
0.0
 70
     8
  0
VERTEX
  5
34CD0
330
19D0B
100
AcDbEntity
  8
TITLE_BLOCK
  6
CONTINUOUS
 62
     7
100
AcDbVertex
100
AcDb2dVertex
 10
-11.060013
 20
-22.432932
 30
0.0
 70
     8
  0
VERTEX
  5
34CD1
330
19D0B
100
AcDbEntity
  8
TITLE_BLOCK
  6
CONTINUOUS
 62
     7
100
AcDbVertex
100
AcDb2dVertex
 10
-10.661269
 20
-23.150904
 30
0.0
 70
     8
  0
VERTEX
  5
34CD2
330
19D0B
100
AcDbEntity
  8
TITLE_BLOCK
  6
CONTINUOUS
 62
     7
100
AcDbVertex
100
AcDb2dVertex
 10
-10.333343
 20
-23.903793
 30
0.0
 70
     8
  0
VERTEX
  5
34CD3
330
19D0B
100
AcDbEntity
  8
TITLE_BLOCK
  6
CONTINUOUS
 62
     7
100
AcDbVertex
100
AcDb2dVertex
 10
-10.360531
 20
-23.906957
 30
0.0
 70
     8
  0
VERTEX
  5
34CD4
330
19D0B
100
AcDbEntity
  8
TITLE_BLOCK
  6
CONTINUOUS
 62
     7
100
AcDbVertex
100
AcDb2dVertex
 10
-10.756699
 20
-23.069782
 30
0.0
 70
     8
  0
VERTEX
  5
34CD5
330
19D0B
100
AcDbEntity
  8
TITLE_BLOCK
  6
CONTINUOUS
 62
     7
100
AcDbVertex
100
AcDb2dVertex
 10
-11.235404
 20
-22.276818
 30
0.0
 70
     8
  0
VERTEX
  5
34CD6
330
19D0B
100
AcDbEntity
  8
TITLE_BLOCK
  6
CONTINUOUS
 62
     7
100
AcDbVertex
100
AcDb2dVertex
 10
-11.795774
 20
-21.540027
 30
0.0
 70
     8
  0
VERTEX
  5
34CD7
330
19D0B
100
AcDbEntity
  8
TITLE_BLOCK
  6
CONTINUOUS
 62
     7
100
AcDbVertex
100
AcDb2dVertex
 10
-12.436937
 20
-20.871372
 30
0.0
 70
     8
  0
VERTEX
  5
34CD8
330
19D0B
100
AcDbEntity
  8
TITLE_BLOCK
  6
CONTINUOUS
 62
     7
100
AcDbVertex
100
AcDb2dVertex
 10
-13.035497
 20
-20.352562
 30
0.0
 70
     8
  0
VERTEX
  5
34CD9
330
19D0B
100
AcDbEntity
  8
TITLE_BLOCK
  6
CONTINUOUS
 62
     7
100
AcDbVertex
100
AcDb2dVertex
 10
-13.68061
 20
-19.893471
 30
0.0
 70
     8
  0
VERTEX
  5
34CDA
330
19D0B
100
AcDbEntity
  8
TITLE_BLOCK
  6
CONTINUOUS
 62
     7
100
AcDbVertex
100
AcDb2dVertex
 10
-14.365921
 20
-19.496705
 30
0.0
 70
     8
  0
VERTEX
  5
34CDB
330
19D0B
100
AcDbEntity
  8
TITLE_BLOCK
  6
CONTINUOUS
 62
     7
100
AcDbVertex
100
AcDb2dVertex
 10
-15.085072
 20
-19.16487
 30
0.0
 70
     8
  0
VERTEX
  5
34CDC
330
19D0B
100
AcDbEntity
  8
TITLE_BLOCK
  6
CONTINUOUS
 62
     7
100
AcDbVertex
100
AcDb2dVertex
 10
-15.831707
 20
-18.900573
 30
0.0
 70
     8
  0
VERTEX
  5
34CDD
330
19D0B
100
AcDbEntity
  8
TITLE_BLOCK
  6
CONTINUOUS
 62
     7
100
AcDbVertex
100
AcDb2dVertex
 10
-16.59947
 20
-18.706419
 30
0.0
 70
     8
  0
VERTEX
  5
34CDE
330
19D0B
100
AcDbEntity
  8
TITLE_BLOCK
  6
CONTINUOUS
 62
     7
100
AcDbVertex
100
AcDb2dVertex
 10
-17.382004
 20
-18.585016
 30
0.0
 70
     8
  0
VERTEX
  5
34CDF
330
19D0B
100
AcDbEntity
  8
TITLE_BLOCK
  6
CONTINUOUS
 62
     7
100
AcDbVertex
100
AcDb2dVertex
 10
-18.172953
 20
-18.538969
 30
0.0
 70
     8
  0
VERTEX
  5
34CE0
330
19D0B
100
AcDbEntity
  8
TITLE_BLOCK
  6
CONTINUOUS
 62
     7
100
AcDbVertex
100
AcDb2dVertex
 10
-19.010169
 20
-18.567702
 30
0.0
 70
     8
  0
VERTEX
  5
34CE1
330
19D0B
100
AcDbEntity
  8
TITLE_BLOCK
  6
CONTINUOUS
 62
     7
100
AcDbVertex
100
AcDb2dVertex
 10
-19.840558
 20
-18.67852
 30
0.0
 70
     8
  0
VERTEX
  5
34CE2
330
19D0B
100
AcDbEntity
  8
TITLE_BLOCK
  6
CONTINUOUS
 62
     7
100
AcDbVertex
100
AcDb2dVertex
 10
-20.655943
 20
-18.870564
 30
0.0
 70
     8
  0
VERTEX
  5
34CE3
330
19D0B
100
AcDbEntity
  8
TITLE_BLOCK
  6
CONTINUOUS
 62
     7
100
AcDbVertex
100
AcDb2dVertex
 10
-21.448148
 20
-19.142973
 30
0.0
 70
     8
  0
VERTEX
  5
34CE4
330
19D0B
100
AcDbEntity
  8
TITLE_BLOCK
  6
CONTINUOUS
 62
     7
100
AcDbVertex
100
AcDb2dVertex
 10
-22.132945
 20
-19.450879
 30
0.0
 70
     8
  0
VERTEX
  5
34CE5
330
19D0B
100
AcDbEntity
  8
TITLE_BLOCK
  6
CONTINUOUS
 62
     7
100
AcDbVertex
100
AcDb2dVertex
 10
-22.787328
 20
-19.818583
 30
0.0
 70
     8
  0
VERTEX
  5
34CE6
330
19D0B
100
AcDbEntity
  8
TITLE_BLOCK
  6
CONTINUOUS
 62
     7
100
AcDbVertex
100
AcDb2dVertex
 10
-23.406947
 20
-20.24232
 30
0.0
 70
     8
  0
VERTEX
  5
34CE7
330
19D0B
100
AcDbEntity
  8
TITLE_BLOCK
  6
CONTINUOUS
 62
     7
100
AcDbVertex
100
AcDb2dVertex
 10
-23.987452
 20
-20.718327
 30
0.0
 70
     8
  0
VERTEX
  5
34CE8
330
19D0B
100
AcDbEntity
  8
TITLE_BLOCK
  6
CONTINUOUS
 62
     7
100
AcDbVertex
100
AcDb2dVertex
 10
-24.524495
 20
-21.242839
 30
0.0
 70
     8
  0
VERTEX
  5
34CE9
330
19D0B
100
AcDbEntity
  8
TITLE_BLOCK
  6
CONTINUOUS
 62
     7
100
AcDbVertex
100
AcDb2dVertex
 10
-25.013725
 20
-21.812093
 30
0.0
 70
     8
  0
VERTEX
  5
34CEA
330
19D0B
100
AcDbEntity
  8
TITLE_BLOCK
  6
CONTINUOUS
 62
     7
100
AcDbVertex
100
AcDb2dVertex
 10
-25.450794
 20
-22.422325
 30
0.0
 70
     8
  0
VERTEX
  5
34CEB
330
19D0B
100
AcDbEntity
  8
TITLE_BLOCK
  6
CONTINUOUS
 62
     7
100
AcDbVertex
100
AcDb2dVertex
 10
-25.831351
 20
-23.06977
 30
0.0
 70
     8
  0
VERTEX
  5
34CEC
330
19D0B
100
AcDbEntity
  8
TITLE_BLOCK
  6
CONTINUOUS
 62
     7
100
AcDbVertex
100
AcDb2dVertex
 10
-26.218558
 20
-23.893364
 30
0.0
 70
     8
  0
VERTEX
  5
34CED
330
19D0B
100
AcDbEntity
  8
TITLE_BLOCK
  6
CONTINUOUS
 62
     7
100
AcDbVertex
100
AcDb2dVertex
 10
-26.2043
 20
-23.767163
 30
0.0
 70
     8
  0
VERTEX
  5
34CEE
330
19D0B
100
AcDbEntity
  8
TITLE_BLOCK
  6
CONTINUOUS
 62
     7
100
AcDbVertex
100
AcDb2dVertex
 10
-26.154945
 20
-23.648168
 30
0.0
 70
     8
  0
VERTEX
  5
34CEF
330
19D0B
100
AcDbEntity
  8
TITLE_BLOCK
  6
CONTINUOUS
 62
     7
100
AcDbVertex
100
AcDb2dVertex
 10
-25.870867
 20
-23.038607
 30
0.0
 70
     8
  0
VERTEX
  5
34CF0
330
19D0B
100
AcDbEntity
  8
TITLE_BLOCK
  6
CONTINUOUS
 62
     7
100
AcDbVertex
100
AcDb2dVertex
 10
-25.540164
 20
-22.453137
 30
0.0
 70
     8
  0
VERTEX
  5
34CF1
330
19D0B
100
AcDbEntity
  8
TITLE_BLOCK
  6
CONTINUOUS
 62
     7
100
AcDbVertex
100
AcDb2dVertex
 10
-25.165304
 20
-21.89492
 30
0.0
 70
     8
  0
VERTEX
  5
34CF2
330
19D0B
100
AcDbEntity
  8
TITLE_BLOCK
  6
CONTINUOUS
 62
     7
100
AcDbVertex
100
AcDb2dVertex
 10
-24.748751
 20
-21.367121
 30
0.0
 70
     8
  0
VERTEX
  5
34CF3
330
19D0B
100
AcDbEntity
  8
TITLE_BLOCK
  6
CONTINUOUS
 62
     7
100
AcDbVertex
100
AcDb2dVertex
 10
-24.292973
 20
-20.872902
 30
0.0
 70
     8
  0
VERTEX
  5
34CF4
330
19D0B
100
AcDbEntity
  8
TITLE_BLOCK
  6
CONTINUOUS
 62
     7
100
AcDbVertex
100
AcDb2dVertex
 10
-23.800435
 20
-20.415428
 30
0.0
 70
     8
  0
VERTEX
  5
34CF5
330
19D0B
100
AcDbEntity
  8
TITLE_BLOCK
  6
CONTINUOUS
 62
     7
100
AcDbVertex
100
AcDb2dVertex
 10
-23.273603
 20
-19.99786
 30
0.0
 70
     8
  0
VERTEX
  5
34CF6
330
19D0B
100
AcDbEntity
  8
TITLE_BLOCK
  6
CONTINUOUS
 62
     7
100
AcDbVertex
100
AcDb2dVertex
 10
-22.714945
 20
-19.623364
 30
0.0
 70
     8
  0
VERTEX
  5
34CF7
330
19D0B
100
AcDbEntity
  8
TITLE_BLOCK
  6
CONTINUOUS
 62
     7
100
AcDbVertex
100
AcDb2dVertex
 10
-22.714945
 20
-19.623364
 30
0.0
 70
     8
  0
VERTEX
  5
34CF8
330
19D0B
100
AcDbEntity
  8
TITLE_BLOCK
  6
CONTINUOUS
 62
     7
100
AcDbVertex
100
AcDb2dVertex
 10
-22.714945
 20
-19.623364
 30
0.0
 70
    16
  0
VERTEX
  5
34CF9
330
19D0B
100
AcDbEntity
  8
TITLE_BLOCK
  6
CONTINUOUS
 62
     7
100
AcDbVertex
100
AcDb2dVertex
 10
-21.171351
 20
-18.65977
 30
0.0
 70
    16
  0
VERTEX
  5
34CFA
330
19D0B
100
AcDbEntity
  8
TITLE_BLOCK
  6
CONTINUOUS
 62
     7
100
AcDbVertex
100
AcDb2dVertex
 10
-19.306957
 20
-18.218969
 30
0.0
 70
    16
  0
VERTEX
  5
34CFB
330
19D0B
100
AcDbEntity
  8
TITLE_BLOCK
  6
CONTINUOUS
 62
     7
100
AcDbVertex
100
AcDb2dVertex
 10
-17.495765
 20
-18.400571
 30
0.0
 70
    16
  0
VERTEX
  5
34CFC
330
19D0B
100
AcDbEntity
  8
TITLE_BLOCK
  6
CONTINUOUS
 62
     7
100
AcDbVertex
100
AcDb2dVertex
 10
-15.424515
 20
-18.586977
 30
0.0
 70
    16
  0
VERTEX
  5
34CFD
330
19D0B
100
AcDbEntity
  8
TITLE_BLOCK
  6
CONTINUOUS
 62
     7
100
AcDbVertex
100
AcDb2dVertex
 10
-13.452562
 20
-19.594965
 30
0.0
 70
    16
  0
VERTEX
  5
34CFE
330
19D0B
100
AcDbEntity
  8
TITLE_BLOCK
  6
CONTINUOUS
 62
     7
100
AcDbVertex
100
AcDb2dVertex
 10
-12.052172
 20
-21.126176
 30
0.0
 70
    16
  0
VERTEX
  5
34CFF
330
19D0B
100
AcDbEntity
  8
TITLE_BLOCK
  6
CONTINUOUS
 62
     7
100
AcDbVertex
100
AcDb2dVertex
 10
-11.31014
 20
-21.931782
 30
0.0
 70
    16
  0
VERTEX
  5
34D00
330
19D0B
100
AcDbEntity
  8
TITLE_BLOCK
  6
CONTINUOUS
 62
     7
100
AcDbVertex
100
AcDb2dVertex
 10
-10.72139
 20
-22.879379
 30
0.0
 70
    16
  0
VERTEX
  5
34D01
330
19D0B
100
AcDbEntity
  8
TITLE_BLOCK
  6
CONTINUOUS
 62
     7
100
AcDbVertex
100
AcDb2dVertex
 10
-10.333343
 20
-23.903793
 30
0.0
 70
    16
  0
VERTEX
  5
34D02
330
19D0B
100
AcDbEntity
  8
TITLE_BLOCK
  6
CONTINUOUS
 62
     7
100
AcDbVertex
100
AcDb2dVertex
 10
-10.34014
 20
-23.904575
 30
0.0
 70
    16
  0
VERTEX
  5
34D03
330
19D0B
100
AcDbEntity
  8
TITLE_BLOCK
  6
CONTINUOUS
 62
     7
100
AcDbVertex
100
AcDb2dVertex
 10
-10.353734
 20
-23.906176
 30
0.0
 70
    16
  0
VERTEX
  5
34D04
330
19D0B
100
AcDbEntity
  8
TITLE_BLOCK
  6
CONTINUOUS
 62
     7
100
AcDbVertex
100
AcDb2dVertex
 10
-10.360531
 20
-23.906957
 30
0.0
 70
    16
  0
VERTEX
  5
34D05
330
19D0B
100
AcDbEntity
  8
TITLE_BLOCK
  6
CONTINUOUS
 62
     7
100
AcDbVertex
100
AcDb2dVertex
 10
-10.833343
 20
-22.766567
 30
0.0
 70
    16
  0
VERTEX
  5
34D06
330
19D0B
100
AcDbEntity
  8
TITLE_BLOCK
  6
CONTINUOUS
 62
     7
100
AcDbVertex
100
AcDb2dVertex
 10
-11.528578
 20
-21.712172
 30
0.0
 70
    16
  0
VERTEX
  5
34D07
330
19D0B
100
AcDbEntity
  8
TITLE_BLOCK
  6
CONTINUOUS
 62
     7
100
AcDbVertex
100
AcDb2dVertex
 10
-12.436937
 20
-20.871372
 30
0.0
 70
    16
  0
VERTEX
  5
34D08
330
19D0B
100
AcDbEntity
  8
TITLE_BLOCK
  6
CONTINUOUS
 62
     7
100
AcDbVertex
100
AcDb2dVertex
 10
-13.965375
 20
-19.410571
 30
0.0
 70
    16
  0
VERTEX
  5
34D09
330
19D0B
100
AcDbEntity
  8
TITLE_BLOCK
  6
CONTINUOUS
 62
     7
100
AcDbVertex
100
AcDb2dVertex
 10
-16.058187
 20
-18.558969
 30
0.0
 70
    16
  0
VERTEX
  5
34D0A
330
19D0B
100
AcDbEntity
  8
TITLE_BLOCK
  6
CONTINUOUS
 62
     7
100
AcDbVertex
100
AcDb2dVertex
 10
-18.172953
 20
-18.538969
 30
0.0
 70
    16
  0
VERTEX
  5
34D0B
330
19D0B
100
AcDbEntity
  8
TITLE_BLOCK
  6
CONTINUOUS
 62
     7
100
AcDbVertex
100
AcDb2dVertex
 10
-19.29016
 20
-18.522172
 30
0.0
 70
    16
  0
VERTEX
  5
34D0C
330
19D0B
100
AcDbEntity
  8
TITLE_BLOCK
  6
CONTINUOUS
 62
     7
100
AcDbVertex
100
AcDb2dVertex
 10
-20.410961
 20
-18.726567
 30
0.0
 70
    16
  0
VERTEX
  5
34D0D
330
19D0B
100
AcDbEntity
  8
TITLE_BLOCK
  6
CONTINUOUS
 62
     7
100
AcDbVertex
100
AcDb2dVertex
 10
-21.448148
 20
-19.142973
 30
0.0
 70
    16
  0
VERTEX
  5
34D0E
330
19D0B
100
AcDbEntity
  8
TITLE_BLOCK
  6
CONTINUOUS
 62
     7
100
AcDbVertex
100
AcDb2dVertex
 10
-23.310961
 20
-19.880981
 30
0.0
 70
    16
  0
VERTEX
  5
34D0F
330
19D0B
100
AcDbEntity
  8
TITLE_BLOCK
  6
CONTINUOUS
 62
     7
100
AcDbVertex
100
AcDb2dVertex
 10
-24.895746
 20
-21.296977
 30
0.0
 70
    16
  0
VERTEX
  5
34D10
330
19D0B
100
AcDbEntity
  8
TITLE_BLOCK
  6
CONTINUOUS
 62
     7
100
AcDbVertex
100
AcDb2dVertex
 10
-25.831351
 20
-23.06977
 30
0.0
 70
    16
  0
VERTEX
  5
34D11
330
19D0B
100
AcDbEntity
  8
TITLE_BLOCK
  6
CONTINUOUS
 62
     7
100
AcDbVertex
100
AcDb2dVertex
 10
-25.978949
 20
-23.335356
 30
0.0
 70
    16
  0
VERTEX
  5
34D12
330
19D0B
100
AcDbEntity
  8
TITLE_BLOCK
  6
CONTINUOUS
 62
     7
100
AcDbVertex
100
AcDb2dVertex
 10
-26.091761
 20
-23.617778
 30
0.0
 70
    16
  0
VERTEX
  5
34D13
330
19D0B
100
AcDbEntity
  8
TITLE_BLOCK
  6
CONTINUOUS
 62
     7
100
AcDbVertex
100
AcDb2dVertex
 10
-26.218558
 20
-23.893364
 30
0.0
 70
    16
  0
VERTEX
  5
34D14
330
19D0B
100
AcDbEntity
  8
TITLE_BLOCK
  6
CONTINUOUS
 62
     7
100
AcDbVertex
100
AcDb2dVertex
 10
-26.236547
 20
-23.805356
 30
0.0
 70
    16
  0
VERTEX
  5
34D15
330
19D0B
100
AcDbEntity
  8
TITLE_BLOCK
  6
CONTINUOUS
 62
     7
100
AcDbVertex
100
AcDb2dVertex
 10
-26.183754
 20
-23.726567
 30
0.0
 70
    16
  0
VERTEX
  5
34D16
330
19D0B
100
AcDbEntity
  8
TITLE_BLOCK
  6
CONTINUOUS
 62
     7
100
AcDbVertex
100
AcDb2dVertex
 10
-26.154945
 20
-23.648168
 30
0.0
 70
    16
  0
VERTEX
  5
34D17
330
19D0B
100
AcDbEntity
  8
TITLE_BLOCK
  6
CONTINUOUS
 62
     7
100
AcDbVertex
100
AcDb2dVertex
 10
-25.461761
 20
-21.993364
 30
0.0
 70
    16
  0
VERTEX
  5
34D18
330
19D0B
100
AcDbEntity
  8
TITLE_BLOCK
  6
CONTINUOUS
 62
     7
100
AcDbVertex
100
AcDb2dVertex
 10
-24.244945
 20
-20.561782
 30
0.0
 70
    16
  0
VERTEX
  5
34D19
330
19D0B
100
AcDbEntity
  8
TITLE_BLOCK
  6
CONTINUOUS
 62
     7
100
AcDbVertex
100
AcDb2dVertex
 10
-22.714945
 20
-19.623364
 30
0.0
 70
    16
  0
VERTEX
  5
34D1A
330
19D0B
100
AcDbEntity
  8
TITLE_BLOCK
  6
CONTINUOUS
 62
     7
100
AcDbVertex
100
AcDb2dVertex
 10
-22.714945
 20
-19.623364
 30
0.0
 70
    16
  0
VERTEX
  5
34D1B
330
19D0B
100
AcDbEntity
  8
TITLE_BLOCK
  6
CONTINUOUS
 62
     7
100
AcDbVertex
100
AcDb2dVertex
 10
-22.714945
 20
-19.623364
 30
0.0
 70
    16
  0
VERTEX
  5
34D1C
330
19D0B
100
AcDbEntity
  8
TITLE_BLOCK
  6
CONTINUOUS
 62
     7
100
AcDbVertex
100
AcDb2dVertex
 10
-22.714945
 20
-19.623364
 30
0.0
 70
    16
  0
SEQEND
  5
34D1D
330
19D0B
100
AcDbEntity
  8
TITLE_BLOCK
  6
CONTINUOUS
 62
     7
  0
POLYLINE
  5
19D6B
330
34C93
100
AcDbEntity
  8
TITLE_BLOCK
  6
CONTINUOUS
 62
     7
100
AcDb2dPolyline
 66
     1
 10
0.0
 20
0.0
 30
0.0
 70
     5
 75
     5
  0
VERTEX
  5
34D1E
330
19D6B
100
AcDbEntity
  8
TITLE_BLOCK
  6
CONTINUOUS
 62
     7
100
AcDbVertex
100
AcDb2dVertex
 10
-19.223617
 20
-19.314575
 30
0.0
 70
     8
  0
VERTEX
  5
34D1F
330
19D6B
100
AcDbEntity
  8
TITLE_BLOCK
  6
CONTINUOUS
 62
     7
100
AcDbVertex
100
AcDb2dVertex
 10
-18.929533
 20
-19.115321
 30
0.0
 70
     8
  0
VERTEX
  5
34D20
330
19D6B
100
AcDbEntity
  8
TITLE_BLOCK
  6
CONTINUOUS
 62
     7
100
AcDbVertex
100
AcDb2dVertex
 10
-18.776685
 20
-19.023096
 30
0.0
 70
     8
  0
VERTEX
  5
34D21
330
19D6B
100
AcDbEntity
  8
TITLE_BLOCK
  6
CONTINUOUS
 62
     7
100
AcDbVertex
100
AcDb2dVertex
 10
-18.619662
 20
-18.938825
 30
0.0
 70
     8
  0
VERTEX
  5
34D22
330
19D6B
100
AcDbEntity
  8
TITLE_BLOCK
  6
CONTINUOUS
 62
     7
100
AcDbVertex
100
AcDb2dVertex
 10
-18.458233
 20
-18.864772
 30
0.0
 70
     8
  0
VERTEX
  5
34D23
330
19D6B
100
AcDbEntity
  8
TITLE_BLOCK
  6
CONTINUOUS
 62
     7
100
AcDbVertex
100
AcDb2dVertex
 10
-18.292168
 20
-18.803202
 30
0.0
 70
     8
  0
VERTEX
  5
34D24
330
19D6B
100
AcDbEntity
  8
TITLE_BLOCK
  6
CONTINUOUS
 62
     7
100
AcDbVertex
100
AcDb2dVertex
 10
-18.12124
 20
-18.756379
 30
0.0
 70
     8
  0
VERTEX
  5
34D25
330
19D6B
100
AcDbEntity
  8
TITLE_BLOCK
  6
CONTINUOUS
 62
     7
100
AcDbVertex
100
AcDb2dVertex
 10
-17.945218
 20
-18.726567
 30
0.0
 70
     8
  0
VERTEX
  5
34D26
330
19D6B
100
AcDbEntity
  8
TITLE_BLOCK
  6
CONTINUOUS
 62
     7
100
AcDbVertex
100
AcDb2dVertex
 10
-17.66328
 20
-18.703474
 30
0.0
 70
     8
  0
VERTEX
  5
34D27
330
19D6B
100
AcDbEntity
  8
TITLE_BLOCK
  6
CONTINUOUS
 62
     7
100
AcDbVertex
100
AcDb2dVertex
 10
-17.522173
 20
-18.70497
 30
0.0
 70
     8
  0
VERTEX
  5
34D28
330
19D6B
100
AcDbEntity
  8
TITLE_BLOCK
  6
CONTINUOUS
 62
     7
100
AcDbVertex
100
AcDb2dVertex
 10
-17.382836
 20
-18.726567
 30
0.0
 70
     8
  0
VERTEX
  5
34D29
330
19D6B
100
AcDbEntity
  8
TITLE_BLOCK
  6
CONTINUOUS
 62
     7
100
AcDbVertex
100
AcDb2dVertex
 10
-17.327466
 20
-18.753977
 30
0.0
 70
     8
  0
VERTEX
  5
34D2A
330
19D6B
100
AcDbEntity
  8
TITLE_BLOCK
  6
CONTINUOUS
 62
     7
100
AcDbVertex
100
AcDb2dVertex
 10
-17.279115
 20
-18.791033
 30
0.0
 70
     8
  0
VERTEX
  5
34D2B
330
19D6B
100
AcDbEntity
  8
TITLE_BLOCK
  6
CONTINUOUS
 62
     7
100
AcDbVertex
100
AcDb2dVertex
 10
-17.238461
 20
-18.836131
 30
0.0
 70
     8
  0
VERTEX
  5
34D2C
330
19D6B
100
AcDbEntity
  8
TITLE_BLOCK
  6
CONTINUOUS
 62
     7
100
AcDbVertex
100
AcDb2dVertex
 10
-17.206185
 20
-18.88767
 30
0.0
 70
     8
  0
VERTEX
  5
34D2D
330
19D6B
100
AcDbEntity
  8
TITLE_BLOCK
  6
CONTINUOUS
 62
     7
100
AcDbVertex
100
AcDb2dVertex
 10
-17.182965
 20
-18.944047
 30
0.0
 70
     8
  0
VERTEX
  5
34D2E
330
19D6B
100
AcDbEntity
  8
TITLE_BLOCK
  6
CONTINUOUS
 62
     7
100
AcDbVertex
100
AcDb2dVertex
 10
-17.169481
 20
-19.003659
 30
0.0
 70
     8
  0
VERTEX
  5
34D2F
330
19D6B
100
AcDbEntity
  8
TITLE_BLOCK
  6
CONTINUOUS
 62
     7
100
AcDbVertex
100
AcDb2dVertex
 10
-17.166412
 20
-19.064903
 30
0.0
 70
     8
  0
VERTEX
  5
34D30
330
19D6B
100
AcDbEntity
  8
TITLE_BLOCK
  6
CONTINUOUS
 62
     7
100
AcDbVertex
100
AcDb2dVertex
 10
-17.174437
 20
-19.126176
 30
0.0
 70
     8
  0
VERTEX
  5
34D31
330
19D6B
100
AcDbEntity
  8
TITLE_BLOCK
  6
CONTINUOUS
 62
     7
100
AcDbVertex
100
AcDb2dVertex
 10
-17.206035
 20
-19.231586
 30
0.0
 70
     8
  0
VERTEX
  5
34D32
330
19D6B
100
AcDbEntity
  8
TITLE_BLOCK
  6
CONTINUOUS
 62
     7
100
AcDbVertex
100
AcDb2dVertex
 10
-17.25237
 20
-19.329566
 30
0.0
 70
     8
  0
VERTEX
  5
34D33
330
19D6B
100
AcDbEntity
  8
TITLE_BLOCK
  6
CONTINUOUS
 62
     7
100
AcDbVertex
100
AcDb2dVertex
 10
-17.311375
 20
-19.420339
 30
0.0
 70
     8
  0
VERTEX
  5
34D34
330
19D6B
100
AcDbEntity
  8
TITLE_BLOCK
  6
CONTINUOUS
 62
     7
100
AcDbVertex
100
AcDb2dVertex
 10
-17.38098
 20
-19.504123
 30
0.0
 70
     8
  0
VERTEX
  5
34D35
330
19D6B
100
AcDbEntity
  8
TITLE_BLOCK
  6
CONTINUOUS
 62
     7
100
AcDbVertex
100
AcDb2dVertex
 10
-17.459118
 20
-19.581139
 30
0.0
 70
     8
  0
VERTEX
  5
34D36
330
19D6B
100
AcDbEntity
  8
TITLE_BLOCK
  6
CONTINUOUS
 62
     7
100
AcDbVertex
100
AcDb2dVertex
 10
-17.543721
 20
-19.651606
 30
0.0
 70
     8
  0
VERTEX
  5
34D37
330
19D6B
100
AcDbEntity
  8
TITLE_BLOCK
  6
CONTINUOUS
 62
     7
100
AcDbVertex
100
AcDb2dVertex
 10
-17.724047
 20
-19.773774
 30
0.0
 70
     8
  0
VERTEX
  5
34D38
330
19D6B
100
AcDbEntity
  8
TITLE_BLOCK
  6
CONTINUOUS
 62
     7
100
AcDbVertex
100
AcDb2dVertex
 10
-17.910427
 20
-19.878335
 30
0.0
 70
     8
  0
VERTEX
  5
34D39
330
19D6B
100
AcDbEntity
  8
TITLE_BLOCK
  6
CONTINUOUS
 62
     7
100
AcDbVertex
100
AcDb2dVertex
 10
-18.102341
 20
-19.970876
 30
0.0
 70
     8
  0
VERTEX
  5
34D3A
330
19D6B
100
AcDbEntity
  8
TITLE_BLOCK
  6
CONTINUOUS
 62
     7
100
AcDbVertex
100
AcDb2dVertex
 10
-18.29884
 20
-20.053141
 30
0.0
 70
     8
  0
VERTEX
  5
34D3B
330
19D6B
100
AcDbEntity
  8
TITLE_BLOCK
  6
CONTINUOUS
 62
     7
100
AcDbVertex
100
AcDb2dVertex
 10
-18.498971
 20
-20.126874
 30
0.0
 70
     8
  0
VERTEX
  5
34D3C
330
19D6B
100
AcDbEntity
  8
TITLE_BLOCK
  6
CONTINUOUS
 62
     7
100
AcDbVertex
100
AcDb2dVertex
 10
-18.906326
 20
-20.255722
 30
0.0
 70
     8
  0
VERTEX
  5
34D3D
330
19D6B
100
AcDbEntity
  8
TITLE_BLOCK
  6
CONTINUOUS
 62
     7
100
AcDbVertex
100
AcDb2dVertex
 10
-19.3168
 20
-20.371372
 30
0.0
 70
     8
  0
VERTEX
  5
34D3E
330
19D6B
100
AcDbEntity
  8
TITLE_BLOCK
  6
CONTINUOUS
 62
     7
100
AcDbVertex
100
AcDb2dVertex
 10
-19.408935
 20
-20.540126
 30
0.0
 70
     8
  0
VERTEX
  5
34D3F
330
19D6B
100
AcDbEntity
  8
TITLE_BLOCK
  6
CONTINUOUS
 62
     7
100
AcDbVertex
100
AcDb2dVertex
 10
-19.490414
 20
-20.714575
 30
0.0
 70
     8
  0
VERTEX
  5
34D40
330
19D6B
100
AcDbEntity
  8
TITLE_BLOCK
  6
CONTINUOUS
 62
     7
100
AcDbVertex
100
AcDb2dVertex
 10
-19.557786
 20
-20.894722
 30
0.0
 70
     8
  0
VERTEX
  5
34D41
330
19D6B
100
AcDbEntity
  8
TITLE_BLOCK
  6
CONTINUOUS
 62
     7
100
AcDbVertex
100
AcDb2dVertex
 10
-19.607601
 20
-21.080571
 30
0.0
 70
     8
  0
VERTEX
  5
34D42
330
19D6B
100
AcDbEntity
  8
TITLE_BLOCK
  6
CONTINUOUS
 62
     7
100
AcDbVertex
100
AcDb2dVertex
 10
-19.608533
 20
-21.15793
 30
0.0
 70
     8
  0
VERTEX
  5
34D43
330
19D6B
100
AcDbEntity
  8
TITLE_BLOCK
  6
CONTINUOUS
 62
     7
100
AcDbVertex
100
AcDb2dVertex
 10
-19.595103
 20
-21.237506
 30
0.0
 70
     8
  0
VERTEX
  5
34D44
330
19D6B
100
AcDbEntity
  8
TITLE_BLOCK
  6
CONTINUOUS
 62
     7
100
AcDbVertex
100
AcDb2dVertex
 10
-19.568172
 20
-21.315101
 30
0.0
 70
     8
  0
VERTEX
  5
34D45
330
19D6B
100
AcDbEntity
  8
TITLE_BLOCK
  6
CONTINUOUS
 62
     7
100
AcDbVertex
100
AcDb2dVertex
 10
-19.528605
 20
-21.386523
 30
0.0
 70
     8
  0
VERTEX
  5
34D46
330
19D6B
100
AcDbEntity
  8
TITLE_BLOCK
  6
CONTINUOUS
 62
     7
100
AcDbVertex
100
AcDb2dVertex
 10
-19.477262
 20
-21.447575
 30
0.0
 70
     8
  0
VERTEX
  5
34D47
330
19D6B
100
AcDbEntity
  8
TITLE_BLOCK
  6
CONTINUOUS
 62
     7
100
AcDbVertex
100
AcDb2dVertex
 10
-19.415008
 20
-21.494063
 30
0.0
 70
     8
  0
VERTEX
  5
34D48
330
19D6B
100
AcDbEntity
  8
TITLE_BLOCK
  6
CONTINUOUS
 62
     7
100
AcDbVertex
100
AcDb2dVertex
 10
-19.342705
 20
-21.521792
 30
0.0
 70
     8
  0
VERTEX
  5
34D49
330
19D6B
100
AcDbEntity
  8
TITLE_BLOCK
  6
CONTINUOUS
 62
     7
100
AcDbVertex
100
AcDb2dVertex
 10
-19.261214
 20
-21.526567
 30
0.0
 70
     8
  0
VERTEX
  5
34D4A
330
19D6B
100
AcDbEntity
  8
TITLE_BLOCK
  6
CONTINUOUS
 62
     7
100
AcDbVertex
100
AcDb2dVertex
 10
-19.140443
 20
-21.52087
 30
0.0
 70
     8
  0
VERTEX
  5
34D4B
330
19D6B
100
AcDbEntity
  8
TITLE_BLOCK
  6
CONTINUOUS
 62
     7
100
AcDbVertex
100
AcDb2dVertex
 10
-19.022154
 20
-21.502041
 30
0.0
 70
     8
  0
VERTEX
  5
34D4C
330
19D6B
100
AcDbEntity
  8
TITLE_BLOCK
  6
CONTINUOUS
 62
     7
100
AcDbVertex
100
AcDb2dVertex
 10
-18.906547
 20
-21.471539
 30
0.0
 70
     8
  0
VERTEX
  5
34D4D
330
19D6B
100
AcDbEntity
  8
TITLE_BLOCK
  6
CONTINUOUS
 62
     7
100
AcDbVertex
100
AcDb2dVertex
 10
-18.793817
 20
-21.430822
 30
0.0
 70
     8
  0
VERTEX
  5
34D4E
330
19D6B
100
AcDbEntity
  8
TITLE_BLOCK
  6
CONTINUOUS
 62
     7
100
AcDbVertex
100
AcDb2dVertex
 10
-18.684161
 20
-21.381348
 30
0.0
 70
     8
  0
VERTEX
  5
34D4F
330
19D6B
100
AcDbEntity
  8
TITLE_BLOCK
  6
CONTINUOUS
 62
     7
100
AcDbVertex
100
AcDb2dVertex
 10
-18.577777
 20
-21.324575
 30
0.0
 70
     8
  0
VERTEX
  5
34D50
330
19D6B
100
AcDbEntity
  8
TITLE_BLOCK
  6
CONTINUOUS
 62
     7
100
AcDbVertex
100
AcDb2dVertex
 10
-18.375609
 20
-21.194965
 30
0.0
 70
     8
  0
VERTEX
  5
34D51
330
19D6B
100
AcDbEntity
  8
TITLE_BLOCK
  6
CONTINUOUS
 62
     7
100
AcDbVertex
100
AcDb2dVertex
 10
-18.143262
 20
-21.021166
 30
0.0
 70
     8
  0
VERTEX
  5
34D52
330
19D6B
100
AcDbEntity
  8
TITLE_BLOCK
  6
CONTINUOUS
 62
     7
100
AcDbVertex
100
AcDb2dVertex
 10
-17.921909
 20
-20.834892
 30
0.0
 70
     8
  0
VERTEX
  5
34D53
330
19D6B
100
AcDbEntity
  8
TITLE_BLOCK
  6
CONTINUOUS
 62
     7
100
AcDbVertex
100
AcDb2dVertex
 10
-17.709611
 20
-20.638446
 30
0.0
 70
     8
  0
VERTEX
  5
34D54
330
19D6B
100
AcDbEntity
  8
TITLE_BLOCK
  6
CONTINUOUS
 62
     7
100
AcDbVertex
100
AcDb2dVertex
 10
-17.504427
 20
-20.434128
 30
0.0
 70
     8
  0
VERTEX
  5
34D55
330
19D6B
100
AcDbEntity
  8
TITLE_BLOCK
  6
CONTINUOUS
 62
     7
100
AcDbVertex
100
AcDb2dVertex
 10
-17.107644
 20
-20.011087
 30
0.0
 70
     8
  0
VERTEX
  5
34D56
330
19D6B
100
AcDbEntity
  8
TITLE_BLOCK
  6
CONTINUOUS
 62
     7
100
AcDbVertex
100
AcDb2dVertex
 10
-16.716039
 20
-19.584184
 30
0.0
 70
     8
  0
VERTEX
  5
34D57
330
19D6B
100
AcDbEntity
  8
TITLE_BLOCK
  6
CONTINUOUS
 62
     7
100
AcDbVertex
100
AcDb2dVertex
 10
-16.558968
 20
-19.408181
 30
0.0
 70
     8
  0
VERTEX
  5
34D58
330
19D6B
100
AcDbEntity
  8
TITLE_BLOCK
  6
CONTINUOUS
 62
     7
100
AcDbVertex
100
AcDb2dVertex
 10
-16.473417
 20
-19.328238
 30
0.0
 70
     8
  0
VERTEX
  5
34D59
330
19D6B
100
AcDbEntity
  8
TITLE_BLOCK
  6
CONTINUOUS
 62
     7
100
AcDbVertex
100
AcDb2dVertex
 10
-16.42549
 20
-19.29504
 30
0.0
 70
     8
  0
VERTEX
  5
34D5A
330
19D6B
100
AcDbEntity
  8
TITLE_BLOCK
  6
CONTINUOUS
 62
     7
100
AcDbVertex
100
AcDb2dVertex
 10
-16.372836
 20
-19.268168
 30
0.0
 70
     8
  0
VERTEX
  5
34D5B
330
19D6B
100
AcDbEntity
  8
TITLE_BLOCK
  6
CONTINUOUS
 62
     7
100
AcDbVertex
100
AcDb2dVertex
 10
-16.457629
 20
-19.406504
 30
0.0
 70
     8
  0
VERTEX
  5
34D5C
330
19D6B
100
AcDbEntity
  8
TITLE_BLOCK
  6
CONTINUOUS
 62
     7
100
AcDbVertex
100
AcDb2dVertex
 10
-16.550362
 20
-19.539132
 30
0.0
 70
     8
  0
VERTEX
  5
34D5D
330
19D6B
100
AcDbEntity
  8
TITLE_BLOCK
  6
CONTINUOUS
 62
     7
100
AcDbVertex
100
AcDb2dVertex
 10
-16.752684
 20
-19.792172
 30
0.0
 70
     8
  0
VERTEX
  5
34D5E
330
19D6B
100
AcDbEntity
  8
TITLE_BLOCK
  6
CONTINUOUS
 62
     7
100
AcDbVertex
100
AcDb2dVertex
 10
-17.176039
 20
-20.283774
 30
0.0
 70
     8
  0
VERTEX
  5
34D5F
330
19D6B
100
AcDbEntity
  8
TITLE_BLOCK
  6
CONTINUOUS
 62
     7
100
AcDbVertex
100
AcDb2dVertex
 10
-17.501809
 20
-20.65216
 30
0.0
 70
     8
  0
VERTEX
  5
34D60
330
19D6B
100
AcDbEntity
  8
TITLE_BLOCK
  6
CONTINUOUS
 62
     7
100
AcDbVertex
100
AcDb2dVertex
 10
-17.839469
 20
-21.011774
 30
0.0
 70
     8
  0
VERTEX
  5
34D61
330
19D6B
100
AcDbEntity
  8
TITLE_BLOCK
  6
CONTINUOUS
 62
     7
100
AcDbVertex
100
AcDb2dVertex
 10
-18.018065
 20
-21.180533
 30
0.0
 70
     8
  0
VERTEX
  5
34D62
330
19D6B
100
AcDbEntity
  8
TITLE_BLOCK
  6
CONTINUOUS
 62
     7
100
AcDbVertex
100
AcDb2dVertex
 10
-18.206004
 20
-21.337788
 30
0.0
 70
     8
  0
VERTEX
  5
34D63
330
19D6B
100
AcDbEntity
  8
TITLE_BLOCK
  6
CONTINUOUS
 62
     7
100
AcDbVertex
100
AcDb2dVertex
 10
-18.405409
 20
-21.480437
 30
0.0
 70
     8
  0
VERTEX
  5
34D64
330
19D6B
100
AcDbEntity
  8
TITLE_BLOCK
  6
CONTINUOUS
 62
     7
100
AcDbVertex
100
AcDb2dVertex
 10
-18.618402
 20
-21.605375
 30
0.0
 70
     8
  0
VERTEX
  5
34D65
330
19D6B
100
AcDbEntity
  8
TITLE_BLOCK
  6
CONTINUOUS
 62
     7
100
AcDbVertex
100
AcDb2dVertex
 10
-18.752947
 20
-21.667499
 30
0.0
 70
     8
  0
VERTEX
  5
34D66
330
19D6B
100
AcDbEntity
  8
TITLE_BLOCK
  6
CONTINUOUS
 62
     7
100
AcDbVertex
100
AcDb2dVertex
 10
-18.893915
 20
-21.713042
 30
0.0
 70
     8
  0
VERTEX
  5
34D67
330
19D6B
100
AcDbEntity
  8
TITLE_BLOCK
  6
CONTINUOUS
 62
     7
100
AcDbVertex
100
AcDb2dVertex
 10
-19.039252
 20
-21.741813
 30
0.0
 70
     8
  0
VERTEX
  5
34D68
330
19D6B
100
AcDbEntity
  8
TITLE_BLOCK
  6
CONTINUOUS
 62
     7
100
AcDbVertex
100
AcDb2dVertex
 10
-19.186905
 20
-21.75362
 30
0.0
 70
     8
  0
VERTEX
  5
34D69
330
19D6B
100
AcDbEntity
  8
TITLE_BLOCK
  6
CONTINUOUS
 62
     7
100
AcDbVertex
100
AcDb2dVertex
 10
-19.334821
 20
-21.748271
 30
0.0
 70
     8
  0
VERTEX
  5
34D6A
330
19D6B
100
AcDbEntity
  8
TITLE_BLOCK
  6
CONTINUOUS
 62
     7
100
AcDbVertex
100
AcDb2dVertex
 10
-19.480947
 20
-21.725574
 30
0.0
 70
     8
  0
VERTEX
  5
34D6B
330
19D6B
100
AcDbEntity
  8
TITLE_BLOCK
  6
CONTINUOUS
 62
     7
100
AcDbVertex
100
AcDb2dVertex
 10
-19.623228
 20
-21.685337
 30
0.0
 70
     8
  0
VERTEX
  5
34D6C
330
19D6B
100
AcDbEntity
  8
TITLE_BLOCK
  6
CONTINUOUS
 62
     7
100
AcDbVertex
100
AcDb2dVertex
 10
-19.759613
 20
-21.627368
 30
0.0
 70
     8
  0
VERTEX
  5
34D6D
330
19D6B
100
AcDbEntity
  8
TITLE_BLOCK
  6
CONTINUOUS
 62
     7
100
AcDbVertex
100
AcDb2dVertex
 10
-19.824761
 20
-21.589695
 30
0.0
 70
     8
  0
VERTEX
  5
34D6E
330
19D6B
100
AcDbEntity
  8
TITLE_BLOCK
  6
CONTINUOUS
 62
     7
100
AcDbVertex
100
AcDb2dVertex
 10
-19.884709
 20
-21.545897
 30
0.0
 70
     8
  0
VERTEX
  5
34D6F
330
19D6B
100
AcDbEntity
  8
TITLE_BLOCK
  6
CONTINUOUS
 62
     7
100
AcDbVertex
100
AcDb2dVertex
 10
-19.988727
 20
-21.44217
 30
0.0
 70
     8
  0
VERTEX
  5
34D70
330
19D6B
100
AcDbEntity
  8
TITLE_BLOCK
  6
CONTINUOUS
 62
     7
100
AcDbVertex
100
AcDb2dVertex
 10
-20.071098
 20
-21.320666
 30
0.0
 70
     8
  0
VERTEX
  5
34D71
330
19D6B
100
AcDbEntity
  8
TITLE_BLOCK
  6
CONTINUOUS
 62
     7
100
AcDbVertex
100
AcDb2dVertex
 10
-20.131256
 20
-21.185869
 30
0.0
 70
     8
  0
VERTEX
  5
34D72
330
19D6B
100
AcDbEntity
  8
TITLE_BLOCK
  6
CONTINUOUS
 62
     7
100
AcDbVertex
100
AcDb2dVertex
 10
-20.168633
 20
-21.042258
 30
0.0
 70
     8
  0
VERTEX
  5
34D73
330
19D6B
100
AcDbEntity
  8
TITLE_BLOCK
  6
CONTINUOUS
 62
     7
100
AcDbVertex
100
AcDb2dVertex
 10
-20.182661
 20
-20.894316
 30
0.0
 70
     8
  0
VERTEX
  5
34D74
330
19D6B
100
AcDbEntity
  8
TITLE_BLOCK
  6
CONTINUOUS
 62
     7
100
AcDbVertex
100
AcDb2dVertex
 10
-20.172773
 20
-20.746524
 30
0.0
 70
     8
  0
VERTEX
  5
34D75
330
19D6B
100
AcDbEntity
  8
TITLE_BLOCK
  6
CONTINUOUS
 62
     7
100
AcDbVertex
100
AcDb2dVertex
 10
-20.138402
 20
-20.603364
 30
0.0
 70
     8
  0
VERTEX
  5
34D76
330
19D6B
100
AcDbEntity
  8
TITLE_BLOCK
  6
CONTINUOUS
 62
     7
100
AcDbVertex
100
AcDb2dVertex
 10
-20.078049
 20
-20.410307
 30
0.0
 70
     8
  0
VERTEX
  5
34D77
330
19D6B
100
AcDbEntity
  8
TITLE_BLOCK
  6
CONTINUOUS
 62
     7
100
AcDbVertex
100
AcDb2dVertex
 10
-19.999578
 20
-20.224918
 30
0.0
 70
     8
  0
VERTEX
  5
34D78
330
19D6B
100
AcDbEntity
  8
TITLE_BLOCK
  6
CONTINUOUS
 62
     7
100
AcDbVertex
100
AcDb2dVertex
 10
-19.904334
 20
-20.04793
 30
0.0
 70
     8
  0
VERTEX
  5
34D79
330
19D6B
100
AcDbEntity
  8
TITLE_BLOCK
  6
CONTINUOUS
 62
     7
100
AcDbVertex
100
AcDb2dVertex
 10
-19.793663
 20
-19.880073
 30
0.0
 70
     8
  0
VERTEX
  5
34D7A
330
19D6B
100
AcDbEntity
  8
TITLE_BLOCK
  6
CONTINUOUS
 62
     7
100
AcDbVertex
100
AcDb2dVertex
 10
-19.66891
 20
-19.722077
 30
0.0
 70
     8
  0
VERTEX
  5
34D7B
330
19D6B
100
AcDbEntity
  8
TITLE_BLOCK
  6
CONTINUOUS
 62
     7
100
AcDbVertex
100
AcDb2dVertex
 10
-19.531421
 20
-19.574675
 30
0.0
 70
     8
  0
VERTEX
  5
34D7C
330
19D6B
100
AcDbEntity
  8
TITLE_BLOCK
  6
CONTINUOUS
 62
     7
100
AcDbVertex
100
AcDb2dVertex
 10
-19.382541
 20
-19.438597
 30
0.0
 70
     8
  0
VERTEX
  5
34D7D
330
19D6B
100
AcDbEntity
  8
TITLE_BLOCK
  6
CONTINUOUS
 62
     7
100
AcDbVertex
100
AcDb2dVertex
 10
-19.223617
 20
-19.314575
 30
0.0
 70
     8
  0
VERTEX
  5
34D7E
330
19D6B
100
AcDbEntity
  8
TITLE_BLOCK
  6
CONTINUOUS
 62
     7
100
AcDbVertex
100
AcDb2dVertex
 10
-19.223617
 20
-19.314575
 30
0.0
 70
     8
  0
VERTEX
  5
34D7F
330
19D6B
100
AcDbEntity
  8
TITLE_BLOCK
  6
CONTINUOUS
 62
     7
100
AcDbVertex
100
AcDb2dVertex
 10
-19.223617
 20
-19.314575
 30
0.0
 70
    16
  0
VERTEX
  5
34D80
330
19D6B
100
AcDbEntity
  8
TITLE_BLOCK
  6
CONTINUOUS
 62
     7
100
AcDbVertex
100
AcDb2dVertex
 10
-18.841214
 20
-19.041782
 30
0.0
 70
    16
  0
VERTEX
  5
34D81
330
19D6B
100
AcDbEntity
  8
TITLE_BLOCK
  6
CONTINUOUS
 62
     7
100
AcDbVertex
100
AcDb2dVertex
 10
-18.421605
 20
-18.781372
 30
0.0
 70
    16
  0
VERTEX
  5
34D82
330
19D6B
100
AcDbEntity
  8
TITLE_BLOCK
  6
CONTINUOUS
 62
     7
100
AcDbVertex
100
AcDb2dVertex
 10
-17.945218
 20
-18.726567
 30
0.0
 70
    16
  0
VERTEX
  5
34D83
330
19D6B
100
AcDbEntity
  8
TITLE_BLOCK
  6
CONTINUOUS
 62
     7
100
AcDbVertex
100
AcDb2dVertex
 10
-17.759242
 20
-18.710981
 30
0.0
 70
    16
  0
VERTEX
  5
34D84
330
19D6B
100
AcDbEntity
  8
TITLE_BLOCK
  6
CONTINUOUS
 62
     7
100
AcDbVertex
100
AcDb2dVertex
 10
-17.56682
 20
-18.680571
 30
0.0
 70
    16
  0
VERTEX
  5
34D85
330
19D6B
100
AcDbEntity
  8
TITLE_BLOCK
  6
CONTINUOUS
 62
     7
100
AcDbVertex
100
AcDb2dVertex
 10
-17.382836
 20
-18.726567
 30
0.0
 70
    16
  0
VERTEX
  5
34D86
330
19D6B
100
AcDbEntity
  8
TITLE_BLOCK
  6
CONTINUOUS
 62
     7
100
AcDbVertex
100
AcDb2dVertex
 10
-17.226429
 20
-18.785375
 30
0.0
 70
    16
  0
VERTEX
  5
34D87
330
19D6B
100
AcDbEntity
  8
TITLE_BLOCK
  6
CONTINUOUS
 62
     7
100
AcDbVertex
100
AcDb2dVertex
 10
-17.13764
 20
-18.964165
 30
0.0
 70
    16
  0
VERTEX
  5
34D88
330
19D6B
100
AcDbEntity
  8
TITLE_BLOCK
  6
CONTINUOUS
 62
     7
100
AcDbVertex
100
AcDb2dVertex
 10
-17.174437
 20
-19.126176
 30
0.0
 70
    16
  0
VERTEX
  5
34D89
330
19D6B
100
AcDbEntity
  8
TITLE_BLOCK
  6
CONTINUOUS
 62
     7
100
AcDbVertex
100
AcDb2dVertex
 10
-17.237211
 20
-19.417368
 30
0.0
 70
    16
  0
VERTEX
  5
34D8A
330
19D6B
100
AcDbEntity
  8
TITLE_BLOCK
  6
CONTINUOUS
 62
     7
100
AcDbVertex
100
AcDb2dVertex
 10
-17.479242
 20
-19.626977
 30
0.0
 70
    16
  0
VERTEX
  5
34D8B
330
19D6B
100
AcDbEntity
  8
TITLE_BLOCK
  6
CONTINUOUS
 62
     7
100
AcDbVertex
100
AcDb2dVertex
 10
-17.724047
 20
-19.773774
 30
0.0
 70
    16
  0
VERTEX
  5
34D8C
330
19D6B
100
AcDbEntity
  8
TITLE_BLOCK
  6
CONTINUOUS
 62
     7
100
AcDbVertex
100
AcDb2dVertex
 10
-18.212836
 20
-20.07018
 30
0.0
 70
    16
  0
VERTEX
  5
34D8D
330
19D6B
100
AcDbEntity
  8
TITLE_BLOCK
  6
CONTINUOUS
 62
     7
100
AcDbVertex
100
AcDb2dVertex
 10
-18.770804
 20
-20.21977
 30
0.0
 70
    16
  0
VERTEX
  5
34D8E
330
19D6B
100
AcDbEntity
  8
TITLE_BLOCK
  6
CONTINUOUS
 62
     7
100
AcDbVertex
100
AcDb2dVertex
 10
-19.3168
 20
-20.371372
 30
0.0
 70
    16
  0
VERTEX
  5
34D8F
330
19D6B
100
AcDbEntity
  8
TITLE_BLOCK
  6
CONTINUOUS
 62
     7
100
AcDbVertex
100
AcDb2dVertex
 10
-19.445218
 20
-20.592582
 30
0.0
 70
    16
  0
VERTEX
  5
34D90
330
19D6B
100
AcDbEntity
  8
TITLE_BLOCK
  6
CONTINUOUS
 62
     7
100
AcDbVertex
100
AcDb2dVertex
 10
-19.554418
 20
-20.828969
 30
0.0
 70
    16
  0
VERTEX
  5
34D91
330
19D6B
100
AcDbEntity
  8
TITLE_BLOCK
  6
CONTINUOUS
 62
     7
100
AcDbVertex
100
AcDb2dVertex
 10
-19.607601
 20
-21.080571
 30
0.0
 70
    16
  0
VERTEX
  5
34D92
330
19D6B
100
AcDbEntity
  8
TITLE_BLOCK
  6
CONTINUOUS
 62
     7
100
AcDbVertex
100
AcDb2dVertex
 10
-19.630004
 20
-21.28018
 30
0.0
 70
    16
  0
VERTEX
  5
34D93
330
19D6B
100
AcDbEntity
  8
TITLE_BLOCK
  6
CONTINUOUS
 62
     7
100
AcDbVertex
100
AcDb2dVertex
 10
-19.490004
 20
-21.548168
 30
0.0
 70
    16
  0
VERTEX
  5
34D94
330
19D6B
100
AcDbEntity
  8
TITLE_BLOCK
  6
CONTINUOUS
 62
     7
100
AcDbVertex
100
AcDb2dVertex
 10
-19.261214
 20
-21.526567
 30
0.0
 70
    16
  0
VERTEX
  5
34D95
330
19D6B
100
AcDbEntity
  8
TITLE_BLOCK
  6
CONTINUOUS
 62
     7
100
AcDbVertex
100
AcDb2dVertex
 10
-18.936019
 20
-21.53018
 30
0.0
 70
    16
  0
VERTEX
  5
34D96
330
19D6B
100
AcDbEntity
  8
TITLE_BLOCK
  6
CONTINUOUS
 62
     7
100
AcDbVertex
100
AcDb2dVertex
 10
-18.635218
 20
-21.378168
 30
0.0
 70
    16
  0
VERTEX
  5
34D97
330
19D6B
100
AcDbEntity
  8
TITLE_BLOCK
  6
CONTINUOUS
 62
     7
100
AcDbVertex
100
AcDb2dVertex
 10
-18.375609
 20
-21.194965
 30
0.0
 70
    16
  0
VERTEX
  5
34D98
330
19D6B
100
AcDbEntity
  8
TITLE_BLOCK
  6
CONTINUOUS
 62
     7
100
AcDbVertex
100
AcDb2dVertex
 10
-17.739632
 20
-20.75018
 30
0.0
 70
    16
  0
VERTEX
  5
34D99
330
19D6B
100
AcDbEntity
  8
TITLE_BLOCK
  6
CONTINUOUS
 62
     7
100
AcDbVertex
100
AcDb2dVertex
 10
-17.241625
 20
-20.147778
 30
0.0
 70
    16
  0
VERTEX
  5
34D9A
330
19D6B
100
AcDbEntity
  8
TITLE_BLOCK
  6
CONTINUOUS
 62
     7
100
AcDbVertex
100
AcDb2dVertex
 10
-16.716039
 20
-19.584184
 30
0.0
 70
    16
  0
VERTEX
  5
34D9B
330
19D6B
100
AcDbEntity
  8
TITLE_BLOCK
  6
CONTINUOUS
 62
     7
100
AcDbVertex
100
AcDb2dVertex
 10
-16.607211
 20
-19.474184
 30
0.0
 70
    16
  0
VERTEX
  5
34D9C
330
19D6B
100
AcDbEntity
  8
TITLE_BLOCK
  6
CONTINUOUS
 62
     7
100
AcDbVertex
100
AcDb2dVertex
 10
-16.520414
 20
-19.33018
 30
0.0
 70
    16
  0
VERTEX
  5
34D9D
330
19D6B
100
AcDbEntity
  8
TITLE_BLOCK
  6
CONTINUOUS
 62
     7
100
AcDbVertex
100
AcDb2dVertex
 10
-16.372836
 20
-19.268168
 30
0.0
 70
    16
  0
VERTEX
  5
34D9E
330
19D6B
100
AcDbEntity
  8
TITLE_BLOCK
  6
CONTINUOUS
 62
     7
100
AcDbVertex
100
AcDb2dVertex
 10
-16.58682
 20
-19.645766
 30
0.0
 70
    16
  0
VERTEX
  5
34D9F
330
19D6B
100
AcDbEntity
  8
TITLE_BLOCK
  6
CONTINUOUS
 62
     7
100
AcDbVertex
100
AcDb2dVertex
 10
-16.904047
 20
-19.949379
 30
0.0
 70
    16
  0
VERTEX
  5
34DA0
330
19D6B
100
AcDbEntity
  8
TITLE_BLOCK
  6
CONTINUOUS
 62
     7
100
AcDbVertex
100
AcDb2dVertex
 10
-17.176039
 20
-20.283774
 30
0.0
 70
    16
  0
VERTEX
  5
34DA1
330
19D6B
100
AcDbEntity
  8
TITLE_BLOCK
  6
CONTINUOUS
 62
     7
100
AcDbVertex
100
AcDb2dVertex
 10
-17.610023
 20
-20.76977
 30
0.0
 70
    16
  0
VERTEX
  5
34DA2
330
19D6B
100
AcDbEntity
  8
TITLE_BLOCK
  6
CONTINUOUS
 62
     7
100
AcDbVertex
100
AcDb2dVertex
 10
-18.030414
 20
-21.298579
 30
0.0
 70
    16
  0
VERTEX
  5
34DA3
330
19D6B
100
AcDbEntity
  8
TITLE_BLOCK
  6
CONTINUOUS
 62
     7
100
AcDbVertex
100
AcDb2dVertex
 10
-18.618402
 20
-21.605375
 30
0.0
 70
    16
  0
VERTEX
  5
34DA4
330
19D6B
100
AcDbEntity
  8
TITLE_BLOCK
  6
CONTINUOUS
 62
     7
100
AcDbVertex
100
AcDb2dVertex
 10
-18.9668
 20
-21.792973
 30
0.0
 70
    16
  0
VERTEX
  5
34DA5
330
19D6B
100
AcDbEntity
  8
TITLE_BLOCK
  6
CONTINUOUS
 62
     7
100
AcDbVertex
100
AcDb2dVertex
 10
-19.405609
 20
-21.805766
 30
0.0
 70
    16
  0
VERTEX
  5
34DA6
330
19D6B
100
AcDbEntity
  8
TITLE_BLOCK
  6
CONTINUOUS
 62
     7
100
AcDbVertex
100
AcDb2dVertex
 10
-19.759613
 20
-21.627368
 30
0.0
 70
    16
  0
VERTEX
  5
34DA7
330
19D6B
100
AcDbEntity
  8
TITLE_BLOCK
  6
CONTINUOUS
 62
     7
100
AcDbVertex
100
AcDb2dVertex
 10
-20.120804
 20
-21.443774
 30
0.0
 70
    16
  0
VERTEX
  5
34DA8
330
19D6B
100
AcDbEntity
  8
TITLE_BLOCK
  6
CONTINUOUS
 62
     7
100
AcDbVertex
100
AcDb2dVertex
 10
-20.263207
 20
-20.974965
 30
0.0
 70
    16
  0
VERTEX
  5
34DA9
330
19D6B
100
AcDbEntity
  8
TITLE_BLOCK
  6
CONTINUOUS
 62
     7
100
AcDbVertex
100
AcDb2dVertex
 10
-20.138402
 20
-20.603364
 30
0.0
 70
    16
  0
VERTEX
  5
34DAA
330
19D6B
100
AcDbEntity
  8
TITLE_BLOCK
  6
CONTINUOUS
 62
     7
100
AcDbVertex
100
AcDb2dVertex
 10
-20.002816
 20
-20.078969
 30
0.0
 70
    16
  0
VERTEX
  5
34DAB
330
19D6B
100
AcDbEntity
  8
TITLE_BLOCK
  6
CONTINUOUS
 62
     7
100
AcDbVertex
100
AcDb2dVertex
 10
-19.659613
 20
-19.628579
 30
0.0
 70
    16
  0
VERTEX
  5
34DAC
330
19D6B
100
AcDbEntity
  8
TITLE_BLOCK
  6
CONTINUOUS
 62
     7
100
AcDbVertex
100
AcDb2dVertex
 10
-19.223617
 20
-19.314575
 30
0.0
 70
    16
  0
VERTEX
  5
34DAD
330
19D6B
100
AcDbEntity
  8
TITLE_BLOCK
  6
CONTINUOUS
 62
     7
100
AcDbVertex
100
AcDb2dVertex
 10
-19.223617
 20
-19.314575
 30
0.0
 70
    16
  0
VERTEX
  5
34DAE
330
19D6B
100
AcDbEntity
  8
TITLE_BLOCK
  6
CONTINUOUS
 62
     7
100
AcDbVertex
100
AcDb2dVertex
 10
-19.223617
 20
-19.314575
 30
0.0
 70
    16
  0
VERTEX
  5
34DAF
330
19D6B
100
AcDbEntity
  8
TITLE_BLOCK
  6
CONTINUOUS
 62
     7
100
AcDbVertex
100
AcDb2dVertex
 10
-19.223617
 20
-19.314575
 30
0.0
 70
    16
  0
SEQEND
  5
34DB0
330
19D6B
100
AcDbEntity
  8
TITLE_BLOCK
  6
CONTINUOUS
 62
     7
  0
POLYLINE
  5
19DFE
330
34C93
100
AcDbEntity
  8
TITLE_BLOCK
  6
CONTINUOUS
 62
     7
100
AcDb2dPolyline
 66
     1
 10
0.0
 20
0.0
 30
0.0
 70
     5
 75
     5
  0
VERTEX
  5
34DB1
330
19DFE
100
AcDbEntity
  8
TITLE_BLOCK
  6
CONTINUOUS
 62
     7
100
AcDbVertex
100
AcDb2dVertex
 10
-18.366214
 20
-19.303774
 30
0.0
 70
     8
  0
VERTEX
  5
34DB2
330
19DFE
100
AcDbEntity
  8
TITLE_BLOCK
  6
CONTINUOUS
 62
     7
100
AcDbVertex
100
AcDb2dVertex
 10
-18.179884
 20
-19.152389
 30
0.0
 70
     8
  0
VERTEX
  5
34DB3
330
19DFE
100
AcDbEntity
  8
TITLE_BLOCK
  6
CONTINUOUS
 62
     7
100
AcDbVertex
100
AcDb2dVertex
 10
-18.08244
 20
-19.081139
 30
0.0
 70
     8
  0
VERTEX
  5
34DB4
330
19DFE
100
AcDbEntity
  8
TITLE_BLOCK
  6
CONTINUOUS
 62
     7
100
AcDbVertex
100
AcDb2dVertex
 10
-17.981749
 20
-19.014919
 30
0.0
 70
     8
  0
VERTEX
  5
34DB5
330
19DFE
100
AcDbEntity
  8
TITLE_BLOCK
  6
CONTINUOUS
 62
     7
100
AcDbVertex
100
AcDb2dVertex
 10
-17.877516
 20
-18.955281
 30
0.0
 70
     8
  0
VERTEX
  5
34DB6
330
19DFE
100
AcDbEntity
  8
TITLE_BLOCK
  6
CONTINUOUS
 62
     7
100
AcDbVertex
100
AcDb2dVertex
 10
-17.769445
 20
-18.903775
 30
0.0
 70
     8
  0
VERTEX
  5
34DB7
330
19DFE
100
AcDbEntity
  8
TITLE_BLOCK
  6
CONTINUOUS
 62
     7
100
AcDbVertex
100
AcDb2dVertex
 10
-17.657242
 20
-18.861955
 30
0.0
 70
     8
  0
VERTEX
  5
34DB8
330
19DFE
100
AcDbEntity
  8
TITLE_BLOCK
  6
CONTINUOUS
 62
     7
100
AcDbVertex
100
AcDb2dVertex
 10
-17.540609
 20
-18.831372
 30
0.0
 70
     8
  0
VERTEX
  5
34DB9
330
19DFE
100
AcDbEntity
  8
TITLE_BLOCK
  6
CONTINUOUS
 62
     7
100
AcDbVertex
100
AcDb2dVertex
 10
-17.518005
 20
-18.867081
 30
0.0
 70
     8
  0
VERTEX
  5
34DBA
330
19DFE
100
AcDbEntity
  8
TITLE_BLOCK
  6
CONTINUOUS
 62
     7
100
AcDbVertex
100
AcDb2dVertex
 10
-17.501508
 20
-18.903448
 30
0.0
 70
     8
  0
VERTEX
  5
34DBB
330
19DFE
100
AcDbEntity
  8
TITLE_BLOCK
  6
CONTINUOUS
 62
     7
100
AcDbVertex
100
AcDb2dVertex
 10
-17.490697
 20
-18.940306
 30
0.0
 70
     8
  0
VERTEX
  5
34DBC
330
19DFE
100
AcDbEntity
  8
TITLE_BLOCK
  6
CONTINUOUS
 62
     7
100
AcDbVertex
100
AcDb2dVertex
 10
-17.485156
 20
-18.977488
 30
0.0
 70
     8
  0
VERTEX
  5
34DBD
330
19DFE
100
AcDbEntity
  8
TITLE_BLOCK
  6
CONTINUOUS
 62
     7
100
AcDbVertex
100
AcDb2dVertex
 10
-17.484466
 20
-19.014828
 30
0.0
 70
     8
  0
VERTEX
  5
34DBE
330
19DFE
100
AcDbEntity
  8
TITLE_BLOCK
  6
CONTINUOUS
 62
     7
100
AcDbVertex
100
AcDb2dVertex
 10
-17.488208
 20
-19.052157
 30
0.0
 70
     8
  0
VERTEX
  5
34DBF
330
19DFE
100
AcDbEntity
  8
TITLE_BLOCK
  6
CONTINUOUS
 62
     7
100
AcDbVertex
100
AcDb2dVertex
 10
-17.495965
 20
-19.089309
 30
0.0
 70
     8
  0
VERTEX
  5
34DC0
330
19DFE
100
AcDbEntity
  8
TITLE_BLOCK
  6
CONTINUOUS
 62
     7
100
AcDbVertex
100
AcDb2dVertex
 10
-17.507318
 20
-19.126118
 30
0.0
 70
     8
  0
VERTEX
  5
34DC1
330
19DFE
100
AcDbEntity
  8
TITLE_BLOCK
  6
CONTINUOUS
 62
     7
100
AcDbVertex
100
AcDb2dVertex
 10
-17.539139
 20
-19.198035
 30
0.0
 70
     8
  0
VERTEX
  5
34DC2
330
19DFE
100
AcDbEntity
  8
TITLE_BLOCK
  6
CONTINUOUS
 62
     7
100
AcDbVertex
100
AcDb2dVertex
 10
-17.580325
 20
-19.266573
 30
0.0
 70
     8
  0
VERTEX
  5
34DC3
330
19DFE
100
AcDbEntity
  8
TITLE_BLOCK
  6
CONTINUOUS
 62
     7
100
AcDbVertex
100
AcDb2dVertex
 10
-17.627529
 20
-19.330396
 30
0.0
 70
     8
  0
VERTEX
  5
34DC4
330
19DFE
100
AcDbEntity
  8
TITLE_BLOCK
  6
CONTINUOUS
 62
     7
100
AcDbVertex
100
AcDb2dVertex
 10
-17.677406
 20
-19.388168
 30
0.0
 70
     8
  0
VERTEX
  5
34DC5
330
19DFE
100
AcDbEntity
  8
TITLE_BLOCK
  6
CONTINUOUS
 62
     7
100
AcDbVertex
100
AcDb2dVertex
 10
-17.749249
 20
-19.45931
 30
0.0
 70
     8
  0
VERTEX
  5
34DC6
330
19DFE
100
AcDbEntity
  8
TITLE_BLOCK
  6
CONTINUOUS
 62
     7
100
AcDbVertex
100
AcDb2dVertex
 10
-17.823961
 20
-19.526855
 30
0.0
 70
     8
  0
VERTEX
  5
34DC7
330
19DFE
100
AcDbEntity
  8
TITLE_BLOCK
  6
CONTINUOUS
 62
     7
100
AcDbVertex
100
AcDb2dVertex
 10
-17.901364
 20
-19.59091
 30
0.0
 70
     8
  0
VERTEX
  5
34DC8
330
19DFE
100
AcDbEntity
  8
TITLE_BLOCK
  6
CONTINUOUS
 62
     7
100
AcDbVertex
100
AcDb2dVertex
 10
-17.98128
 20
-19.651582
 30
0.0
 70
     8
  0
VERTEX
  5
34DC9
330
19DFE
100
AcDbEntity
  8
TITLE_BLOCK
  6
CONTINUOUS
 62
     7
100
AcDbVertex
100
AcDb2dVertex
 10
-18.063531
 20
-19.708978
 30
0.0
 70
     8
  0
VERTEX
  5
34DCA
330
19DFE
100
AcDbEntity
  8
TITLE_BLOCK
  6
CONTINUOUS
 62
     7
100
AcDbVertex
100
AcDb2dVertex
 10
-18.147938
 20
-19.763204
 30
0.0
 70
     8
  0
VERTEX
  5
34DCB
330
19DFE
100
AcDbEntity
  8
TITLE_BLOCK
  6
CONTINUOUS
 62
     7
100
AcDbVertex
100
AcDb2dVertex
 10
-18.234323
 20
-19.814367
 30
0.0
 70
     8
  0
VERTEX
  5
34DCC
330
19DFE
100
AcDbEntity
  8
TITLE_BLOCK
  6
CONTINUOUS
 62
     7
100
AcDbVertex
100
AcDb2dVertex
 10
-18.322508
 20
-19.862573
 30
0.0
 70
     8
  0
VERTEX
  5
34DCD
330
19DFE
100
AcDbEntity
  8
TITLE_BLOCK
  6
CONTINUOUS
 62
     7
100
AcDbVertex
100
AcDb2dVertex
 10
-18.503566
 20
-19.950541
 30
0.0
 70
     8
  0
VERTEX
  5
34DCE
330
19DFE
100
AcDbEntity
  8
TITLE_BLOCK
  6
CONTINUOUS
 62
     7
100
AcDbVertex
100
AcDb2dVertex
 10
-18.689686
 20
-20.027963
 30
0.0
 70
     8
  0
VERTEX
  5
34DCF
330
19DFE
100
AcDbEntity
  8
TITLE_BLOCK
  6
CONTINUOUS
 62
     7
100
AcDbVertex
100
AcDb2dVertex
 10
-18.879442
 20
-20.09569
 30
0.0
 70
     8
  0
VERTEX
  5
34DD0
330
19DFE
100
AcDbEntity
  8
TITLE_BLOCK
  6
CONTINUOUS
 62
     7
100
AcDbVertex
100
AcDb2dVertex
 10
-19.07141
 20
-20.154575
 30
0.0
 70
     8
  0
VERTEX
  5
34DD1
330
19DFE
100
AcDbEntity
  8
TITLE_BLOCK
  6
CONTINUOUS
 62
     7
100
AcDbVertex
100
AcDb2dVertex
 10
-18.741158
 20
-19.70997
 30
0.0
 70
     8
  0
VERTEX
  5
34DD2
330
19DFE
100
AcDbEntity
  8
TITLE_BLOCK
  6
CONTINUOUS
 62
     7
100
AcDbVertex
100
AcDb2dVertex
 10
-18.654624
 20
-19.602007
 30
0.0
 70
     8
  0
VERTEX
  5
34DD3
330
19DFE
100
AcDbEntity
  8
TITLE_BLOCK
  6
CONTINUOUS
 62
     7
100
AcDbVertex
100
AcDb2dVertex
 10
-18.564091
 20
-19.49757
 30
0.0
 70
     8
  0
VERTEX
  5
34DD4
330
19DFE
100
AcDbEntity
  8
TITLE_BLOCK
  6
CONTINUOUS
 62
     7
100
AcDbVertex
100
AcDb2dVertex
 10
-18.468356
 20
-19.397784
 30
0.0
 70
     8
  0
VERTEX
  5
34DD5
330
19DFE
100
AcDbEntity
  8
TITLE_BLOCK
  6
CONTINUOUS
 62
     7
100
AcDbVertex
100
AcDb2dVertex
 10
-18.366214
 20
-19.303774
 30
0.0
 70
     8
  0
VERTEX
  5
34DD6
330
19DFE
100
AcDbEntity
  8
TITLE_BLOCK
  6
CONTINUOUS
 62
     7
100
AcDbVertex
100
AcDb2dVertex
 10
-18.366214
 20
-19.303774
 30
0.0
 70
     8
  0
VERTEX
  5
34DD7
330
19DFE
100
AcDbEntity
  8
TITLE_BLOCK
  6
CONTINUOUS
 62
     7
100
AcDbVertex
100
AcDb2dVertex
 10
-18.366214
 20
-19.303774
 30
0.0
 70
    16
  0
VERTEX
  5
34DD8
330
19DFE
100
AcDbEntity
  8
TITLE_BLOCK
  6
CONTINUOUS
 62
     7
100
AcDbVertex
100
AcDb2dVertex
 10
-18.124593
 20
-19.098168
 30
0.0
 70
    16
  0
VERTEX
  5
34DD9
330
19DFE
100
AcDbEntity
  8
TITLE_BLOCK
  6
CONTINUOUS
 62
     7
100
AcDbVertex
100
AcDb2dVertex
 10
-17.857797
 20
-18.896567
 30
0.0
 70
    16
  0
VERTEX
  5
34DDA
330
19DFE
100
AcDbEntity
  8
TITLE_BLOCK
  6
CONTINUOUS
 62
     7
100
AcDbVertex
100
AcDb2dVertex
 10
-17.540609
 20
-18.831372
 30
0.0
 70
    16
  0
VERTEX
  5
34DDB
330
19DFE
100
AcDbEntity
  8
TITLE_BLOCK
  6
CONTINUOUS
 62
     7
100
AcDbVertex
100
AcDb2dVertex
 10
-17.403031
 20
-19.01977
 30
0.0
 70
    16
  0
VERTEX
  5
34DDC
330
19DFE
100
AcDbEntity
  8
TITLE_BLOCK
  6
CONTINUOUS
 62
     7
100
AcDbVertex
100
AcDb2dVertex
 10
-17.543812
 20
-19.243364
 30
0.0
 70
    16
  0
VERTEX
  5
34DDD
330
19DFE
100
AcDbEntity
  8
TITLE_BLOCK
  6
CONTINUOUS
 62
     7
100
AcDbVertex
100
AcDb2dVertex
 10
-17.677406
 20
-19.388168
 30
0.0
 70
    16
  0
VERTEX
  5
34DDE
330
19DFE
100
AcDbEntity
  8
TITLE_BLOCK
  6
CONTINUOUS
 62
     7
100
AcDbVertex
100
AcDb2dVertex
 10
-18.052601
 20
-19.777368
 30
0.0
 70
    16
  0
VERTEX
  5
34DDF
330
19DFE
100
AcDbEntity
  8
TITLE_BLOCK
  6
CONTINUOUS
 62
     7
100
AcDbVertex
100
AcDb2dVertex
 10
-18.557816
 20
-20.008579
 30
0.0
 70
    16
  0
VERTEX
  5
34DE0
330
19DFE
100
AcDbEntity
  8
TITLE_BLOCK
  6
CONTINUOUS
 62
     7
100
AcDbVertex
100
AcDb2dVertex
 10
-19.07141
 20
-20.154575
 30
0.0
 70
    16
  0
VERTEX
  5
34DE1
330
19DFE
100
AcDbEntity
  8
TITLE_BLOCK
  6
CONTINUOUS
 62
     7
100
AcDbVertex
100
AcDb2dVertex
 10
-18.849007
 20
-19.861372
 30
0.0
 70
    16
  0
VERTEX
  5
34DE2
330
19DFE
100
AcDbEntity
  8
TITLE_BLOCK
  6
CONTINUOUS
 62
     7
100
AcDbVertex
100
AcDb2dVertex
 10
-18.648207
 20
-19.545766
 30
0.0
 70
    16
  0
VERTEX
  5
34DE3
330
19DFE
100
AcDbEntity
  8
TITLE_BLOCK
  6
CONTINUOUS
 62
     7
100
AcDbVertex
100
AcDb2dVertex
 10
-18.366214
 20
-19.303774
 30
0.0
 70
    16
  0
VERTEX
  5
34DE4
330
19DFE
100
AcDbEntity
  8
TITLE_BLOCK
  6
CONTINUOUS
 62
     7
100
AcDbVertex
100
AcDb2dVertex
 10
-18.366214
 20
-19.303774
 30
0.0
 70
    16
  0
VERTEX
  5
34DE5
330
19DFE
100
AcDbEntity
  8
TITLE_BLOCK
  6
CONTINUOUS
 62
     7
100
AcDbVertex
100
AcDb2dVertex
 10
-18.366214
 20
-19.303774
 30
0.0
 70
    16
  0
VERTEX
  5
34DE6
330
19DFE
100
AcDbEntity
  8
TITLE_BLOCK
  6
CONTINUOUS
 62
     7
100
AcDbVertex
100
AcDb2dVertex
 10
-18.366214
 20
-19.303774
 30
0.0
 70
    16
  0
SEQEND
  5
34DE7
330
19DFE
100
AcDbEntity
  8
TITLE_BLOCK
  6
CONTINUOUS
 62
     7
  0
POLYLINE
  5
19E35
330
34C93
100
AcDbEntity
  8
TITLE_BLOCK
  6
CONTINUOUS
 62
     7
100
AcDb2dPolyline
 66
     1
 10
0.0
 20
0.0
 30
0.0
 70
     5
 75
     5
  0
VERTEX
  5
34DE8
330
19E35
100
AcDbEntity
  8
TITLE_BLOCK
  6
CONTINUOUS
 62
     7
100
AcDbVertex
100
AcDb2dVertex
 10
-23.601371
 20
-22.763793
 30
0.0
 70
     8
  0
VERTEX
  5
34DE9
330
19E35
100
AcDbEntity
  8
TITLE_BLOCK
  6
CONTINUOUS
 62
     7
100
AcDbVertex
100
AcDb2dVertex
 10
-23.04057
 20
-22.765356
 30
0.0
 70
     8
  0
VERTEX
  5
34DEA
330
19E35
100
AcDbEntity
  8
TITLE_BLOCK
  6
CONTINUOUS
 62
     7
100
AcDbVertex
100
AcDb2dVertex
 10
-23.041761
 20
-22.927387
 30
0.0
 70
     8
  0
VERTEX
  5
34DEB
330
19E35
100
AcDbEntity
  8
TITLE_BLOCK
  6
CONTINUOUS
 62
     7
100
AcDbVertex
100
AcDb2dVertex
 10
-23.221761
 20
-22.924575
 30
0.0
 70
     8
  0
VERTEX
  5
34DEC
330
19E35
100
AcDbEntity
  8
TITLE_BLOCK
  6
CONTINUOUS
 62
     7
100
AcDbVertex
100
AcDb2dVertex
 10
-23.401761
 20
-22.92059
 30
0.0
 70
     8
  0
VERTEX
  5
34DED
330
19E35
100
AcDbEntity
  8
TITLE_BLOCK
  6
CONTINUOUS
 62
     7
100
AcDbVertex
100
AcDb2dVertex
 10
-23.404554
 20
-23.004184
 30
0.0
 70
     8
  0
VERTEX
  5
34DEE
330
19E35
100
AcDbEntity
  8
TITLE_BLOCK
  6
CONTINUOUS
 62
     7
100
AcDbVertex
100
AcDb2dVertex
 10
-23.242364
 20
-23.004824
 30
0.0
 70
     8
  0
VERTEX
  5
34DEF
330
19E35
100
AcDbEntity
  8
TITLE_BLOCK
  6
CONTINUOUS
 62
     7
100
AcDbVertex
100
AcDb2dVertex
 10
-23.08016
 20
-23.006957
 30
0.0
 70
     8
  0
VERTEX
  5
34DF0
330
19E35
100
AcDbEntity
  8
TITLE_BLOCK
  6
CONTINUOUS
 62
     7
100
AcDbVertex
100
AcDb2dVertex
 10
-23.084554
 20
-23.164965
 30
0.0
 70
     8
  0
VERTEX
  5
34DF1
330
19E35
100
AcDbEntity
  8
TITLE_BLOCK
  6
CONTINUOUS
 62
     7
100
AcDbVertex
100
AcDb2dVertex
 10
-23.244767
 20
-23.166123
 30
0.0
 70
     8
  0
VERTEX
  5
34DF2
330
19E35
100
AcDbEntity
  8
TITLE_BLOCK
  6
CONTINUOUS
 62
     7
100
AcDbVertex
100
AcDb2dVertex
 10
-23.404964
 20
-23.165786
 30
0.0
 70
     8
  0
VERTEX
  5
34DF3
330
19E35
100
AcDbEntity
  8
TITLE_BLOCK
  6
CONTINUOUS
 62
     7
100
AcDbVertex
100
AcDb2dVertex
 10
-23.401761
 20
-23.287387
 30
0.0
 70
     8
  0
VERTEX
  5
34DF4
330
19E35
100
AcDbEntity
  8
TITLE_BLOCK
  6
CONTINUOUS
 62
     7
100
AcDbVertex
100
AcDb2dVertex
 10
-23.310624
 20
-23.285281
 30
0.0
 70
     8
  0
VERTEX
  5
34DF5
330
19E35
100
AcDbEntity
  8
TITLE_BLOCK
  6
CONTINUOUS
 62
     7
100
AcDbVertex
100
AcDb2dVertex
 10
-23.219564
 20
-23.284721
 30
0.0
 70
     8
  0
VERTEX
  5
34DF6
330
19E35
100
AcDbEntity
  8
TITLE_BLOCK
  6
CONTINUOUS
 62
     7
100
AcDbVertex
100
AcDb2dVertex
 10
-23.037367
 20
-23.286567
 30
0.0
 70
     8
  0
VERTEX
  5
34DF7
330
19E35
100
AcDbEntity
  8
TITLE_BLOCK
  6
CONTINUOUS
 62
     7
100
AcDbVertex
100
AcDb2dVertex
 10
-23.048558
 20
-23.447387
 30
0.0
 70
     8
  0
VERTEX
  5
34DF8
330
19E35
100
AcDbEntity
  8
TITLE_BLOCK
  6
CONTINUOUS
 62
     7
100
AcDbVertex
100
AcDb2dVertex
 10
-23.186201
 20
-23.445124
 30
0.0
 70
     8
  0
VERTEX
  5
34DF9
330
19E35
100
AcDbEntity
  8
TITLE_BLOCK
  6
CONTINUOUS
 62
     7
100
AcDbVertex
100
AcDb2dVertex
 10
-23.323763
 20
-23.44437
 30
0.0
 70
     8
  0
VERTEX
  5
34DFA
330
19E35
100
AcDbEntity
  8
TITLE_BLOCK
  6
CONTINUOUS
 62
     7
100
AcDbVertex
100
AcDb2dVertex
 10
-23.461326
 20
-23.445124
 30
0.0
 70
     8
  0
VERTEX
  5
34DFB
330
19E35
100
AcDbEntity
  8
TITLE_BLOCK
  6
CONTINUOUS
 62
     7
100
AcDbVertex
100
AcDb2dVertex
 10
-23.598968
 20
-23.447387
 30
0.0
 70
     8
  0
VERTEX
  5
34DFC
330
19E35
100
AcDbEntity
  8
TITLE_BLOCK
  6
CONTINUOUS
 62
     7
100
AcDbVertex
100
AcDb2dVertex
 10
-23.602939
 20
-23.276388
 30
0.0
 70
     8
  0
VERTEX
  5
34DFD
330
19E35
100
AcDbEntity
  8
TITLE_BLOCK
  6
CONTINUOUS
 62
     7
100
AcDbVertex
100
AcDb2dVertex
 10
-23.603766
 20
-23.105429
 30
0.0
 70
     8
  0
VERTEX
  5
34DFE
330
19E35
100
AcDbEntity
  8
TITLE_BLOCK
  6
CONTINUOUS
 62
     7
100
AcDbVertex
100
AcDb2dVertex
 10
-23.601371
 20
-22.763793
 30
0.0
 70
     8
  0
VERTEX
  5
34DFF
330
19E35
100
AcDbEntity
  8
TITLE_BLOCK
  6
CONTINUOUS
 62
     7
100
AcDbVertex
100
AcDb2dVertex
 10
-23.601371
 20
-22.763793
 30
0.0
 70
     8
  0
VERTEX
  5
34E00
330
19E35
100
AcDbEntity
  8
TITLE_BLOCK
  6
CONTINUOUS
 62
     7
100
AcDbVertex
100
AcDb2dVertex
 10
-23.601371
 20
-22.763793
 30
0.0
 70
    16
  0
VERTEX
  5
34E01
330
19E35
100
AcDbEntity
  8
TITLE_BLOCK
  6
CONTINUOUS
 62
     7
100
AcDbVertex
100
AcDb2dVertex
 10
-23.414164
 20
-22.762973
 30
0.0
 70
    16
  0
VERTEX
  5
34E02
330
19E35
100
AcDbEntity
  8
TITLE_BLOCK
  6
CONTINUOUS
 62
     7
100
AcDbVertex
100
AcDb2dVertex
 10
-23.227367
 20
-22.765786
 30
0.0
 70
    16
  0
VERTEX
  5
34E03
330
19E35
100
AcDbEntity
  8
TITLE_BLOCK
  6
CONTINUOUS
 62
     7
100
AcDbVertex
100
AcDb2dVertex
 10
-23.04057
 20
-22.765356
 30
0.0
 70
    16
  0
VERTEX
  5
34E04
330
19E35
100
AcDbEntity
  8
TITLE_BLOCK
  6
CONTINUOUS
 62
     7
100
AcDbVertex
100
AcDb2dVertex
 10
-23.041371
 20
-22.819379
 30
0.0
 70
    16
  0
VERTEX
  5
34E05
330
19E35
100
AcDbEntity
  8
TITLE_BLOCK
  6
CONTINUOUS
 62
     7
100
AcDbVertex
100
AcDb2dVertex
 10
-23.041761
 20
-22.873364
 30
0.0
 70
    16
  0
VERTEX
  5
34E06
330
19E35
100
AcDbEntity
  8
TITLE_BLOCK
  6
CONTINUOUS
 62
     7
100
AcDbVertex
100
AcDb2dVertex
 10
-23.041761
 20
-22.927387
 30
0.0
 70
    16
  0
VERTEX
  5
34E07
330
19E35
100
AcDbEntity
  8
TITLE_BLOCK
  6
CONTINUOUS
 62
     7
100
AcDbVertex
100
AcDb2dVertex
 10
-23.161761
 20
-22.924965
 30
0.0
 70
    16
  0
VERTEX
  5
34E08
330
19E35
100
AcDbEntity
  8
TITLE_BLOCK
  6
CONTINUOUS
 62
     7
100
AcDbVertex
100
AcDb2dVertex
 10
-23.281761
 20
-22.924575
 30
0.0
 70
    16
  0
VERTEX
  5
34E09
330
19E35
100
AcDbEntity
  8
TITLE_BLOCK
  6
CONTINUOUS
 62
     7
100
AcDbVertex
100
AcDb2dVertex
 10
-23.401761
 20
-22.92059
 30
0.0
 70
    16
  0
VERTEX
  5
34E0A
330
19E35
100
AcDbEntity
  8
TITLE_BLOCK
  6
CONTINUOUS
 62
     7
100
AcDbVertex
100
AcDb2dVertex
 10
-23.402562
 20
-22.941372
 30
0.0
 70
    16
  0
VERTEX
  5
34E0B
330
19E35
100
AcDbEntity
  8
TITLE_BLOCK
  6
CONTINUOUS
 62
     7
100
AcDbVertex
100
AcDb2dVertex
 10
-23.403754
 20
-22.983364
 30
0.0
 70
    16
  0
VERTEX
  5
34E0C
330
19E35
100
AcDbEntity
  8
TITLE_BLOCK
  6
CONTINUOUS
 62
     7
100
AcDbVertex
100
AcDb2dVertex
 10
-23.404554
 20
-23.004184
 30
0.0
 70
    16
  0
VERTEX
  5
34E0D
330
19E35
100
AcDbEntity
  8
TITLE_BLOCK
  6
CONTINUOUS
 62
     7
100
AcDbVertex
100
AcDb2dVertex
 10
-23.296566
 20
-23.004575
 30
0.0
 70
    16
  0
VERTEX
  5
34E0E
330
19E35
100
AcDbEntity
  8
TITLE_BLOCK
  6
CONTINUOUS
 62
     7
100
AcDbVertex
100
AcDb2dVertex
 10
-23.188168
 20
-23.004575
 30
0.0
 70
    16
  0
VERTEX
  5
34E0F
330
19E35
100
AcDbEntity
  8
TITLE_BLOCK
  6
CONTINUOUS
 62
     7
100
AcDbVertex
100
AcDb2dVertex
 10
-23.08016
 20
-23.006957
 30
0.0
 70
    16
  0
VERTEX
  5
34E10
330
19E35
100
AcDbEntity
  8
TITLE_BLOCK
  6
CONTINUOUS
 62
     7
100
AcDbVertex
100
AcDb2dVertex
 10
-23.082172
 20
-23.059379
 30
0.0
 70
    16
  0
VERTEX
  5
34E11
330
19E35
100
AcDbEntity
  8
TITLE_BLOCK
  6
CONTINUOUS
 62
     7
100
AcDbVertex
100
AcDb2dVertex
 10
-23.083363
 20
-23.112192
 30
0.0
 70
    16
  0
VERTEX
  5
34E12
330
19E35
100
AcDbEntity
  8
TITLE_BLOCK
  6
CONTINUOUS
 62
     7
100
AcDbVertex
100
AcDb2dVertex
 10
-23.084554
 20
-23.164965
 30
0.0
 70
    16
  0
VERTEX
  5
34E13
330
19E35
100
AcDbEntity
  8
TITLE_BLOCK
  6
CONTINUOUS
 62
     7
100
AcDbVertex
100
AcDb2dVertex
 10
-23.191371
 20
-23.166176
 30
0.0
 70
    16
  0
VERTEX
  5
34E14
330
19E35
100
AcDbEntity
  8
TITLE_BLOCK
  6
CONTINUOUS
 62
     7
100
AcDbVertex
100
AcDb2dVertex
 10
-23.298168
 20
-23.166567
 30
0.0
 70
    16
  0
VERTEX
  5
34E15
330
19E35
100
AcDbEntity
  8
TITLE_BLOCK
  6
CONTINUOUS
 62
     7
100
AcDbVertex
100
AcDb2dVertex
 10
-23.404964
 20
-23.165786
 30
0.0
 70
    16
  0
VERTEX
  5
34E16
330
19E35
100
AcDbEntity
  8
TITLE_BLOCK
  6
CONTINUOUS
 62
     7
100
AcDbVertex
100
AcDb2dVertex
 10
-23.404164
 20
-23.196176
 30
0.0
 70
    16
  0
VERTEX
  5
34E17
330
19E35
100
AcDbEntity
  8
TITLE_BLOCK
  6
CONTINUOUS
 62
     7
100
AcDbVertex
100
AcDb2dVertex
 10
-23.402562
 20
-23.256957
 30
0.0
 70
    16
  0
VERTEX
  5
34E18
330
19E35
100
AcDbEntity
  8
TITLE_BLOCK
  6
CONTINUOUS
 62
     7
100
AcDbVertex
100
AcDb2dVertex
 10
-23.401761
 20
-23.287387
 30
0.0
 70
    16
  0
VERTEX
  5
34E19
330
19E35
100
AcDbEntity
  8
TITLE_BLOCK
  6
CONTINUOUS
 62
     7
100
AcDbVertex
100
AcDb2dVertex
 10
-23.28016
 20
-23.283364
 30
0.0
 70
    16
  0
VERTEX
  5
34E1A
330
19E35
100
AcDbEntity
  8
TITLE_BLOCK
  6
CONTINUOUS
 62
     7
100
AcDbVertex
100
AcDb2dVertex
 10
-23.158968
 20
-23.284575
 30
0.0
 70
    16
  0
VERTEX
  5
34E1B
330
19E35
100
AcDbEntity
  8
TITLE_BLOCK
  6
CONTINUOUS
 62
     7
100
AcDbVertex
100
AcDb2dVertex
 10
-23.037367
 20
-23.286567
 30
0.0
 70
    16
  0
VERTEX
  5
34E1C
330
19E35
100
AcDbEntity
  8
TITLE_BLOCK
  6
CONTINUOUS
 62
     7
100
AcDbVertex
100
AcDb2dVertex
 10
-23.040961
 20
-23.340161
 30
0.0
 70
    16
  0
VERTEX
  5
34E1D
330
19E35
100
AcDbEntity
  8
TITLE_BLOCK
  6
CONTINUOUS
 62
     7
100
AcDbVertex
100
AcDb2dVertex
 10
-23.044964
 20
-23.393793
 30
0.0
 70
    16
  0
VERTEX
  5
34E1E
330
19E35
100
AcDbEntity
  8
TITLE_BLOCK
  6
CONTINUOUS
 62
     7
100
AcDbVertex
100
AcDb2dVertex
 10
-23.048558
 20
-23.447387
 30
0.0
 70
    16
  0
VERTEX
  5
34E1F
330
19E35
100
AcDbEntity
  8
TITLE_BLOCK
  6
CONTINUOUS
 62
     7
100
AcDbVertex
100
AcDb2dVertex
 10
-23.232172
 20
-23.443364
 30
0.0
 70
    16
  0
VERTEX
  5
34E20
330
19E35
100
AcDbEntity
  8
TITLE_BLOCK
  6
CONTINUOUS
 62
     7
100
AcDbVertex
100
AcDb2dVertex
 10
-23.415355
 20
-23.443364
 30
0.0
 70
    16
  0
VERTEX
  5
34E21
330
19E35
100
AcDbEntity
  8
TITLE_BLOCK
  6
CONTINUOUS
 62
     7
100
AcDbVertex
100
AcDb2dVertex
 10
-23.598968
 20
-23.447387
 30
0.0
 70
    16
  0
VERTEX
  5
34E22
330
19E35
100
AcDbEntity
  8
TITLE_BLOCK
  6
CONTINUOUS
 62
     7
100
AcDbVertex
100
AcDb2dVertex
 10
-23.606957
 20
-23.219379
 30
0.0
 70
    16
  0
VERTEX
  5
34E23
330
19E35
100
AcDbEntity
  8
TITLE_BLOCK
  6
CONTINUOUS
 62
     7
100
AcDbVertex
100
AcDb2dVertex
 10
-23.602972
 20
-22.991372
 30
0.0
 70
    16
  0
VERTEX
  5
34E24
330
19E35
100
AcDbEntity
  8
TITLE_BLOCK
  6
CONTINUOUS
 62
     7
100
AcDbVertex
100
AcDb2dVertex
 10
-23.601371
 20
-22.763793
 30
0.0
 70
    16
  0
VERTEX
  5
34E25
330
19E35
100
AcDbEntity
  8
TITLE_BLOCK
  6
CONTINUOUS
 62
     7
100
AcDbVertex
100
AcDb2dVertex
 10
-23.601371
 20
-22.763793
 30
0.0
 70
    16
  0
VERTEX
  5
34E26
330
19E35
100
AcDbEntity
  8
TITLE_BLOCK
  6
CONTINUOUS
 62
     7
100
AcDbVertex
100
AcDb2dVertex
 10
-23.601371
 20
-22.763793
 30
0.0
 70
    16
  0
VERTEX
  5
34E27
330
19E35
100
AcDbEntity
  8
TITLE_BLOCK
  6
CONTINUOUS
 62
     7
100
AcDbVertex
100
AcDb2dVertex
 10
-23.601371
 20
-22.763793
 30
0.0
 70
    16
  0
SEQEND
  5
34E28
330
19E35
100
AcDbEntity
  8
TITLE_BLOCK
  6
CONTINUOUS
 62
     7
  0
POLYLINE
  5
19E76
330
34C93
100
AcDbEntity
  8
TITLE_BLOCK
  6
CONTINUOUS
 62
     7
100
AcDb2dPolyline
 66
     1
 10
0.0
 20
0.0
 30
0.0
 70
     5
 75
     5
  0
VERTEX
  5
34E29
330
19E76
100
AcDbEntity
  8
TITLE_BLOCK
  6
CONTINUOUS
 62
     7
100
AcDbVertex
100
AcDb2dVertex
 10
-22.842562
 20
-22.843364
 30
0.0
 70
     8
  0
VERTEX
  5
34E2A
330
19E76
100
AcDbEntity
  8
TITLE_BLOCK
  6
CONTINUOUS
 62
     7
100
AcDbVertex
100
AcDb2dVertex
 10
-22.809248
 20
-22.820535
 30
0.0
 70
     8
  0
VERTEX
  5
34E2B
330
19E76
100
AcDbEntity
  8
TITLE_BLOCK
  6
CONTINUOUS
 62
     7
100
AcDbVertex
100
AcDb2dVertex
 10
-22.773393
 20
-22.801701
 30
0.0
 70
     8
  0
VERTEX
  5
34E2C
330
19E76
100
AcDbEntity
  8
TITLE_BLOCK
  6
CONTINUOUS
 62
     7
100
AcDbVertex
100
AcDb2dVertex
 10
-22.735502
 20
-22.786869
 30
0.0
 70
     8
  0
VERTEX
  5
34E2D
330
19E76
100
AcDbEntity
  8
TITLE_BLOCK
  6
CONTINUOUS
 62
     7
100
AcDbVertex
100
AcDb2dVertex
 10
-22.696081
 20
-22.776052
 30
0.0
 70
     8
  0
VERTEX
  5
34E2E
330
19E76
100
AcDbEntity
  8
TITLE_BLOCK
  6
CONTINUOUS
 62
     7
100
AcDbVertex
100
AcDb2dVertex
 10
-22.655636
 20
-22.769258
 30
0.0
 70
     8
  0
VERTEX
  5
34E2F
330
19E76
100
AcDbEntity
  8
TITLE_BLOCK
  6
CONTINUOUS
 62
     7
100
AcDbVertex
100
AcDb2dVertex
 10
-22.614672
 20
-22.766498
 30
0.0
 70
     8
  0
VERTEX
  5
34E30
330
19E76
100
AcDbEntity
  8
TITLE_BLOCK
  6
CONTINUOUS
 62
     7
100
AcDbVertex
100
AcDb2dVertex
 10
-22.573695
 20
-22.767782
 30
0.0
 70
     8
  0
VERTEX
  5
34E31
330
19E76
100
AcDbEntity
  8
TITLE_BLOCK
  6
CONTINUOUS
 62
     7
100
AcDbVertex
100
AcDb2dVertex
 10
-22.533212
 20
-22.77312
 30
0.0
 70
     8
  0
VERTEX
  5
34E32
330
19E76
100
AcDbEntity
  8
TITLE_BLOCK
  6
CONTINUOUS
 62
     7
100
AcDbVertex
100
AcDb2dVertex
 10
-22.493726
 20
-22.782521
 30
0.0
 70
     8
  0
VERTEX
  5
34E33
330
19E76
100
AcDbEntity
  8
TITLE_BLOCK
  6
CONTINUOUS
 62
     7
100
AcDbVertex
100
AcDb2dVertex
 10
-22.455745
 20
-22.795997
 30
0.0
 70
     8
  0
VERTEX
  5
34E34
330
19E76
100
AcDbEntity
  8
TITLE_BLOCK
  6
CONTINUOUS
 62
     7
100
AcDbVertex
100
AcDb2dVertex
 10
-22.419773
 20
-22.813558
 30
0.0
 70
     8
  0
VERTEX
  5
34E35
330
19E76
100
AcDbEntity
  8
TITLE_BLOCK
  6
CONTINUOUS
 62
     7
100
AcDbVertex
100
AcDb2dVertex
 10
-22.386316
 20
-22.835212
 30
0.0
 70
     8
  0
VERTEX
  5
34E36
330
19E76
100
AcDbEntity
  8
TITLE_BLOCK
  6
CONTINUOUS
 62
     7
100
AcDbVertex
100
AcDb2dVertex
 10
-22.355881
 20
-22.860971
 30
0.0
 70
     8
  0
VERTEX
  5
34E37
330
19E76
100
AcDbEntity
  8
TITLE_BLOCK
  6
CONTINUOUS
 62
     7
100
AcDbVertex
100
AcDb2dVertex
 10
-22.328972
 20
-22.890844
 30
0.0
 70
     8
  0
VERTEX
  5
34E38
330
19E76
100
AcDbEntity
  8
TITLE_BLOCK
  6
CONTINUOUS
 62
     7
100
AcDbVertex
100
AcDb2dVertex
 10
-22.306096
 20
-22.924841
 30
0.0
 70
     8
  0
VERTEX
  5
34E39
330
19E76
100
AcDbEntity
  8
TITLE_BLOCK
  6
CONTINUOUS
 62
     7
100
AcDbVertex
100
AcDb2dVertex
 10
-22.296328
 20
-22.94339
 30
0.0
 70
     8
  0
VERTEX
  5
34E3A
330
19E76
100
AcDbEntity
  8
TITLE_BLOCK
  6
CONTINUOUS
 62
     7
100
AcDbVertex
100
AcDb2dVertex
 10
-22.287757
 20
-22.962973
 30
0.0
 70
     8
  0
VERTEX
  5
34E3B
330
19E76
100
AcDbEntity
  8
TITLE_BLOCK
  6
CONTINUOUS
 62
     7
100
AcDbVertex
100
AcDb2dVertex
 10
-22.377062
 20
-22.977275
 30
0.0
 70
     8
  0
VERTEX
  5
34E3C
330
19E76
100
AcDbEntity
  8
TITLE_BLOCK
  6
CONTINUOUS
 62
     7
100
AcDbVertex
100
AcDb2dVertex
 10
-22.465765
 20
-22.993364
 30
0.0
 70
     8
  0
VERTEX
  5
34E3D
330
19E76
100
AcDbEntity
  8
TITLE_BLOCK
  6
CONTINUOUS
 62
     7
100
AcDbVertex
100
AcDb2dVertex
 10
-22.477367
 20
-22.978206
 30
0.0
 70
     8
  0
VERTEX
  5
34E3E
330
19E76
100
AcDbEntity
  8
TITLE_BLOCK
  6
CONTINUOUS
 62
     7
100
AcDbVertex
100
AcDb2dVertex
 10
-22.490325
 20
-22.964949
 30
0.0
 70
     8
  0
VERTEX
  5
34E3F
330
19E76
100
AcDbEntity
  8
TITLE_BLOCK
  6
CONTINUOUS
 62
     7
100
AcDbVertex
100
AcDb2dVertex
 10
-22.504484
 20
-22.953553
 30
0.0
 70
     8
  0
VERTEX
  5
34E40
330
19E76
100
AcDbEntity
  8
TITLE_BLOCK
  6
CONTINUOUS
 62
     7
100
AcDbVertex
100
AcDb2dVertex
 10
-22.51969
 20
-22.943977
 30
0.0
 70
     8
  0
VERTEX
  5
34E41
330
19E76
100
AcDbEntity
  8
TITLE_BLOCK
  6
CONTINUOUS
 62
     7
100
AcDbVertex
100
AcDb2dVertex
 10
-22.53579
 20
-22.936181
 30
0.0
 70
     8
  0
VERTEX
  5
34E42
330
19E76
100
AcDbEntity
  8
TITLE_BLOCK
  6
CONTINUOUS
 62
     7
100
AcDbVertex
100
AcDb2dVertex
 10
-22.552628
 20
-22.930126
 30
0.0
 70
     8
  0
VERTEX
  5
34E43
330
19E76
100
AcDbEntity
  8
TITLE_BLOCK
  6
CONTINUOUS
 62
     7
100
AcDbVertex
100
AcDb2dVertex
 10
-22.570052
 20
-22.925773
 30
0.0
 70
     8
  0
VERTEX
  5
34E44
330
19E76
100
AcDbEntity
  8
TITLE_BLOCK
  6
CONTINUOUS
 62
     7
100
AcDbVertex
100
AcDb2dVertex
 10
-22.587906
 20
-22.923081
 30
0.0
 70
     8
  0
VERTEX
  5
34E45
330
19E76
100
AcDbEntity
  8
TITLE_BLOCK
  6
CONTINUOUS
 62
     7
100
AcDbVertex
100
AcDb2dVertex
 10
-22.624291
 20
-22.92252
 30
0.0
 70
     8
  0
VERTEX
  5
34E46
330
19E76
100
AcDbEntity
  8
TITLE_BLOCK
  6
CONTINUOUS
 62
     7
100
AcDbVertex
100
AcDb2dVertex
 10
-22.66055
 20
-22.928127
 30
0.0
 70
     8
  0
VERTEX
  5
34E47
330
19E76
100
AcDbEntity
  8
TITLE_BLOCK
  6
CONTINUOUS
 62
     7
100
AcDbVertex
100
AcDb2dVertex
 10
-22.69545
 20
-22.939582
 30
0.0
 70
     8
  0
VERTEX
  5
34E48
330
19E76
100
AcDbEntity
  8
TITLE_BLOCK
  6
CONTINUOUS
 62
     7
100
AcDbVertex
100
AcDb2dVertex
 10
-22.727757
 20
-22.956567
 30
0.0
 70
     8
  0
VERTEX
  5
34E49
330
19E76
100
AcDbEntity
  8
TITLE_BLOCK
  6
CONTINUOUS
 62
     7
100
AcDbVertex
100
AcDb2dVertex
 10
-22.742867
 20
-22.979024
 30
0.0
 70
     8
  0
VERTEX
  5
34E4A
330
19E76
100
AcDbEntity
  8
TITLE_BLOCK
  6
CONTINUOUS
 62
     7
100
AcDbVertex
100
AcDb2dVertex
 10
-22.753083
 20
-23.003478
 30
0.0
 70
     8
  0
VERTEX
  5
34E4B
330
19E76
100
AcDbEntity
  8
TITLE_BLOCK
  6
CONTINUOUS
 62
     7
100
AcDbVertex
100
AcDb2dVertex
 10
-22.759288
 20
-23.029451
 30
0.0
 70
     8
  0
VERTEX
  5
34E4C
330
19E76
100
AcDbEntity
  8
TITLE_BLOCK
  6
CONTINUOUS
 62
     7
100
AcDbVertex
100
AcDb2dVertex
 10
-22.762362
 20
-23.056464
 30
0.0
 70
     8
  0
VERTEX
  5
34E4D
330
19E76
100
AcDbEntity
  8
TITLE_BLOCK
  6
CONTINUOUS
 62
     7
100
AcDbVertex
100
AcDb2dVertex
 10
-22.762639
 20
-23.111699
 30
0.0
 70
     8
  0
VERTEX
  5
34E4E
330
19E76
100
AcDbEntity
  8
TITLE_BLOCK
  6
CONTINUOUS
 62
     7
100
AcDbVertex
100
AcDb2dVertex
 10
-22.760961
 20
-23.165356
 30
0.0
 70
     8
  0
VERTEX
  5
34E4F
330
19E76
100
AcDbEntity
  8
TITLE_BLOCK
  6
CONTINUOUS
 62
     7
100
AcDbVertex
100
AcDb2dVertex
 10
-22.759549
 20
-23.194644
 30
0.0
 70
     8
  0
VERTEX
  5
34E50
330
19E76
100
AcDbEntity
  8
TITLE_BLOCK
  6
CONTINUOUS
 62
     7
100
AcDbVertex
100
AcDb2dVertex
 10
-22.75249
 20
-23.219714
 30
0.0
 70
     8
  0
VERTEX
  5
34E51
330
19E76
100
AcDbEntity
  8
TITLE_BLOCK
  6
CONTINUOUS
 62
     7
100
AcDbVertex
100
AcDb2dVertex
 10
-22.740503
 20
-23.240662
 30
0.0
 70
     8
  0
VERTEX
  5
34E52
330
19E76
100
AcDbEntity
  8
TITLE_BLOCK
  6
CONTINUOUS
 62
     7
100
AcDbVertex
100
AcDb2dVertex
 10
-22.724307
 20
-23.257584
 30
0.0
 70
     8
  0
VERTEX
  5
34E53
330
19E76
100
AcDbEntity
  8
TITLE_BLOCK
  6
CONTINUOUS
 62
     7
100
AcDbVertex
100
AcDb2dVertex
 10
-22.704621
 20
-23.270575
 30
0.0
 70
     8
  0
VERTEX
  5
34E54
330
19E76
100
AcDbEntity
  8
TITLE_BLOCK
  6
CONTINUOUS
 62
     7
100
AcDbVertex
100
AcDb2dVertex
 10
-22.682164
 20
-23.27973
 30
0.0
 70
     8
  0
VERTEX
  5
34E55
330
19E76
100
AcDbEntity
  8
TITLE_BLOCK
  6
CONTINUOUS
 62
     7
100
AcDbVertex
100
AcDb2dVertex
 10
-22.657655
 20
-23.285147
 30
0.0
 70
     8
  0
VERTEX
  5
34E56
330
19E76
100
AcDbEntity
  8
TITLE_BLOCK
  6
CONTINUOUS
 62
     7
100
AcDbVertex
100
AcDb2dVertex
 10
-22.631813
 20
-23.286918
 30
0.0
 70
     8
  0
VERTEX
  5
34E57
330
19E76
100
AcDbEntity
  8
TITLE_BLOCK
  6
CONTINUOUS
 62
     7
100
AcDbVertex
100
AcDb2dVertex
 10
-22.605356
 20
-23.285142
 30
0.0
 70
     8
  0
VERTEX
  5
34E58
330
19E76
100
AcDbEntity
  8
TITLE_BLOCK
  6
CONTINUOUS
 62
     7
100
AcDbVertex
100
AcDb2dVertex
 10
-22.579005
 20
-23.279912
 30
0.0
 70
     8
  0
VERTEX
  5
34E59
330
19E76
100
AcDbEntity
  8
TITLE_BLOCK
  6
CONTINUOUS
 62
     7
100
AcDbVertex
100
AcDb2dVertex
 10
-22.553477
 20
-23.271325
 30
0.0
 70
     8
  0
VERTEX
  5
34E5A
330
19E76
100
AcDbEntity
  8
TITLE_BLOCK
  6
CONTINUOUS
 62
     7
100
AcDbVertex
100
AcDb2dVertex
 10
-22.529492
 20
-23.259476
 30
0.0
 70
     8
  0
VERTEX
  5
34E5B
330
19E76
100
AcDbEntity
  8
TITLE_BLOCK
  6
CONTINUOUS
 62
     7
100
AcDbVertex
100
AcDb2dVertex
 10
-22.50777
 20
-23.24446
 30
0.0
 70
     8
  0
VERTEX
  5
34E5C
330
19E76
100
AcDbEntity
  8
TITLE_BLOCK
  6
CONTINUOUS
 62
     7
100
AcDbVertex
100
AcDb2dVertex
 10
-22.489028
 20
-23.226374
 30
0.0
 70
     8
  0
VERTEX
  5
34E5D
330
19E76
100
AcDbEntity
  8
TITLE_BLOCK
  6
CONTINUOUS
 62
     7
100
AcDbVertex
100
AcDb2dVertex
 10
-22.473986
 20
-23.205313
 30
0.0
 70
     8
  0
VERTEX
  5
34E5E
330
19E76
100
AcDbEntity
  8
TITLE_BLOCK
  6
CONTINUOUS
 62
     7
100
AcDbVertex
100
AcDb2dVertex
 10
-22.463363
 20
-23.181372
 30
0.0
 70
     8
  0
VERTEX
  5
34E5F
330
19E76
100
AcDbEntity
  8
TITLE_BLOCK
  6
CONTINUOUS
 62
     7
100
AcDbVertex
100
AcDb2dVertex
 10
-22.29057
 20
-23.211372
 30
0.0
 70
     8
  0
VERTEX
  5
34E60
330
19E76
100
AcDbEntity
  8
TITLE_BLOCK
  6
CONTINUOUS
 62
     7
100
AcDbVertex
100
AcDb2dVertex
 10
-22.294861
 20
-23.235572
 30
0.0
 70
     8
  0
VERTEX
  5
34E61
330
19E76
100
AcDbEntity
  8
TITLE_BLOCK
  6
CONTINUOUS
 62
     7
100
AcDbVertex
100
AcDb2dVertex
 10
-22.301474
 20
-23.258132
 30
0.0
 70
     8
  0
VERTEX
  5
34E62
330
19E76
100
AcDbEntity
  8
TITLE_BLOCK
  6
CONTINUOUS
 62
     7
100
AcDbVertex
100
AcDb2dVertex
 10
-22.310237
 20
-23.279136
 30
0.0
 70
     8
  0
VERTEX
  5
34E63
330
19E76
100
AcDbEntity
  8
TITLE_BLOCK
  6
CONTINUOUS
 62
     7
100
AcDbVertex
100
AcDb2dVertex
 10
-22.320977
 20
-23.298668
 30
0.0
 70
     8
  0
VERTEX
  5
34E64
330
19E76
100
AcDbEntity
  8
TITLE_BLOCK
  6
CONTINUOUS
 62
     7
100
AcDbVertex
100
AcDb2dVertex
 10
-22.333522
 20
-23.316813
 30
0.0
 70
     8
  0
VERTEX
  5
34E65
330
19E76
100
AcDbEntity
  8
TITLE_BLOCK
  6
CONTINUOUS
 62
     7
100
AcDbVertex
100
AcDb2dVertex
 10
-22.3477
 20
-23.333656
 30
0.0
 70
     8
  0
VERTEX
  5
34E66
330
19E76
100
AcDbEntity
  8
TITLE_BLOCK
  6
CONTINUOUS
 62
     7
100
AcDbVertex
100
AcDb2dVertex
 10
-22.363338
 20
-23.349279
 30
0.0
 70
     8
  0
VERTEX
  5
34E67
330
19E76
100
AcDbEntity
  8
TITLE_BLOCK
  6
CONTINUOUS
 62
     7
100
AcDbVertex
100
AcDb2dVertex
 10
-22.380265
 20
-23.363769
 30
0.0
 70
     8
  0
VERTEX
  5
34E68
330
19E76
100
AcDbEntity
  8
TITLE_BLOCK
  6
CONTINUOUS
 62
     7
100
AcDbVertex
100
AcDb2dVertex
 10
-22.417293
 20
-23.389684
 30
0.0
 70
     8
  0
VERTEX
  5
34E69
330
19E76
100
AcDbEntity
  8
TITLE_BLOCK
  6
CONTINUOUS
 62
     7
100
AcDbVertex
100
AcDb2dVertex
 10
-22.457406
 20
-23.412075
 30
0.0
 70
     8
  0
VERTEX
  5
34E6A
330
19E76
100
AcDbEntity
  8
TITLE_BLOCK
  6
CONTINUOUS
 62
     7
100
AcDbVertex
100
AcDb2dVertex
 10
-22.499224
 20
-23.431619
 30
0.0
 70
     8
  0
VERTEX
  5
34E6B
330
19E76
100
AcDbEntity
  8
TITLE_BLOCK
  6
CONTINUOUS
 62
     7
100
AcDbVertex
100
AcDb2dVertex
 10
-22.541371
 20
-23.448989
 30
0.0
 70
     8
  0
VERTEX
  5
34E6C
330
19E76
100
AcDbEntity
  8
TITLE_BLOCK
  6
CONTINUOUS
 62
     7
100
AcDbVertex
100
AcDb2dVertex
 10
-22.633814
 20
-23.439504
 30
0.0
 70
     8
  0
VERTEX
  5
34E6D
330
19E76
100
AcDbEntity
  8
TITLE_BLOCK
  6
CONTINUOUS
 62
     7
100
AcDbVertex
100
AcDb2dVertex
 10
-22.680917
 20
-23.432537
 30
0.0
 70
     8
  0
VERTEX
  5
34E6E
330
19E76
100
AcDbEntity
  8
TITLE_BLOCK
  6
CONTINUOUS
 62
     7
100
AcDbVertex
100
AcDb2dVertex
 10
-22.727159
 20
-23.422416
 30
0.0
 70
     8
  0
VERTEX
  5
34E6F
330
19E76
100
AcDbEntity
  8
TITLE_BLOCK
  6
CONTINUOUS
 62
     7
100
AcDbVertex
100
AcDb2dVertex
 10
-22.771452
 20
-23.407891
 30
0.0
 70
     8
  0
VERTEX
  5
34E70
330
19E76
100
AcDbEntity
  8
TITLE_BLOCK
  6
CONTINUOUS
 62
     7
100
AcDbVertex
100
AcDb2dVertex
 10
-22.792528
 20
-23.398584
 30
0.0
 70
     8
  0
VERTEX
  5
34E71
330
19E76
100
AcDbEntity
  8
TITLE_BLOCK
  6
CONTINUOUS
 62
     7
100
AcDbVertex
100
AcDb2dVertex
 10
-22.812708
 20
-23.387707
 30
0.0
 70
     8
  0
VERTEX
  5
34E72
330
19E76
100
AcDbEntity
  8
TITLE_BLOCK
  6
CONTINUOUS
 62
     7
100
AcDbVertex
100
AcDb2dVertex
 10
-22.831858
 20
-23.375102
 30
0.0
 70
     8
  0
VERTEX
  5
34E73
330
19E76
100
AcDbEntity
  8
TITLE_BLOCK
  6
CONTINUOUS
 62
     7
100
AcDbVertex
100
AcDb2dVertex
 10
-22.849841
 20
-23.360613
 30
0.0
 70
     8
  0
VERTEX
  5
34E74
330
19E76
100
AcDbEntity
  8
TITLE_BLOCK
  6
CONTINUOUS
 62
     7
100
AcDbVertex
100
AcDb2dVertex
 10
-22.86652
 20
-23.344083
 30
0.0
 70
     8
  0
VERTEX
  5
34E75
330
19E76
100
AcDbEntity
  8
TITLE_BLOCK
  6
CONTINUOUS
 62
     7
100
AcDbVertex
100
AcDb2dVertex
 10
-22.881761
 20
-23.325356
 30
0.0
 70
     8
  0
VERTEX
  5
34E76
330
19E76
100
AcDbEntity
  8
TITLE_BLOCK
  6
CONTINUOUS
 62
     7
100
AcDbVertex
100
AcDb2dVertex
 10
-22.901742
 20
-23.298639
 30
0.0
 70
     8
  0
VERTEX
  5
34E77
330
19E76
100
AcDbEntity
  8
TITLE_BLOCK
  6
CONTINUOUS
 62
     7
100
AcDbVertex
100
AcDb2dVertex
 10
-22.918778
 20
-23.269997
 30
0.0
 70
     8
  0
VERTEX
  5
34E78
330
19E76
100
AcDbEntity
  8
TITLE_BLOCK
  6
CONTINUOUS
 62
     7
100
AcDbVertex
100
AcDb2dVertex
 10
-22.932859
 20
-23.239745
 30
0.0
 70
     8
  0
VERTEX
  5
34E79
330
19E76
100
AcDbEntity
  8
TITLE_BLOCK
  6
CONTINUOUS
 62
     7
100
AcDbVertex
100
AcDb2dVertex
 10
-22.943977
 20
-23.208198
 30
0.0
 70
     8
  0
VERTEX
  5
34E7A
330
19E76
100
AcDbEntity
  8
TITLE_BLOCK
  6
CONTINUOUS
 62
     7
100
AcDbVertex
100
AcDb2dVertex
 10
-22.95212
 20
-23.175671
 30
0.0
 70
     8
  0
VERTEX
  5
34E7B
330
19E76
100
AcDbEntity
  8
TITLE_BLOCK
  6
CONTINUOUS
 62
     7
100
AcDbVertex
100
AcDb2dVertex
 10
-22.95728
 20
-23.14248
 30
0.0
 70
     8
  0
VERTEX
  5
34E7C
330
19E76
100
AcDbEntity
  8
TITLE_BLOCK
  6
CONTINUOUS
 62
     7
100
AcDbVertex
100
AcDb2dVertex
 10
-22.959446
 20
-23.10894
 30
0.0
 70
     8
  0
VERTEX
  5
34E7D
330
19E76
100
AcDbEntity
  8
TITLE_BLOCK
  6
CONTINUOUS
 62
     7
100
AcDbVertex
100
AcDb2dVertex
 10
-22.958607
 20
-23.075366
 30
0.0
 70
     8
  0
VERTEX
  5
34E7E
330
19E76
100
AcDbEntity
  8
TITLE_BLOCK
  6
CONTINUOUS
 62
     7
100
AcDbVertex
100
AcDb2dVertex
 10
-22.954755
 20
-23.042072
 30
0.0
 70
     8
  0
VERTEX
  5
34E7F
330
19E76
100
AcDbEntity
  8
TITLE_BLOCK
  6
CONTINUOUS
 62
     7
100
AcDbVertex
100
AcDb2dVertex
 10
-22.947878
 20
-23.009375
 30
0.0
 70
     8
  0
VERTEX
  5
34E80
330
19E76
100
AcDbEntity
  8
TITLE_BLOCK
  6
CONTINUOUS
 62
     7
100
AcDbVertex
100
AcDb2dVertex
 10
-22.937968
 20
-22.97759
 30
0.0
 70
     8
  0
VERTEX
  5
34E81
330
19E76
100
AcDbEntity
  8
TITLE_BLOCK
  6
CONTINUOUS
 62
     7
100
AcDbVertex
100
AcDb2dVertex
 10
-22.925015
 20
-22.947031
 30
0.0
 70
     8
  0
VERTEX
  5
34E82
330
19E76
100
AcDbEntity
  8
TITLE_BLOCK
  6
CONTINUOUS
 62
     7
100
AcDbVertex
100
AcDb2dVertex
 10
-22.909007
 20
-22.918013
 30
0.0
 70
     8
  0
VERTEX
  5
34E83
330
19E76
100
AcDbEntity
  8
TITLE_BLOCK
  6
CONTINUOUS
 62
     7
100
AcDbVertex
100
AcDb2dVertex
 10
-22.889936
 20
-22.890853
 30
0.0
 70
     8
  0
VERTEX
  5
34E84
330
19E76
100
AcDbEntity
  8
TITLE_BLOCK
  6
CONTINUOUS
 62
     7
100
AcDbVertex
100
AcDb2dVertex
 10
-22.867791
 20
-22.865865
 30
0.0
 70
     8
  0
VERTEX
  5
34E85
330
19E76
100
AcDbEntity
  8
TITLE_BLOCK
  6
CONTINUOUS
 62
     7
100
AcDbVertex
100
AcDb2dVertex
 10
-22.842562
 20
-22.843364
 30
0.0
 70
     8
  0
VERTEX
  5
34E86
330
19E76
100
AcDbEntity
  8
TITLE_BLOCK
  6
CONTINUOUS
 62
     7
100
AcDbVertex
100
AcDb2dVertex
 10
-22.842562
 20
-22.843364
 30
0.0
 70
     8
  0
VERTEX
  5
34E87
330
19E76
100
AcDbEntity
  8
TITLE_BLOCK
  6
CONTINUOUS
 62
     7
100
AcDbVertex
100
AcDb2dVertex
 10
-22.842562
 20
-22.843364
 30
0.0
 70
    16
  0
VERTEX
  5
34E88
330
19E76
100
AcDbEntity
  8
TITLE_BLOCK
  6
CONTINUOUS
 62
     7
100
AcDbVertex
100
AcDb2dVertex
 10
-22.672562
 20
-22.710981
 30
0.0
 70
    16
  0
VERTEX
  5
34E89
330
19E76
100
AcDbEntity
  8
TITLE_BLOCK
  6
CONTINUOUS
 62
     7
100
AcDbVertex
100
AcDb2dVertex
 10
-22.372562
 20
-22.748559
 30
0.0
 70
    16
  0
VERTEX
  5
34E8A
330
19E76
100
AcDbEntity
  8
TITLE_BLOCK
  6
CONTINUOUS
 62
     7
100
AcDbVertex
100
AcDb2dVertex
 10
-22.287757
 20
-22.962973
 30
0.0
 70
    16
  0
VERTEX
  5
34E8B
330
19E76
100
AcDbEntity
  8
TITLE_BLOCK
  6
CONTINUOUS
 62
     7
100
AcDbVertex
100
AcDb2dVertex
 10
-22.347367
 20
-22.972192
 30
0.0
 70
    16
  0
VERTEX
  5
34E8C
330
19E76
100
AcDbEntity
  8
TITLE_BLOCK
  6
CONTINUOUS
 62
     7
100
AcDbVertex
100
AcDb2dVertex
 10
-22.406957
 20
-22.981762
 30
0.0
 70
    16
  0
VERTEX
  5
34E8D
330
19E76
100
AcDbEntity
  8
TITLE_BLOCK
  6
CONTINUOUS
 62
     7
100
AcDbVertex
100
AcDb2dVertex
 10
-22.465765
 20
-22.993364
 30
0.0
 70
    16
  0
VERTEX
  5
34E8E
330
19E76
100
AcDbEntity
  8
TITLE_BLOCK
  6
CONTINUOUS
 62
     7
100
AcDbVertex
100
AcDb2dVertex
 10
-22.523754
 20
-22.907387
 30
0.0
 70
    16
  0
VERTEX
  5
34E8F
330
19E76
100
AcDbEntity
  8
TITLE_BLOCK
  6
CONTINUOUS
 62
     7
100
AcDbVertex
100
AcDb2dVertex
 10
-22.646156
 20
-22.904184
 30
0.0
 70
    16
  0
VERTEX
  5
34E90
330
19E76
100
AcDbEntity
  8
TITLE_BLOCK
  6
CONTINUOUS
 62
     7
100
AcDbVertex
100
AcDb2dVertex
 10
-22.727757
 20
-22.956567
 30
0.0
 70
    16
  0
VERTEX
  5
34E91
330
19E76
100
AcDbEntity
  8
TITLE_BLOCK
  6
CONTINUOUS
 62
     7
100
AcDbVertex
100
AcDb2dVertex
 10
-22.775355
 20
-23.013364
 30
0.0
 70
    16
  0
VERTEX
  5
34E92
330
19E76
100
AcDbEntity
  8
TITLE_BLOCK
  6
CONTINUOUS
 62
     7
100
AcDbVertex
100
AcDb2dVertex
 10
-22.761371
 20
-23.096567
 30
0.0
 70
    16
  0
VERTEX
  5
34E93
330
19E76
100
AcDbEntity
  8
TITLE_BLOCK
  6
CONTINUOUS
 62
     7
100
AcDbVertex
100
AcDb2dVertex
 10
-22.760961
 20
-23.165356
 30
0.0
 70
    16
  0
VERTEX
  5
34E94
330
19E76
100
AcDbEntity
  8
TITLE_BLOCK
  6
CONTINUOUS
 62
     7
100
AcDbVertex
100
AcDb2dVertex
 10
-22.769769
 20
-23.332973
 30
0.0
 70
    16
  0
VERTEX
  5
34E95
330
19E76
100
AcDbEntity
  8
TITLE_BLOCK
  6
CONTINUOUS
 62
     7
100
AcDbVertex
100
AcDb2dVertex
 10
-22.506957
 20
-23.316567
 30
0.0
 70
    16
  0
VERTEX
  5
34E96
330
19E76
100
AcDbEntity
  8
TITLE_BLOCK
  6
CONTINUOUS
 62
     7
100
AcDbVertex
100
AcDb2dVertex
 10
-22.463363
 20
-23.181372
 30
0.0
 70
    16
  0
VERTEX
  5
34E97
330
19E76
100
AcDbEntity
  8
TITLE_BLOCK
  6
CONTINUOUS
 62
     7
100
AcDbVertex
100
AcDb2dVertex
 10
-22.405765
 20
-23.191762
 30
0.0
 70
    16
  0
VERTEX
  5
34E98
330
19E76
100
AcDbEntity
  8
TITLE_BLOCK
  6
CONTINUOUS
 62
     7
100
AcDbVertex
100
AcDb2dVertex
 10
-22.348168
 20
-23.201762
 30
0.0
 70
    16
  0
VERTEX
  5
34E99
330
19E76
100
AcDbEntity
  8
TITLE_BLOCK
  6
CONTINUOUS
 62
     7
100
AcDbVertex
100
AcDb2dVertex
 10
-22.29057
 20
-23.211372
 30
0.0
 70
    16
  0
VERTEX
  5
34E9A
330
19E76
100
AcDbEntity
  8
TITLE_BLOCK
  6
CONTINUOUS
 62
     7
100
AcDbVertex
100
AcDb2dVertex
 10
-22.306957
 20
-23.344965
 30
0.0
 70
    16
  0
VERTEX
  5
34E9B
330
19E76
100
AcDbEntity
  8
TITLE_BLOCK
  6
CONTINUOUS
 62
     7
100
AcDbVertex
100
AcDb2dVertex
 10
-22.429769
 20
-23.404965
 30
0.0
 70
    16
  0
VERTEX
  5
34E9C
330
19E76
100
AcDbEntity
  8
TITLE_BLOCK
  6
CONTINUOUS
 62
     7
100
AcDbVertex
100
AcDb2dVertex
 10
-22.541371
 20
-23.448989
 30
0.0
 70
    16
  0
VERTEX
  5
34E9D
330
19E76
100
AcDbEntity
  8
TITLE_BLOCK
  6
CONTINUOUS
 62
     7
100
AcDbVertex
100
AcDb2dVertex
 10
-22.66016
 20
-23.436957
 30
0.0
 70
    16
  0
VERTEX
  5
34E9E
330
19E76
100
AcDbEntity
  8
TITLE_BLOCK
  6
CONTINUOUS
 62
     7
100
AcDbVertex
100
AcDb2dVertex
 10
-22.804554
 20
-23.431372
 30
0.0
 70
    16
  0
VERTEX
  5
34E9F
330
19E76
100
AcDbEntity
  8
TITLE_BLOCK
  6
CONTINUOUS
 62
     7
100
AcDbVertex
100
AcDb2dVertex
 10
-22.881761
 20
-23.325356
 30
0.0
 70
    16
  0
VERTEX
  5
34EA0
330
19E76
100
AcDbEntity
  8
TITLE_BLOCK
  6
CONTINUOUS
 62
     7
100
AcDbVertex
100
AcDb2dVertex
 10
-22.996156
 20
-23.188559
 30
0.0
 70
    16
  0
VERTEX
  5
34EA1
330
19E76
100
AcDbEntity
  8
TITLE_BLOCK
  6
CONTINUOUS
 62
     7
100
AcDbVertex
100
AcDb2dVertex
 10
-22.985355
 20
-22.956176
 30
0.0
 70
    16
  0
VERTEX
  5
34EA2
330
19E76
100
AcDbEntity
  8
TITLE_BLOCK
  6
CONTINUOUS
 62
     7
100
AcDbVertex
100
AcDb2dVertex
 10
-22.842562
 20
-22.843364
 30
0.0
 70
    16
  0
VERTEX
  5
34EA3
330
19E76
100
AcDbEntity
  8
TITLE_BLOCK
  6
CONTINUOUS
 62
     7
100
AcDbVertex
100
AcDb2dVertex
 10
-22.842562
 20
-22.843364
 30
0.0
 70
    16
  0
VERTEX
  5
34EA4
330
19E76
100
AcDbEntity
  8
TITLE_BLOCK
  6
CONTINUOUS
 62
     7
100
AcDbVertex
100
AcDb2dVertex
 10
-22.842562
 20
-22.843364
 30
0.0
 70
    16
  0
VERTEX
  5
34EA5
330
19E76
100
AcDbEntity
  8
TITLE_BLOCK
  6
CONTINUOUS
 62
     7
100
AcDbVertex
100
AcDb2dVertex
 10
-22.842562
 20
-22.843364
 30
0.0
 70
    16
  0
SEQEND
  5
34EA6
330
19E76
100
AcDbEntity
  8
TITLE_BLOCK
  6
CONTINUOUS
 62
     7
  0
POLYLINE
  5
19EF4
330
34C93
100
AcDbEntity
  8
TITLE_BLOCK
  6
CONTINUOUS
 62
     7
100
AcDb2dPolyline
 66
     1
 10
0.0
 20
0.0
 30
0.0
 70
     5
 75
     5
  0
VERTEX
  5
34EA7
330
19EF4
100
AcDbEntity
  8
TITLE_BLOCK
  6
CONTINUOUS
 62
     7
100
AcDbVertex
100
AcDb2dVertex
 10
-22.161761
 20
-22.764575
 30
0.0
 70
     8
  0
VERTEX
  5
34EA8
330
19EF4
100
AcDbEntity
  8
TITLE_BLOCK
  6
CONTINUOUS
 62
     7
100
AcDbVertex
100
AcDb2dVertex
 10
-21.962953
 20
-22.762192
 30
0.0
 70
     8
  0
VERTEX
  5
34EA9
330
19EF4
100
AcDbEntity
  8
TITLE_BLOCK
  6
CONTINUOUS
 62
     7
100
AcDbVertex
100
AcDb2dVertex
 10
-21.963558
 20
-23.024316
 30
0.0
 70
     8
  0
VERTEX
  5
34EAA
330
19EF4
100
AcDbEntity
  8
TITLE_BLOCK
  6
CONTINUOUS
 62
     7
100
AcDbVertex
100
AcDb2dVertex
 10
-21.962398
 20
-23.155299
 30
0.0
 70
     8
  0
VERTEX
  5
34EAB
330
19EF4
100
AcDbEntity
  8
TITLE_BLOCK
  6
CONTINUOUS
 62
     7
100
AcDbVertex
100
AcDb2dVertex
 10
-21.959359
 20
-23.286176
 30
0.0
 70
     8
  0
VERTEX
  5
34EAC
330
19EF4
100
AcDbEntity
  8
TITLE_BLOCK
  6
CONTINUOUS
 62
     7
100
AcDbVertex
100
AcDb2dVertex
 10
-21.645355
 20
-23.283364
 30
0.0
 70
     8
  0
VERTEX
  5
34EAD
330
19EF4
100
AcDbEntity
  8
TITLE_BLOCK
  6
CONTINUOUS
 62
     7
100
AcDbVertex
100
AcDb2dVertex
 10
-21.638558
 20
-23.443793
 30
0.0
 70
     8
  0
VERTEX
  5
34EAE
330
19EF4
100
AcDbEntity
  8
TITLE_BLOCK
  6
CONTINUOUS
 62
     7
100
AcDbVertex
100
AcDb2dVertex
 10
-21.899759
 20
-23.444326
 30
0.0
 70
     8
  0
VERTEX
  5
34EAF
330
19EF4
100
AcDbEntity
  8
TITLE_BLOCK
  6
CONTINUOUS
 62
     7
100
AcDbVertex
100
AcDb2dVertex
 10
-22.160961
 20
-23.443364
 30
0.0
 70
     8
  0
VERTEX
  5
34EB0
330
19EF4
100
AcDbEntity
  8
TITLE_BLOCK
  6
CONTINUOUS
 62
     7
100
AcDbVertex
100
AcDb2dVertex
 10
-22.163901
 20
-23.273807
 30
0.0
 70
     8
  0
VERTEX
  5
34EB1
330
19EF4
100
AcDbEntity
  8
TITLE_BLOCK
  6
CONTINUOUS
 62
     7
100
AcDbVertex
100
AcDb2dVertex
 10
-22.164064
 20
-23.10413
 30
0.0
 70
     8
  0
VERTEX
  5
34EB2
330
19EF4
100
AcDbEntity
  8
TITLE_BLOCK
  6
CONTINUOUS
 62
     7
100
AcDbVertex
100
AcDb2dVertex
 10
-22.161761
 20
-22.764575
 30
0.0
 70
     8
  0
VERTEX
  5
34EB3
330
19EF4
100
AcDbEntity
  8
TITLE_BLOCK
  6
CONTINUOUS
 62
     7
100
AcDbVertex
100
AcDb2dVertex
 10
-22.161761
 20
-22.764575
 30
0.0
 70
     8
  0
VERTEX
  5
34EB4
330
19EF4
100
AcDbEntity
  8
TITLE_BLOCK
  6
CONTINUOUS
 62
     7
100
AcDbVertex
100
AcDb2dVertex
 10
-22.161761
 20
-22.764575
 30
0.0
 70
    16
  0
VERTEX
  5
34EB5
330
19EF4
100
AcDbEntity
  8
TITLE_BLOCK
  6
CONTINUOUS
 62
     7
100
AcDbVertex
100
AcDb2dVertex
 10
-22.095355
 20
-22.763793
 30
0.0
 70
    16
  0
VERTEX
  5
34EB6
330
19EF4
100
AcDbEntity
  8
TITLE_BLOCK
  6
CONTINUOUS
 62
     7
100
AcDbVertex
100
AcDb2dVertex
 10
-22.029359
 20
-22.763364
 30
0.0
 70
    16
  0
VERTEX
  5
34EB7
330
19EF4
100
AcDbEntity
  8
TITLE_BLOCK
  6
CONTINUOUS
 62
     7
100
AcDbVertex
100
AcDb2dVertex
 10
-21.962953
 20
-22.762192
 30
0.0
 70
    16
  0
VERTEX
  5
34EB8
330
19EF4
100
AcDbEntity
  8
TITLE_BLOCK
  6
CONTINUOUS
 62
     7
100
AcDbVertex
100
AcDb2dVertex
 10
-21.963754
 20
-22.936957
 30
0.0
 70
    16
  0
VERTEX
  5
34EB9
330
19EF4
100
AcDbEntity
  8
TITLE_BLOCK
  6
CONTINUOUS
 62
     7
100
AcDbVertex
100
AcDb2dVertex
 10
-21.964964
 20
-23.111762
 30
0.0
 70
    16
  0
VERTEX
  5
34EBA
330
19EF4
100
AcDbEntity
  8
TITLE_BLOCK
  6
CONTINUOUS
 62
     7
100
AcDbVertex
100
AcDb2dVertex
 10
-21.959359
 20
-23.286176
 30
0.0
 70
    16
  0
VERTEX
  5
34EBB
330
19EF4
100
AcDbEntity
  8
TITLE_BLOCK
  6
CONTINUOUS
 62
     7
100
AcDbVertex
100
AcDb2dVertex
 10
-21.854964
 20
-23.283793
 30
0.0
 70
    16
  0
VERTEX
  5
34EBC
330
19EF4
100
AcDbEntity
  8
TITLE_BLOCK
  6
CONTINUOUS
 62
     7
100
AcDbVertex
100
AcDb2dVertex
 10
-21.75016
 20
-23.284184
 30
0.0
 70
    16
  0
VERTEX
  5
34EBD
330
19EF4
100
AcDbEntity
  8
TITLE_BLOCK
  6
CONTINUOUS
 62
     7
100
AcDbVertex
100
AcDb2dVertex
 10
-21.645355
 20
-23.283364
 30
0.0
 70
    16
  0
VERTEX
  5
34EBE
330
19EF4
100
AcDbEntity
  8
TITLE_BLOCK
  6
CONTINUOUS
 62
     7
100
AcDbVertex
100
AcDb2dVertex
 10
-21.642953
 20
-23.336957
 30
0.0
 70
    16
  0
VERTEX
  5
34EBF
330
19EF4
100
AcDbEntity
  8
TITLE_BLOCK
  6
CONTINUOUS
 62
     7
100
AcDbVertex
100
AcDb2dVertex
 10
-21.640961
 20
-23.390161
 30
0.0
 70
    16
  0
VERTEX
  5
34EC0
330
19EF4
100
AcDbEntity
  8
TITLE_BLOCK
  6
CONTINUOUS
 62
     7
100
AcDbVertex
100
AcDb2dVertex
 10
-21.638558
 20
-23.443793
 30
0.0
 70
    16
  0
VERTEX
  5
34EC1
330
19EF4
100
AcDbEntity
  8
TITLE_BLOCK
  6
CONTINUOUS
 62
     7
100
AcDbVertex
100
AcDb2dVertex
 10
-21.812562
 20
-23.446176
 30
0.0
 70
    16
  0
VERTEX
  5
34EC2
330
19EF4
100
AcDbEntity
  8
TITLE_BLOCK
  6
CONTINUOUS
 62
     7
100
AcDbVertex
100
AcDb2dVertex
 10
-21.986957
 20
-23.442973
 30
0.0
 70
    16
  0
VERTEX
  5
34EC3
330
19EF4
100
AcDbEntity
  8
TITLE_BLOCK
  6
CONTINUOUS
 62
     7
100
AcDbVertex
100
AcDb2dVertex
 10
-22.160961
 20
-23.443364
 30
0.0
 70
    16
  0
VERTEX
  5
34EC4
330
19EF4
100
AcDbEntity
  8
TITLE_BLOCK
  6
CONTINUOUS
 62
     7
100
AcDbVertex
100
AcDb2dVertex
 10
-22.167367
 20
-23.217387
 30
0.0
 70
    16
  0
VERTEX
  5
34EC5
330
19EF4
100
AcDbEntity
  8
TITLE_BLOCK
  6
CONTINUOUS
 62
     7
100
AcDbVertex
100
AcDb2dVertex
 10
-22.162562
 20
-22.990981
 30
0.0
 70
    16
  0
VERTEX
  5
34EC6
330
19EF4
100
AcDbEntity
  8
TITLE_BLOCK
  6
CONTINUOUS
 62
     7
100
AcDbVertex
100
AcDb2dVertex
 10
-22.161761
 20
-22.764575
 30
0.0
 70
    16
  0
VERTEX
  5
34EC7
330
19EF4
100
AcDbEntity
  8
TITLE_BLOCK
  6
CONTINUOUS
 62
     7
100
AcDbVertex
100
AcDb2dVertex
 10
-22.161761
 20
-22.764575
 30
0.0
 70
    16
  0
VERTEX
  5
34EC8
330
19EF4
100
AcDbEntity
  8
TITLE_BLOCK
  6
CONTINUOUS
 62
     7
100
AcDbVertex
100
AcDb2dVertex
 10
-22.161761
 20
-22.764575
 30
0.0
 70
    16
  0
VERTEX
  5
34EC9
330
19EF4
100
AcDbEntity
  8
TITLE_BLOCK
  6
CONTINUOUS
 62
     7
100
AcDbVertex
100
AcDb2dVertex
 10
-22.161761
 20
-22.764575
 30
0.0
 70
    16
  0
SEQEND
  5
34ECA
330
19EF4
100
AcDbEntity
  8
TITLE_BLOCK
  6
CONTINUOUS
 62
     7
  0
POLYLINE
  5
19F18
330
34C93
100
AcDbEntity
  8
TITLE_BLOCK
  6
CONTINUOUS
 62
     7
100
AcDb2dPolyline
 66
     1
 10
0.0
 20
0.0
 30
0.0
 70
     5
 75
     5
  0
VERTEX
  5
34ECB
330
19F18
100
AcDbEntity
  8
TITLE_BLOCK
  6
CONTINUOUS
 62
     7
100
AcDbVertex
100
AcDb2dVertex
 10
-21.521761
 20
-22.764575
 30
0.0
 70
     8
  0
VERTEX
  5
34ECC
330
19F18
100
AcDbEntity
  8
TITLE_BLOCK
  6
CONTINUOUS
 62
     7
100
AcDbVertex
100
AcDb2dVertex
 10
-21.322953
 20
-22.762192
 30
0.0
 70
     8
  0
VERTEX
  5
34ECD
330
19F18
100
AcDbEntity
  8
TITLE_BLOCK
  6
CONTINUOUS
 62
     7
100
AcDbVertex
100
AcDb2dVertex
 10
-21.322953
 20
-23.443793
 30
0.0
 70
     8
  0
VERTEX
  5
34ECE
330
19F18
100
AcDbEntity
  8
TITLE_BLOCK
  6
CONTINUOUS
 62
     7
100
AcDbVertex
100
AcDb2dVertex
 10
-21.523754
 20
-23.443364
 30
0.0
 70
     8
  0
VERTEX
  5
34ECF
330
19F18
100
AcDbEntity
  8
TITLE_BLOCK
  6
CONTINUOUS
 62
     7
100
AcDbVertex
100
AcDb2dVertex
 10
-21.521761
 20
-22.764575
 30
0.0
 70
     8
  0
VERTEX
  5
34ED0
330
19F18
100
AcDbEntity
  8
TITLE_BLOCK
  6
CONTINUOUS
 62
     7
100
AcDbVertex
100
AcDb2dVertex
 10
-21.521761
 20
-22.764575
 30
0.0
 70
     8
  0
VERTEX
  5
34ED1
330
19F18
100
AcDbEntity
  8
TITLE_BLOCK
  6
CONTINUOUS
 62
     7
100
AcDbVertex
100
AcDb2dVertex
 10
-21.521761
 20
-22.764575
 30
0.0
 70
    16
  0
VERTEX
  5
34ED2
330
19F18
100
AcDbEntity
  8
TITLE_BLOCK
  6
CONTINUOUS
 62
     7
100
AcDbVertex
100
AcDb2dVertex
 10
-21.455355
 20
-22.763793
 30
0.0
 70
    16
  0
VERTEX
  5
34ED3
330
19F18
100
AcDbEntity
  8
TITLE_BLOCK
  6
CONTINUOUS
 62
     7
100
AcDbVertex
100
AcDb2dVertex
 10
-21.389359
 20
-22.763364
 30
0.0
 70
    16
  0
VERTEX
  5
34ED4
330
19F18
100
AcDbEntity
  8
TITLE_BLOCK
  6
CONTINUOUS
 62
     7
100
AcDbVertex
100
AcDb2dVertex
 10
-21.322953
 20
-22.762192
 30
0.0
 70
    16
  0
VERTEX
  5
34ED5
330
19F18
100
AcDbEntity
  8
TITLE_BLOCK
  6
CONTINUOUS
 62
     7
100
AcDbVertex
100
AcDb2dVertex
 10
-21.324164
 20
-22.989379
 30
0.0
 70
    16
  0
VERTEX
  5
34ED6
330
19F18
100
AcDbEntity
  8
TITLE_BLOCK
  6
CONTINUOUS
 62
     7
100
AcDbVertex
100
AcDb2dVertex
 10
-21.322172
 20
-23.216567
 30
0.0
 70
    16
  0
VERTEX
  5
34ED7
330
19F18
100
AcDbEntity
  8
TITLE_BLOCK
  6
CONTINUOUS
 62
     7
100
AcDbVertex
100
AcDb2dVertex
 10
-21.322953
 20
-23.443793
 30
0.0
 70
    16
  0
VERTEX
  5
34ED8
330
19F18
100
AcDbEntity
  8
TITLE_BLOCK
  6
CONTINUOUS
 62
     7
100
AcDbVertex
100
AcDb2dVertex
 10
-21.39016
 20
-23.443364
 30
0.0
 70
    16
  0
VERTEX
  5
34ED9
330
19F18
100
AcDbEntity
  8
TITLE_BLOCK
  6
CONTINUOUS
 62
     7
100
AcDbVertex
100
AcDb2dVertex
 10
-21.456957
 20
-23.443364
 30
0.0
 70
    16
  0
VERTEX
  5
34EDA
330
19F18
100
AcDbEntity
  8
TITLE_BLOCK
  6
CONTINUOUS
 62
     7
100
AcDbVertex
100
AcDb2dVertex
 10
-21.523754
 20
-23.443364
 30
0.0
 70
    16
  0
VERTEX
  5
34EDB
330
19F18
100
AcDbEntity
  8
TITLE_BLOCK
  6
CONTINUOUS
 62
     7
100
AcDbVertex
100
AcDb2dVertex
 10
-21.520961
 20
-23.216957
 30
0.0
 70
    16
  0
VERTEX
  5
34EDC
330
19F18
100
AcDbEntity
  8
TITLE_BLOCK
  6
CONTINUOUS
 62
     7
100
AcDbVertex
100
AcDb2dVertex
 10
-21.524554
 20
-22.990981
 30
0.0
 70
    16
  0
VERTEX
  5
34EDD
330
19F18
100
AcDbEntity
  8
TITLE_BLOCK
  6
CONTINUOUS
 62
     7
100
AcDbVertex
100
AcDb2dVertex
 10
-21.521761
 20
-22.764575
 30
0.0
 70
    16
  0
VERTEX
  5
34EDE
330
19F18
100
AcDbEntity
  8
TITLE_BLOCK
  6
CONTINUOUS
 62
     7
100
AcDbVertex
100
AcDb2dVertex
 10
-21.521761
 20
-22.764575
 30
0.0
 70
    16
  0
VERTEX
  5
34EDF
330
19F18
100
AcDbEntity
  8
TITLE_BLOCK
  6
CONTINUOUS
 62
     7
100
AcDbVertex
100
AcDb2dVertex
 10
-21.521761
 20
-22.764575
 30
0.0
 70
    16
  0
VERTEX
  5
34EE0
330
19F18
100
AcDbEntity
  8
TITLE_BLOCK
  6
CONTINUOUS
 62
     7
100
AcDbVertex
100
AcDb2dVertex
 10
-21.521761
 20
-22.764575
 30
0.0
 70
    16
  0
SEQEND
  5
34EE1
330
19F18
100
AcDbEntity
  8
TITLE_BLOCK
  6
CONTINUOUS
 62
     7
  0
POLYLINE
  5
19F2F
330
34C93
100
AcDbEntity
  8
TITLE_BLOCK
  6
CONTINUOUS
 62
     7
100
AcDb2dPolyline
 66
     1
 10
0.0
 20
0.0
 30
0.0
 70
     5
 75
     5
  0
VERTEX
  5
34EE2
330
19F2F
100
AcDbEntity
  8
TITLE_BLOCK
  6
CONTINUOUS
 62
     7
100
AcDbVertex
100
AcDb2dVertex
 10
-21.165765
 20
-22.762973
 30
0.0
 70
     8
  0
VERTEX
  5
34EE3
330
19F2F
100
AcDbEntity
  8
TITLE_BLOCK
  6
CONTINUOUS
 62
     7
100
AcDbVertex
100
AcDb2dVertex
 10
-21.104838
 20
-22.765725
 30
0.0
 70
     8
  0
VERTEX
  5
34EE4
330
19F2F
100
AcDbEntity
  8
TITLE_BLOCK
  6
CONTINUOUS
 62
     7
100
AcDbVertex
100
AcDb2dVertex
 10
-21.042997
 20
-22.764714
 30
0.0
 70
     8
  0
VERTEX
  5
34EE5
330
19F2F
100
AcDbEntity
  8
TITLE_BLOCK
  6
CONTINUOUS
 62
     7
100
AcDbVertex
100
AcDb2dVertex
 10
-20.918617
 20
-22.760673
 30
0.0
 70
     8
  0
VERTEX
  5
34EE6
330
19F2F
100
AcDbEntity
  8
TITLE_BLOCK
  6
CONTINUOUS
 62
     7
100
AcDbVertex
100
AcDb2dVertex
 10
-20.8571
 20
-22.762276
 30
0.0
 70
     8
  0
VERTEX
  5
34EE7
330
19F2F
100
AcDbEntity
  8
TITLE_BLOCK
  6
CONTINUOUS
 62
     7
100
AcDbVertex
100
AcDb2dVertex
 10
-20.826733
 20
-22.764997
 30
0.0
 70
     8
  0
VERTEX
  5
34EE8
330
19F2F
100
AcDbEntity
  8
TITLE_BLOCK
  6
CONTINUOUS
 62
     7
100
AcDbVertex
100
AcDb2dVertex
 10
-20.796713
 20
-22.769384
 30
0.0
 70
     8
  0
VERTEX
  5
34EE9
330
19F2F
100
AcDbEntity
  8
TITLE_BLOCK
  6
CONTINUOUS
 62
     7
100
AcDbVertex
100
AcDb2dVertex
 10
-20.767102
 20
-22.775726
 30
0.0
 70
     8
  0
VERTEX
  5
34EEA
330
19F2F
100
AcDbEntity
  8
TITLE_BLOCK
  6
CONTINUOUS
 62
     7
100
AcDbVertex
100
AcDb2dVertex
 10
-20.737966
 20
-22.784312
 30
0.0
 70
     8
  0
VERTEX
  5
34EEB
330
19F2F
100
AcDbEntity
  8
TITLE_BLOCK
  6
CONTINUOUS
 62
     7
100
AcDbVertex
100
AcDb2dVertex
 10
-20.709367
 20
-22.795434
 30
0.0
 70
     8
  0
VERTEX
  5
34EEC
330
19F2F
100
AcDbEntity
  8
TITLE_BLOCK
  6
CONTINUOUS
 62
     7
100
AcDbVertex
100
AcDb2dVertex
 10
-20.681371
 20
-22.809379
 30
0.0
 70
     8
  0
VERTEX
  5
34EED
330
19F2F
100
AcDbEntity
  8
TITLE_BLOCK
  6
CONTINUOUS
 62
     7
100
AcDbVertex
100
AcDb2dVertex
 10
-20.667146
 20
-22.825541
 30
0.0
 70
     8
  0
VERTEX
  5
34EEE
330
19F2F
100
AcDbEntity
  8
TITLE_BLOCK
  6
CONTINUOUS
 62
     7
100
AcDbVertex
100
AcDb2dVertex
 10
-20.654341
 20
-22.842749
 30
0.0
 70
     8
  0
VERTEX
  5
34EEF
330
19F2F
100
AcDbEntity
  8
TITLE_BLOCK
  6
CONTINUOUS
 62
     7
100
AcDbVertex
100
AcDb2dVertex
 10
-20.642978
 20
-22.860885
 30
0.0
 70
     8
  0
VERTEX
  5
34EF0
330
19F2F
100
AcDbEntity
  8
TITLE_BLOCK
  6
CONTINUOUS
 62
     7
100
AcDbVertex
100
AcDb2dVertex
 10
-20.633078
 20
-22.879833
 30
0.0
 70
     8
  0
VERTEX
  5
34EF1
330
19F2F
100
AcDbEntity
  8
TITLE_BLOCK
  6
CONTINUOUS
 62
     7
100
AcDbVertex
100
AcDb2dVertex
 10
-20.624664
 20
-22.899478
 30
0.0
 70
     8
  0
VERTEX
  5
34EF2
330
19F2F
100
AcDbEntity
  8
TITLE_BLOCK
  6
CONTINUOUS
 62
     7
100
AcDbVertex
100
AcDb2dVertex
 10
-20.617759
 20
-22.919701
 30
0.0
 70
     8
  0
VERTEX
  5
34EF3
330
19F2F
100
AcDbEntity
  8
TITLE_BLOCK
  6
CONTINUOUS
 62
     7
100
AcDbVertex
100
AcDb2dVertex
 10
-20.612385
 20
-22.940388
 30
0.0
 70
     8
  0
VERTEX
  5
34EF4
330
19F2F
100
AcDbEntity
  8
TITLE_BLOCK
  6
CONTINUOUS
 62
     7
100
AcDbVertex
100
AcDb2dVertex
 10
-20.608563
 20
-22.96142
 30
0.0
 70
     8
  0
VERTEX
  5
34EF5
330
19F2F
100
AcDbEntity
  8
TITLE_BLOCK
  6
CONTINUOUS
 62
     7
100
AcDbVertex
100
AcDb2dVertex
 10
-20.606317
 20
-22.982683
 30
0.0
 70
     8
  0
VERTEX
  5
34EF6
330
19F2F
100
AcDbEntity
  8
TITLE_BLOCK
  6
CONTINUOUS
 62
     7
100
AcDbVertex
100
AcDb2dVertex
 10
-20.605668
 20
-23.004059
 30
0.0
 70
     8
  0
VERTEX
  5
34EF7
330
19F2F
100
AcDbEntity
  8
TITLE_BLOCK
  6
CONTINUOUS
 62
     7
100
AcDbVertex
100
AcDb2dVertex
 10
-20.606638
 20
-23.025431
 30
0.0
 70
     8
  0
VERTEX
  5
34EF8
330
19F2F
100
AcDbEntity
  8
TITLE_BLOCK
  6
CONTINUOUS
 62
     7
100
AcDbVertex
100
AcDb2dVertex
 10
-20.609251
 20
-23.046684
 30
0.0
 70
     8
  0
VERTEX
  5
34EF9
330
19F2F
100
AcDbEntity
  8
TITLE_BLOCK
  6
CONTINUOUS
 62
     7
100
AcDbVertex
100
AcDb2dVertex
 10
-20.613528
 20
-23.067701
 30
0.0
 70
     8
  0
VERTEX
  5
34EFA
330
19F2F
100
AcDbEntity
  8
TITLE_BLOCK
  6
CONTINUOUS
 62
     7
100
AcDbVertex
100
AcDb2dVertex
 10
-20.619491
 20
-23.088365
 30
0.0
 70
     8
  0
VERTEX
  5
34EFB
330
19F2F
100
AcDbEntity
  8
TITLE_BLOCK
  6
CONTINUOUS
 62
     7
100
AcDbVertex
100
AcDb2dVertex
 10
-20.627163
 20
-23.108559
 30
0.0
 70
     8
  0
VERTEX
  5
34EFC
330
19F2F
100
AcDbEntity
  8
TITLE_BLOCK
  6
CONTINUOUS
 62
     7
100
AcDbVertex
100
AcDb2dVertex
 10
-20.636566
 20
-23.128168
 30
0.0
 70
     8
  0
VERTEX
  5
34EFD
330
19F2F
100
AcDbEntity
  8
TITLE_BLOCK
  6
CONTINUOUS
 62
     7
100
AcDbVertex
100
AcDb2dVertex
 10
-20.64816
 20
-23.14971
 30
0.0
 70
     8
  0
VERTEX
  5
34EFE
330
19F2F
100
AcDbEntity
  8
TITLE_BLOCK
  6
CONTINUOUS
 62
     7
100
AcDbVertex
100
AcDb2dVertex
 10
-20.661945
 20
-23.168294
 30
0.0
 70
     8
  0
VERTEX
  5
34EFF
330
19F2F
100
AcDbEntity
  8
TITLE_BLOCK
  6
CONTINUOUS
 62
     7
100
AcDbVertex
100
AcDb2dVertex
 10
-20.677702
 20
-23.184159
 30
0.0
 70
     8
  0
VERTEX
  5
34F00
330
19F2F
100
AcDbEntity
  8
TITLE_BLOCK
  6
CONTINUOUS
 62
     7
100
AcDbVertex
100
AcDb2dVertex
 10
-20.695213
 20
-23.197545
 30
0.0
 70
     8
  0
VERTEX
  5
34F01
330
19F2F
100
AcDbEntity
  8
TITLE_BLOCK
  6
CONTINUOUS
 62
     7
100
AcDbVertex
100
AcDb2dVertex
 10
-20.714258
 20
-23.208689
 30
0.0
 70
     8
  0
VERTEX
  5
34F02
330
19F2F
100
AcDbEntity
  8
TITLE_BLOCK
  6
CONTINUOUS
 62
     7
100
AcDbVertex
100
AcDb2dVertex
 10
-20.73462
 20
-23.217832
 30
0.0
 70
     8
  0
VERTEX
  5
34F03
330
19F2F
100
AcDbEntity
  8
TITLE_BLOCK
  6
CONTINUOUS
 62
     7
100
AcDbVertex
100
AcDb2dVertex
 10
-20.75608
 20
-23.225212
 30
0.0
 70
     8
  0
VERTEX
  5
34F04
330
19F2F
100
AcDbEntity
  8
TITLE_BLOCK
  6
CONTINUOUS
 62
     7
100
AcDbVertex
100
AcDb2dVertex
 10
-20.778419
 20
-23.231069
 30
0.0
 70
     8
  0
VERTEX
  5
34F05
330
19F2F
100
AcDbEntity
  8
TITLE_BLOCK
  6
CONTINUOUS
 62
     7
100
AcDbVertex
100
AcDb2dVertex
 10
-20.824861
 20
-23.239168
 30
0.0
 70
     8
  0
VERTEX
  5
34F06
330
19F2F
100
AcDbEntity
  8
TITLE_BLOCK
  6
CONTINUOUS
 62
     7
100
AcDbVertex
100
AcDb2dVertex
 10
-20.872198
 20
-23.244041
 30
0.0
 70
     8
  0
VERTEX
  5
34F07
330
19F2F
100
AcDbEntity
  8
TITLE_BLOCK
  6
CONTINUOUS
 62
     7
100
AcDbVertex
100
AcDb2dVertex
 10
-20.962562
 20
-23.251762
 30
0.0
 70
     8
  0
VERTEX
  5
34F08
330
19F2F
100
AcDbEntity
  8
TITLE_BLOCK
  6
CONTINUOUS
 62
     7
100
AcDbVertex
100
AcDb2dVertex
 10
-20.960961
 20
-23.442582
 30
0.0
 70
     8
  0
VERTEX
  5
34F09
330
19F2F
100
AcDbEntity
  8
TITLE_BLOCK
  6
CONTINUOUS
 62
     7
100
AcDbVertex
100
AcDb2dVertex
 10
-21.161371
 20
-23.447387
 30
0.0
 70
     8
  0
VERTEX
  5
34F0A
330
19F2F
100
AcDbEntity
  8
TITLE_BLOCK
  6
CONTINUOUS
 62
     7
100
AcDbVertex
100
AcDb2dVertex
 10
-21.163063
 20
-23.27632
 30
0.0
 70
     8
  0
VERTEX
  5
34F0B
330
19F2F
100
AcDbEntity
  8
TITLE_BLOCK
  6
CONTINUOUS
 62
     7
100
AcDbVertex
100
AcDb2dVertex
 10
-21.16266
 20
-23.10518
 30
0.0
 70
     8
  0
VERTEX
  5
34F0C
330
19F2F
100
AcDbEntity
  8
TITLE_BLOCK
  6
CONTINUOUS
 62
     7
100
AcDbVertex
100
AcDb2dVertex
 10
-21.162711
 20
-22.93404
 30
0.0
 70
     8
  0
VERTEX
  5
34F0D
330
19F2F
100
AcDbEntity
  8
TITLE_BLOCK
  6
CONTINUOUS
 62
     7
100
AcDbVertex
100
AcDb2dVertex
 10
-21.165765
 20
-22.762973
 30
0.0
 70
     8
  0
VERTEX
  5
34F0E
330
19F2F
100
AcDbEntity
  8
TITLE_BLOCK
  6
CONTINUOUS
 62
     7
100
AcDbVertex
100
AcDb2dVertex
 10
-21.165765
 20
-22.762973
 30
0.0
 70
     8
  0
VERTEX
  5
34F0F
330
19F2F
100
AcDbEntity
  8
TITLE_BLOCK
  6
CONTINUOUS
 62
     7
100
AcDbVertex
100
AcDb2dVertex
 10
-21.165765
 20
-22.762973
 30
0.0
 70
    16
  0
VERTEX
  5
34F10
330
19F2F
100
AcDbEntity
  8
TITLE_BLOCK
  6
CONTINUOUS
 62
     7
100
AcDbVertex
100
AcDb2dVertex
 10
-21.004964
 20
-22.777387
 30
0.0
 70
    16
  0
VERTEX
  5
34F11
330
19F2F
100
AcDbEntity
  8
TITLE_BLOCK
  6
CONTINUOUS
 62
     7
100
AcDbVertex
100
AcDb2dVertex
 10
-20.828968
 20
-22.726957
 30
0.0
 70
    16
  0
VERTEX
  5
34F12
330
19F2F
100
AcDbEntity
  8
TITLE_BLOCK
  6
CONTINUOUS
 62
     7
100
AcDbVertex
100
AcDb2dVertex
 10
-20.681371
 20
-22.809379
 30
0.0
 70
    16
  0
VERTEX
  5
34F13
330
19F2F
100
AcDbEntity
  8
TITLE_BLOCK
  6
CONTINUOUS
 62
     7
100
AcDbVertex
100
AcDb2dVertex
 10
-20.601761
 20
-22.892582
 30
0.0
 70
    16
  0
VERTEX
  5
34F14
330
19F2F
100
AcDbEntity
  8
TITLE_BLOCK
  6
CONTINUOUS
 62
     7
100
AcDbVertex
100
AcDb2dVertex
 10
-20.581761
 20
-23.025356
 30
0.0
 70
    16
  0
VERTEX
  5
34F15
330
19F2F
100
AcDbEntity
  8
TITLE_BLOCK
  6
CONTINUOUS
 62
     7
100
AcDbVertex
100
AcDb2dVertex
 10
-20.636566
 20
-23.128168
 30
0.0
 70
    16
  0
VERTEX
  5
34F16
330
19F2F
100
AcDbEntity
  8
TITLE_BLOCK
  6
CONTINUOUS
 62
     7
100
AcDbVertex
100
AcDb2dVertex
 10
-20.692172
 20
-23.251372
 30
0.0
 70
    16
  0
VERTEX
  5
34F17
330
19F2F
100
AcDbEntity
  8
TITLE_BLOCK
  6
CONTINUOUS
 62
     7
100
AcDbVertex
100
AcDb2dVertex
 10
-20.85057
 20
-23.238168
 30
0.0
 70
    16
  0
VERTEX
  5
34F18
330
19F2F
100
AcDbEntity
  8
TITLE_BLOCK
  6
CONTINUOUS
 62
     7
100
AcDbVertex
100
AcDb2dVertex
 10
-20.962562
 20
-23.251762
 30
0.0
 70
    16
  0
VERTEX
  5
34F19
330
19F2F
100
AcDbEntity
  8
TITLE_BLOCK
  6
CONTINUOUS
 62
     7
100
AcDbVertex
100
AcDb2dVertex
 10
-20.962172
 20
-23.315356
 30
0.0
 70
    16
  0
VERTEX
  5
34F1A
330
19F2F
100
AcDbEntity
  8
TITLE_BLOCK
  6
CONTINUOUS
 62
     7
100
AcDbVertex
100
AcDb2dVertex
 10
-20.961371
 20
-23.378989
 30
0.0
 70
    16
  0
VERTEX
  5
34F1B
330
19F2F
100
AcDbEntity
  8
TITLE_BLOCK
  6
CONTINUOUS
 62
     7
100
AcDbVertex
100
AcDb2dVertex
 10
-20.960961
 20
-23.442582
 30
0.0
 70
    16
  0
VERTEX
  5
34F1C
330
19F2F
100
AcDbEntity
  8
TITLE_BLOCK
  6
CONTINUOUS
 62
     7
100
AcDbVertex
100
AcDb2dVertex
 10
-21.027757
 20
-23.443793
 30
0.0
 70
    16
  0
VERTEX
  5
34F1D
330
19F2F
100
AcDbEntity
  8
TITLE_BLOCK
  6
CONTINUOUS
 62
     7
100
AcDbVertex
100
AcDb2dVertex
 10
-21.094554
 20
-23.445356
 30
0.0
 70
    16
  0
VERTEX
  5
34F1E
330
19F2F
100
AcDbEntity
  8
TITLE_BLOCK
  6
CONTINUOUS
 62
     7
100
AcDbVertex
100
AcDb2dVertex
 10
-21.161371
 20
-23.447387
 30
0.0
 70
    16
  0
VERTEX
  5
34F1F
330
19F2F
100
AcDbEntity
  8
TITLE_BLOCK
  6
CONTINUOUS
 62
     7
100
AcDbVertex
100
AcDb2dVertex
 10
-21.166156
 20
-23.219379
 30
0.0
 70
    16
  0
VERTEX
  5
34F20
330
19F2F
100
AcDbEntity
  8
TITLE_BLOCK
  6
CONTINUOUS
 62
     7
100
AcDbVertex
100
AcDb2dVertex
 10
-21.158558
 20
-22.990981
 30
0.0
 70
    16
  0
VERTEX
  5
34F21
330
19F2F
100
AcDbEntity
  8
TITLE_BLOCK
  6
CONTINUOUS
 62
     7
100
AcDbVertex
100
AcDb2dVertex
 10
-21.165765
 20
-22.762973
 30
0.0
 70
    16
  0
VERTEX
  5
34F22
330
19F2F
100
AcDbEntity
  8
TITLE_BLOCK
  6
CONTINUOUS
 62
     7
100
AcDbVertex
100
AcDb2dVertex
 10
-21.165765
 20
-22.762973
 30
0.0
 70
    16
  0
VERTEX
  5
34F23
330
19F2F
100
AcDbEntity
  8
TITLE_BLOCK
  6
CONTINUOUS
 62
     7
100
AcDbVertex
100
AcDb2dVertex
 10
-21.165765
 20
-22.762973
 30
0.0
 70
    16
  0
VERTEX
  5
34F24
330
19F2F
100
AcDbEntity
  8
TITLE_BLOCK
  6
CONTINUOUS
 62
     7
100
AcDbVertex
100
AcDb2dVertex
 10
-21.165765
 20
-22.762973
 30
0.0
 70
    16
  0
SEQEND
  5
34F25
330
19F2F
100
AcDbEntity
  8
TITLE_BLOCK
  6
CONTINUOUS
 62
     7
  0
POLYLINE
  5
19F73
330
34C93
100
AcDbEntity
  8
TITLE_BLOCK
  6
CONTINUOUS
 62
     7
100
AcDb2dPolyline
 66
     1
 10
0.0
 20
0.0
 30
0.0
 70
     5
 75
     5
  0
VERTEX
  5
34F26
330
19F73
100
AcDbEntity
  8
TITLE_BLOCK
  6
CONTINUOUS
 62
     7
100
AcDbVertex
100
AcDb2dVertex
 10
-20.298968
 20
-22.764184
 30
0.0
 70
     8
  0
VERTEX
  5
34F27
330
19F73
100
AcDbEntity
  8
TITLE_BLOCK
  6
CONTINUOUS
 62
     7
100
AcDbVertex
100
AcDb2dVertex
 10
-20.23593
 20
-22.768387
 30
0.0
 70
     8
  0
VERTEX
  5
34F28
330
19F73
100
AcDbEntity
  8
TITLE_BLOCK
  6
CONTINUOUS
 62
     7
100
AcDbVertex
100
AcDb2dVertex
 10
-20.173309
 20
-22.776831
 30
0.0
 70
     8
  0
VERTEX
  5
34F29
330
19F73
100
AcDbEntity
  8
TITLE_BLOCK
  6
CONTINUOUS
 62
     7
100
AcDbVertex
100
AcDb2dVertex
 10
-20.048558
 20
-22.799379
 30
0.0
 70
     8
  0
VERTEX
  5
34F2A
330
19F73
100
AcDbEntity
  8
TITLE_BLOCK
  6
CONTINUOUS
 62
     7
100
AcDbVertex
100
AcDb2dVertex
 10
-20.002909
 20
-22.880073
 30
0.0
 70
     8
  0
VERTEX
  5
34F2B
330
19F73
100
AcDbEntity
  8
TITLE_BLOCK
  6
CONTINUOUS
 62
     7
100
AcDbVertex
100
AcDb2dVertex
 10
-19.96057
 20
-22.962582
 30
0.0
 70
     8
  0
VERTEX
  5
34F2C
330
19F73
100
AcDbEntity
  8
TITLE_BLOCK
  6
CONTINUOUS
 62
     7
100
AcDbVertex
100
AcDb2dVertex
 10
-20.021101
 20
-22.965157
 30
0.0
 70
     8
  0
VERTEX
  5
34F2D
330
19F73
100
AcDbEntity
  8
TITLE_BLOCK
  6
CONTINUOUS
 62
     7
100
AcDbVertex
100
AcDb2dVertex
 10
-20.081859
 20
-22.966127
 30
0.0
 70
     8
  0
VERTEX
  5
34F2E
330
19F73
100
AcDbEntity
  8
TITLE_BLOCK
  6
CONTINUOUS
 62
     7
100
AcDbVertex
100
AcDb2dVertex
 10
-20.111643
 20
-22.963395
 30
0.0
 70
     8
  0
VERTEX
  5
34F2F
330
19F73
100
AcDbEntity
  8
TITLE_BLOCK
  6
CONTINUOUS
 62
     7
100
AcDbVertex
100
AcDb2dVertex
 10
-20.140669
 20
-22.957122
 30
0.0
 70
     8
  0
VERTEX
  5
34F30
330
19F73
100
AcDbEntity
  8
TITLE_BLOCK
  6
CONTINUOUS
 62
     7
100
AcDbVertex
100
AcDb2dVertex
 10
-20.168663
 20
-22.946263
 30
0.0
 70
     8
  0
VERTEX
  5
34F31
330
19F73
100
AcDbEntity
  8
TITLE_BLOCK
  6
CONTINUOUS
 62
     7
100
AcDbVertex
100
AcDb2dVertex
 10
-20.195355
 20
-22.92977
 30
0.0
 70
     8
  0
VERTEX
  5
34F32
330
19F73
100
AcDbEntity
  8
TITLE_BLOCK
  6
CONTINUOUS
 62
     7
100
AcDbVertex
100
AcDb2dVertex
 10
-20.333754
 20
-22.926957
 30
0.0
 70
     8
  0
VERTEX
  5
34F33
330
19F73
100
AcDbEntity
  8
TITLE_BLOCK
  6
CONTINUOUS
 62
     7
100
AcDbVertex
100
AcDb2dVertex
 10
-20.330629
 20
-22.947832
 30
0.0
 70
     8
  0
VERTEX
  5
34F34
330
19F73
100
AcDbEntity
  8
TITLE_BLOCK
  6
CONTINUOUS
 62
     7
100
AcDbVertex
100
AcDb2dVertex
 10
-20.324601
 20
-22.965502
 30
0.0
 70
     8
  0
VERTEX
  5
34F35
330
19F73
100
AcDbEntity
  8
TITLE_BLOCK
  6
CONTINUOUS
 62
     7
100
AcDbVertex
100
AcDb2dVertex
 10
-20.31596
 20
-22.98028
 30
0.0
 70
     8
  0
VERTEX
  5
34F36
330
19F73
100
AcDbEntity
  8
TITLE_BLOCK
  6
CONTINUOUS
 62
     7
100
AcDbVertex
100
AcDb2dVertex
 10
-20.305
 20
-22.992479
 30
0.0
 70
     8
  0
VERTEX
  5
34F37
330
19F73
100
AcDbEntity
  8
TITLE_BLOCK
  6
CONTINUOUS
 62
     7
100
AcDbVertex
100
AcDb2dVertex
 10
-20.292013
 20
-23.002411
 30
0.0
 70
     8
  0
VERTEX
  5
34F38
330
19F73
100
AcDbEntity
  8
TITLE_BLOCK
  6
CONTINUOUS
 62
     7
100
AcDbVertex
100
AcDb2dVertex
 10
-20.277291
 20
-23.010388
 30
0.0
 70
     8
  0
VERTEX
  5
34F39
330
19F73
100
AcDbEntity
  8
TITLE_BLOCK
  6
CONTINUOUS
 62
     7
100
AcDbVertex
100
AcDb2dVertex
 10
-20.243812
 20
-23.021728
 30
0.0
 70
     8
  0
VERTEX
  5
34F3A
330
19F73
100
AcDbEntity
  8
TITLE_BLOCK
  6
CONTINUOUS
 62
     7
100
AcDbVertex
100
AcDb2dVertex
 10
-20.206902
 20
-23.028997
 30
0.0
 70
     8
  0
VERTEX
  5
34F3B
330
19F73
100
AcDbEntity
  8
TITLE_BLOCK
  6
CONTINUOUS
 62
     7
100
AcDbVertex
100
AcDb2dVertex
 10
-20.168898
 20
-23.034695
 30
0.0
 70
     8
  0
VERTEX
  5
34F3C
330
19F73
100
AcDbEntity
  8
TITLE_BLOCK
  6
CONTINUOUS
 62
     7
100
AcDbVertex
100
AcDb2dVertex
 10
-20.132141
 20
-23.04132
 30
0.0
 70
     8
  0
VERTEX
  5
34F3D
330
19F73
100
AcDbEntity
  8
TITLE_BLOCK
  6
CONTINUOUS
 62
     7
100
AcDbVertex
100
AcDb2dVertex
 10
-20.098968
 20
-23.051372
 30
0.0
 70
     8
  0
VERTEX
  5
34F3E
330
19F73
100
AcDbEntity
  8
TITLE_BLOCK
  6
CONTINUOUS
 62
     7
100
AcDbVertex
100
AcDb2dVertex
 10
-20.075645
 20
-23.05566
 30
0.0
 70
     8
  0
VERTEX
  5
34F3F
330
19F73
100
AcDbEntity
  8
TITLE_BLOCK
  6
CONTINUOUS
 62
     7
100
AcDbVertex
100
AcDb2dVertex
 10
-20.053101
 20
-23.062943
 30
0.0
 70
     8
  0
VERTEX
  5
34F40
330
19F73
100
AcDbEntity
  8
TITLE_BLOCK
  6
CONTINUOUS
 62
     7
100
AcDbVertex
100
AcDb2dVertex
 10
-20.031588
 20
-23.072951
 30
0.0
 70
     8
  0
VERTEX
  5
34F41
330
19F73
100
AcDbEntity
  8
TITLE_BLOCK
  6
CONTINUOUS
 62
     7
100
AcDbVertex
100
AcDb2dVertex
 10
-20.01136
 20
-23.085416
 30
0.0
 70
     8
  0
VERTEX
  5
34F42
330
19F73
100
AcDbEntity
  8
TITLE_BLOCK
  6
CONTINUOUS
 62
     7
100
AcDbVertex
100
AcDb2dVertex
 10
-19.99267
 20
-23.10007
 30
0.0
 70
     8
  0
VERTEX
  5
34F43
330
19F73
100
AcDbEntity
  8
TITLE_BLOCK
  6
CONTINUOUS
 62
     7
100
AcDbVertex
100
AcDb2dVertex
 10
-19.975771
 20
-23.116645
 30
0.0
 70
     8
  0
VERTEX
  5
34F44
330
19F73
100
AcDbEntity
  8
TITLE_BLOCK
  6
CONTINUOUS
 62
     7
100
AcDbVertex
100
AcDb2dVertex
 10
-19.960916
 20
-23.134871
 30
0.0
 70
     8
  0
VERTEX
  5
34F45
330
19F73
100
AcDbEntity
  8
TITLE_BLOCK
  6
CONTINUOUS
 62
     7
100
AcDbVertex
100
AcDb2dVertex
 10
-19.948358
 20
-23.154482
 30
0.0
 70
     8
  0
VERTEX
  5
34F46
330
19F73
100
AcDbEntity
  8
TITLE_BLOCK
  6
CONTINUOUS
 62
     7
100
AcDbVertex
100
AcDb2dVertex
 10
-19.93835
 20
-23.175208
 30
0.0
 70
     8
  0
VERTEX
  5
34F47
330
19F73
100
AcDbEntity
  8
TITLE_BLOCK
  6
CONTINUOUS
 62
     7
100
AcDbVertex
100
AcDb2dVertex
 10
-19.931146
 20
-23.196781
 30
0.0
 70
     8
  0
VERTEX
  5
34F48
330
19F73
100
AcDbEntity
  8
TITLE_BLOCK
  6
CONTINUOUS
 62
     7
100
AcDbVertex
100
AcDb2dVertex
 10
-19.926998
 20
-23.218934
 30
0.0
 70
     8
  0
VERTEX
  5
34F49
330
19F73
100
AcDbEntity
  8
TITLE_BLOCK
  6
CONTINUOUS
 62
     7
100
AcDbVertex
100
AcDb2dVertex
 10
-19.926159
 20
-23.241397
 30
0.0
 70
     8
  0
VERTEX
  5
34F4A
330
19F73
100
AcDbEntity
  8
TITLE_BLOCK
  6
CONTINUOUS
 62
     7
100
AcDbVertex
100
AcDb2dVertex
 10
-19.928883
 20
-23.263902
 30
0.0
 70
     8
  0
VERTEX
  5
34F4B
330
19F73
100
AcDbEntity
  8
TITLE_BLOCK
  6
CONTINUOUS
 62
     7
100
AcDbVertex
100
AcDb2dVertex
 10
-19.935422
 20
-23.286181
 30
0.0
 70
     8
  0
VERTEX
  5
34F4C
330
19F73
100
AcDbEntity
  8
TITLE_BLOCK
  6
CONTINUOUS
 62
     7
100
AcDbVertex
100
AcDb2dVertex
 10
-19.946031
 20
-23.307966
 30
0.0
 70
     8
  0
VERTEX
  5
34F4D
330
19F73
100
AcDbEntity
  8
TITLE_BLOCK
  6
CONTINUOUS
 62
     7
100
AcDbVertex
100
AcDb2dVertex
 10
-19.960961
 20
-23.328989
 30
0.0
 70
     8
  0
VERTEX
  5
34F4E
330
19F73
100
AcDbEntity
  8
TITLE_BLOCK
  6
CONTINUOUS
 62
     7
100
AcDbVertex
100
AcDb2dVertex
 10
-19.976654
 20
-23.345186
 30
0.0
 70
     8
  0
VERTEX
  5
34F4F
330
19F73
100
AcDbEntity
  8
TITLE_BLOCK
  6
CONTINUOUS
 62
     7
100
AcDbVertex
100
AcDb2dVertex
 10
-19.993449
 20
-23.36018
 30
0.0
 70
     8
  0
VERTEX
  5
34F50
330
19F73
100
AcDbEntity
  8
TITLE_BLOCK
  6
CONTINUOUS
 62
     7
100
AcDbVertex
100
AcDb2dVertex
 10
-20.011256
 20
-23.373966
 30
0.0
 70
     8
  0
VERTEX
  5
34F51
330
19F73
100
AcDbEntity
  8
TITLE_BLOCK
  6
CONTINUOUS
 62
     7
100
AcDbVertex
100
AcDb2dVertex
 10
-20.029984
 20
-23.386541
 30
0.0
 70
     8
  0
VERTEX
  5
34F52
330
19F73
100
AcDbEntity
  8
TITLE_BLOCK
  6
CONTINUOUS
 62
     7
100
AcDbVertex
100
AcDb2dVertex
 10
-20.069849
 20
-23.408041
 30
0.0
 70
     8
  0
VERTEX
  5
34F53
330
19F73
100
AcDbEntity
  8
TITLE_BLOCK
  6
CONTINUOUS
 62
     7
100
AcDbVertex
100
AcDb2dVertex
 10
-20.112328
 20
-23.424648
 30
0.0
 70
     8
  0
VERTEX
  5
34F54
330
19F73
100
AcDbEntity
  8
TITLE_BLOCK
  6
CONTINUOUS
 62
     7
100
AcDbVertex
100
AcDb2dVertex
 10
-20.156706
 20
-23.436331
 30
0.0
 70
     8
  0
VERTEX
  5
34F55
330
19F73
100
AcDbEntity
  8
TITLE_BLOCK
  6
CONTINUOUS
 62
     7
100
AcDbVertex
100
AcDb2dVertex
 10
-20.202265
 20
-23.44306
 30
0.0
 70
     8
  0
VERTEX
  5
34F56
330
19F73
100
AcDbEntity
  8
TITLE_BLOCK
  6
CONTINUOUS
 62
     7
100
AcDbVertex
100
AcDb2dVertex
 10
-20.24829
 20
-23.444802
 30
0.0
 70
     8
  0
VERTEX
  5
34F57
330
19F73
100
AcDbEntity
  8
TITLE_BLOCK
  6
CONTINUOUS
 62
     7
100
AcDbVertex
100
AcDb2dVertex
 10
-20.294066
 20
-23.441528
 30
0.0
 70
     8
  0
VERTEX
  5
34F58
330
19F73
100
AcDbEntity
  8
TITLE_BLOCK
  6
CONTINUOUS
 62
     7
100
AcDbVertex
100
AcDb2dVertex
 10
-20.338876
 20
-23.433205
 30
0.0
 70
     8
  0
VERTEX
  5
34F59
330
19F73
100
AcDbEntity
  8
TITLE_BLOCK
  6
CONTINUOUS
 62
     7
100
AcDbVertex
100
AcDb2dVertex
 10
-20.382004
 20
-23.419803
 30
0.0
 70
     8
  0
VERTEX
  5
34F5A
330
19F73
100
AcDbEntity
  8
TITLE_BLOCK
  6
CONTINUOUS
 62
     7
100
AcDbVertex
100
AcDb2dVertex
 10
-20.422734
 20
-23.40129
 30
0.0
 70
     8
  0
VERTEX
  5
34F5B
330
19F73
100
AcDbEntity
  8
TITLE_BLOCK
  6
CONTINUOUS
 62
     7
100
AcDbVertex
100
AcDb2dVertex
 10
-20.441976
 20
-23.390108
 30
0.0
 70
     8
  0
VERTEX
  5
34F5C
330
19F73
100
AcDbEntity
  8
TITLE_BLOCK
  6
CONTINUOUS
 62
     7
100
AcDbVertex
100
AcDb2dVertex
 10
-20.46035
 20
-23.377636
 30
0.0
 70
     8
  0
VERTEX
  5
34F5D
330
19F73
100
AcDbEntity
  8
TITLE_BLOCK
  6
CONTINUOUS
 62
     7
100
AcDbVertex
100
AcDb2dVertex
 10
-20.477766
 20
-23.363871
 30
0.0
 70
     8
  0
VERTEX
  5
34F5E
330
19F73
100
AcDbEntity
  8
TITLE_BLOCK
  6
CONTINUOUS
 62
     7
100
AcDbVertex
100
AcDb2dVertex
 10
-20.494136
 20
-23.348809
 30
0.0
 70
     8
  0
VERTEX
  5
34F5F
330
19F73
100
AcDbEntity
  8
TITLE_BLOCK
  6
CONTINUOUS
 62
     7
100
AcDbVertex
100
AcDb2dVertex
 10
-20.509369
 20
-23.332446
 30
0.0
 70
     8
  0
VERTEX
  5
34F60
330
19F73
100
AcDbEntity
  8
TITLE_BLOCK
  6
CONTINUOUS
 62
     7
100
AcDbVertex
100
AcDb2dVertex
 10
-20.523376
 20
-23.314779
 30
0.0
 70
     8
  0
VERTEX
  5
34F61
330
19F73
100
AcDbEntity
  8
TITLE_BLOCK
  6
CONTINUOUS
 62
     7
100
AcDbVertex
100
AcDb2dVertex
 10
-20.536068
 20
-23.295802
 30
0.0
 70
     8
  0
VERTEX
  5
34F62
330
19F73
100
AcDbEntity
  8
TITLE_BLOCK
  6
CONTINUOUS
 62
     7
100
AcDbVertex
100
AcDb2dVertex
 10
-20.547355
 20
-23.275513
 30
0.0
 70
     8
  0
VERTEX
  5
34F63
330
19F73
100
AcDbEntity
  8
TITLE_BLOCK
  6
CONTINUOUS
 62
     7
100
AcDbVertex
100
AcDb2dVertex
 10
-20.557147
 20
-23.253907
 30
0.0
 70
     8
  0
VERTEX
  5
34F64
330
19F73
100
AcDbEntity
  8
TITLE_BLOCK
  6
CONTINUOUS
 62
     7
100
AcDbVertex
100
AcDb2dVertex
 10
-20.565355
 20
-23.230981
 30
0.0
 70
     8
  0
VERTEX
  5
34F65
330
19F73
100
AcDbEntity
  8
TITLE_BLOCK
  6
CONTINUOUS
 62
     7
100
AcDbVertex
100
AcDb2dVertex
 10
-20.474359
 20
-23.217675
 30
0.0
 70
     8
  0
VERTEX
  5
34F66
330
19F73
100
AcDbEntity
  8
TITLE_BLOCK
  6
CONTINUOUS
 62
     7
100
AcDbVertex
100
AcDb2dVertex
 10
-20.383363
 20
-23.202582
 30
0.0
 70
     8
  0
VERTEX
  5
34F67
330
19F73
100
AcDbEntity
  8
TITLE_BLOCK
  6
CONTINUOUS
 62
     7
100
AcDbVertex
100
AcDb2dVertex
 10
-20.373893
 20
-23.222032
 30
0.0
 70
     8
  0
VERTEX
  5
34F68
330
19F73
100
AcDbEntity
  8
TITLE_BLOCK
  6
CONTINUOUS
 62
     7
100
AcDbVertex
100
AcDb2dVertex
 10
-20.362697
 20
-23.238261
 30
0.0
 70
     8
  0
VERTEX
  5
34F69
330
19F73
100
AcDbEntity
  8
TITLE_BLOCK
  6
CONTINUOUS
 62
     7
100
AcDbVertex
100
AcDb2dVertex
 10
-20.349941
 20
-23.251527
 30
0.0
 70
     8
  0
VERTEX
  5
34F6A
330
19F73
100
AcDbEntity
  8
TITLE_BLOCK
  6
CONTINUOUS
 62
     7
100
AcDbVertex
100
AcDb2dVertex
 10
-20.335793
 20
-23.262088
 30
0.0
 70
     8
  0
VERTEX
  5
34F6B
330
19F73
100
AcDbEntity
  8
TITLE_BLOCK
  6
CONTINUOUS
 62
     7
100
AcDbVertex
100
AcDb2dVertex
 10
-20.320419
 20
-23.2702
 30
0.0
 70
     8
  0
VERTEX
  5
34F6C
330
19F73
100
AcDbEntity
  8
TITLE_BLOCK
  6
CONTINUOUS
 62
     7
100
AcDbVertex
100
AcDb2dVertex
 10
-20.303987
 20
-23.276121
 30
0.0
 70
     8
  0
VERTEX
  5
34F6D
330
19F73
100
AcDbEntity
  8
TITLE_BLOCK
  6
CONTINUOUS
 62
     7
100
AcDbVertex
100
AcDb2dVertex
 10
-20.286663
 20
-23.280107
 30
0.0
 70
     8
  0
VERTEX
  5
34F6E
330
19F73
100
AcDbEntity
  8
TITLE_BLOCK
  6
CONTINUOUS
 62
     7
100
AcDbVertex
100
AcDb2dVertex
 10
-20.268614
 20
-23.282416
 30
0.0
 70
     8
  0
VERTEX
  5
34F6F
330
19F73
100
AcDbEntity
  8
TITLE_BLOCK
  6
CONTINUOUS
 62
     7
100
AcDbVertex
100
AcDb2dVertex
 10
-20.231011
 20
-23.283032
 30
0.0
 70
     8
  0
VERTEX
  5
34F70
330
19F73
100
AcDbEntity
  8
TITLE_BLOCK
  6
CONTINUOUS
 62
     7
100
AcDbVertex
100
AcDb2dVertex
 10
-20.192511
 20
-23.280025
 30
0.0
 70
     8
  0
VERTEX
  5
34F71
330
19F73
100
AcDbEntity
  8
TITLE_BLOCK
  6
CONTINUOUS
 62
     7
100
AcDbVertex
100
AcDb2dVertex
 10
-20.118168
 20
-23.271372
 30
0.0
 70
     8
  0
VERTEX
  5
34F72
330
19F73
100
AcDbEntity
  8
TITLE_BLOCK
  6
CONTINUOUS
 62
     7
100
AcDbVertex
100
AcDb2dVertex
 10
-20.13057
 20
-23.183793
 30
0.0
 70
     8
  0
VERTEX
  5
34F73
330
19F73
100
AcDbEntity
  8
TITLE_BLOCK
  6
CONTINUOUS
 62
     7
100
AcDbVertex
100
AcDb2dVertex
 10
-20.251894
 20
-23.156127
 30
0.0
 70
     8
  0
VERTEX
  5
34F74
330
19F73
100
AcDbEntity
  8
TITLE_BLOCK
  6
CONTINUOUS
 62
     7
100
AcDbVertex
100
AcDb2dVertex
 10
-20.313367
 20
-23.139816
 30
0.0
 70
     8
  0
VERTEX
  5
34F75
330
19F73
100
AcDbEntity
  8
TITLE_BLOCK
  6
CONTINUOUS
 62
     7
100
AcDbVertex
100
AcDb2dVertex
 10
-20.343266
 20
-23.130064
 30
0.0
 70
     8
  0
VERTEX
  5
34F76
330
19F73
100
AcDbEntity
  8
TITLE_BLOCK
  6
CONTINUOUS
 62
     7
100
AcDbVertex
100
AcDb2dVertex
 10
-20.372211
 20
-23.118876
 30
0.0
 70
     8
  0
VERTEX
  5
34F77
330
19F73
100
AcDbEntity
  8
TITLE_BLOCK
  6
CONTINUOUS
 62
     7
100
AcDbVertex
100
AcDb2dVertex
 10
-20.399904
 20
-23.105973
 30
0.0
 70
     8
  0
VERTEX
  5
34F78
330
19F73
100
AcDbEntity
  8
TITLE_BLOCK
  6
CONTINUOUS
 62
     7
100
AcDbVertex
100
AcDb2dVertex
 10
-20.426048
 20
-23.091076
 30
0.0
 70
     8
  0
VERTEX
  5
34F79
330
19F73
100
AcDbEntity
  8
TITLE_BLOCK
  6
CONTINUOUS
 62
     7
100
AcDbVertex
100
AcDb2dVertex
 10
-20.450347
 20
-23.073905
 30
0.0
 70
     8
  0
VERTEX
  5
34F7A
330
19F73
100
AcDbEntity
  8
TITLE_BLOCK
  6
CONTINUOUS
 62
     7
100
AcDbVertex
100
AcDb2dVertex
 10
-20.472503
 20
-23.054182
 30
0.0
 70
     8
  0
VERTEX
  5
34F7B
330
19F73
100
AcDbEntity
  8
TITLE_BLOCK
  6
CONTINUOUS
 62
     7
100
AcDbVertex
100
AcDb2dVertex
 10
-20.492219
 20
-23.031628
 30
0.0
 70
     8
  0
VERTEX
  5
34F7C
330
19F73
100
AcDbEntity
  8
TITLE_BLOCK
  6
CONTINUOUS
 62
     7
100
AcDbVertex
100
AcDb2dVertex
 10
-20.509197
 20
-23.005962
 30
0.0
 70
     8
  0
VERTEX
  5
34F7D
330
19F73
100
AcDbEntity
  8
TITLE_BLOCK
  6
CONTINUOUS
 62
     7
100
AcDbVertex
100
AcDb2dVertex
 10
-20.523141
 20
-22.976908
 30
0.0
 70
     8
  0
VERTEX
  5
34F7E
330
19F73
100
AcDbEntity
  8
TITLE_BLOCK
  6
CONTINUOUS
 62
     7
100
AcDbVertex
100
AcDb2dVertex
 10
-20.533754
 20
-22.944184
 30
0.0
 70
     8
  0
VERTEX
  5
34F7F
330
19F73
100
AcDbEntity
  8
TITLE_BLOCK
  6
CONTINUOUS
 62
     7
100
AcDbVertex
100
AcDb2dVertex
 10
-20.484466
 20
-22.874384
 30
0.0
 70
     8
  0
VERTEX
  5
34F80
330
19F73
100
AcDbEntity
  8
TITLE_BLOCK
  6
CONTINUOUS
 62
     7
100
AcDbVertex
100
AcDb2dVertex
 10
-20.433363
 20
-22.805786
 30
0.0
 70
     8
  0
VERTEX
  5
34F81
330
19F73
100
AcDbEntity
  8
TITLE_BLOCK
  6
CONTINUOUS
 62
     7
100
AcDbVertex
100
AcDb2dVertex
 10
-20.365865
 20
-22.786332
 30
0.0
 70
     8
  0
VERTEX
  5
34F82
330
19F73
100
AcDbEntity
  8
TITLE_BLOCK
  6
CONTINUOUS
 62
     7
100
AcDbVertex
100
AcDb2dVertex
 10
-20.298968
 20
-22.764184
 30
0.0
 70
     8
  0
VERTEX
  5
34F83
330
19F73
100
AcDbEntity
  8
TITLE_BLOCK
  6
CONTINUOUS
 62
     7
100
AcDbVertex
100
AcDb2dVertex
 10
-20.298968
 20
-22.764184
 30
0.0
 70
     8
  0
VERTEX
  5
34F84
330
19F73
100
AcDbEntity
  8
TITLE_BLOCK
  6
CONTINUOUS
 62
     7
100
AcDbVertex
100
AcDb2dVertex
 10
-20.298968
 20
-22.764184
 30
0.0
 70
    16
  0
VERTEX
  5
34F85
330
19F73
100
AcDbEntity
  8
TITLE_BLOCK
  6
CONTINUOUS
 62
     7
100
AcDbVertex
100
AcDb2dVertex
 10
-20.214554
 20
-22.766176
 30
0.0
 70
    16
  0
VERTEX
  5
34F86
330
19F73
100
AcDbEntity
  8
TITLE_BLOCK
  6
CONTINUOUS
 62
     7
100
AcDbVertex
100
AcDb2dVertex
 10
-20.131761
 20
-22.784184
 30
0.0
 70
    16
  0
VERTEX
  5
34F87
330
19F73
100
AcDbEntity
  8
TITLE_BLOCK
  6
CONTINUOUS
 62
     7
100
AcDbVertex
100
AcDb2dVertex
 10
-20.048558
 20
-22.799379
 30
0.0
 70
    16
  0
VERTEX
  5
34F88
330
19F73
100
AcDbEntity
  8
TITLE_BLOCK
  6
CONTINUOUS
 62
     7
100
AcDbVertex
100
AcDb2dVertex
 10
-20.016957
 20
-22.852582
 30
0.0
 70
    16
  0
VERTEX
  5
34F89
330
19F73
100
AcDbEntity
  8
TITLE_BLOCK
  6
CONTINUOUS
 62
     7
100
AcDbVertex
100
AcDb2dVertex
 10
-19.987757
 20
-22.906957
 30
0.0
 70
    16
  0
VERTEX
  5
34F8A
330
19F73
100
AcDbEntity
  8
TITLE_BLOCK
  6
CONTINUOUS
 62
     7
100
AcDbVertex
100
AcDb2dVertex
 10
-19.96057
 20
-22.962582
 30
0.0
 70
    16
  0
VERTEX
  5
34F8B
330
19F73
100
AcDbEntity
  8
TITLE_BLOCK
  6
CONTINUOUS
 62
     7
100
AcDbVertex
100
AcDb2dVertex
 10
-20.04016
 20
-22.963364
 30
0.0
 70
    16
  0
VERTEX
  5
34F8C
330
19F73
100
AcDbEntity
  8
TITLE_BLOCK
  6
CONTINUOUS
 62
     7
100
AcDbVertex
100
AcDb2dVertex
 10
-20.126156
 20
-22.982192
 30
0.0
 70
    16
  0
VERTEX
  5
34F8D
330
19F73
100
AcDbEntity
  8
TITLE_BLOCK
  6
CONTINUOUS
 62
     7
100
AcDbVertex
100
AcDb2dVertex
 10
-20.195355
 20
-22.92977
 30
0.0
 70
    16
  0
VERTEX
  5
34F8E
330
19F73
100
AcDbEntity
  8
TITLE_BLOCK
  6
CONTINUOUS
 62
     7
100
AcDbVertex
100
AcDb2dVertex
 10
-20.241371
 20
-22.928168
 30
0.0
 70
    16
  0
VERTEX
  5
34F8F
330
19F73
100
AcDbEntity
  8
TITLE_BLOCK
  6
CONTINUOUS
 62
     7
100
AcDbVertex
100
AcDb2dVertex
 10
-20.287757
 20
-22.927387
 30
0.0
 70
    16
  0
VERTEX
  5
34F90
330
19F73
100
AcDbEntity
  8
TITLE_BLOCK
  6
CONTINUOUS
 62
     7
100
AcDbVertex
100
AcDb2dVertex
 10
-20.333754
 20
-22.926957
 30
0.0
 70
    16
  0
VERTEX
  5
34F91
330
19F73
100
AcDbEntity
  8
TITLE_BLOCK
  6
CONTINUOUS
 62
     7
100
AcDbVertex
100
AcDb2dVertex
 10
-20.325355
 20
-23.047387
 30
0.0
 70
    16
  0
VERTEX
  5
34F92
330
19F73
100
AcDbEntity
  8
TITLE_BLOCK
  6
CONTINUOUS
 62
     7
100
AcDbVertex
100
AcDb2dVertex
 10
-20.18057
 20
-23.017778
 30
0.0
 70
    16
  0
VERTEX
  5
34F93
330
19F73
100
AcDbEntity
  8
TITLE_BLOCK
  6
CONTINUOUS
 62
     7
100
AcDbVertex
100
AcDb2dVertex
 10
-20.098968
 20
-23.051372
 30
0.0
 70
    16
  0
VERTEX
  5
34F94
330
19F73
100
AcDbEntity
  8
TITLE_BLOCK
  6
CONTINUOUS
 62
     7
100
AcDbVertex
100
AcDb2dVertex
 10
-19.972953
 20
-23.065786
 30
0.0
 70
    16
  0
VERTEX
  5
34F95
330
19F73
100
AcDbEntity
  8
TITLE_BLOCK
  6
CONTINUOUS
 62
     7
100
AcDbVertex
100
AcDb2dVertex
 10
-19.869359
 20
-23.219379
 30
0.0
 70
    16
  0
VERTEX
  5
34F96
330
19F73
100
AcDbEntity
  8
TITLE_BLOCK
  6
CONTINUOUS
 62
     7
100
AcDbVertex
100
AcDb2dVertex
 10
-19.960961
 20
-23.328989
 30
0.0
 70
    16
  0
VERTEX
  5
34F97
330
19F73
100
AcDbEntity
  8
TITLE_BLOCK
  6
CONTINUOUS
 62
     7
100
AcDbVertex
100
AcDb2dVertex
 10
-20.122172
 20
-23.508168
 30
0.0
 70
    16
  0
VERTEX
  5
34F98
330
19F73
100
AcDbEntity
  8
TITLE_BLOCK
  6
CONTINUOUS
 62
     7
100
AcDbVertex
100
AcDb2dVertex
 10
-20.486566
 20
-23.482582
 30
0.0
 70
    16
  0
VERTEX
  5
34F99
330
19F73
100
AcDbEntity
  8
TITLE_BLOCK
  6
CONTINUOUS
 62
     7
100
AcDbVertex
100
AcDb2dVertex
 10
-20.565355
 20
-23.230981
 30
0.0
 70
    16
  0
VERTEX
  5
34F9A
330
19F73
100
AcDbEntity
  8
TITLE_BLOCK
  6
CONTINUOUS
 62
     7
100
AcDbVertex
100
AcDb2dVertex
 10
-20.504554
 20
-23.222973
 30
0.0
 70
    16
  0
VERTEX
  5
34F9B
330
19F73
100
AcDbEntity
  8
TITLE_BLOCK
  6
CONTINUOUS
 62
     7
100
AcDbVertex
100
AcDb2dVertex
 10
-20.444164
 20
-23.212973
 30
0.0
 70
    16
  0
VERTEX
  5
34F9C
330
19F73
100
AcDbEntity
  8
TITLE_BLOCK
  6
CONTINUOUS
 62
     7
100
AcDbVertex
100
AcDb2dVertex
 10
-20.383363
 20
-23.202582
 30
0.0
 70
    16
  0
VERTEX
  5
34F9D
330
19F73
100
AcDbEntity
  8
TITLE_BLOCK
  6
CONTINUOUS
 62
     7
100
AcDbVertex
100
AcDb2dVertex
 10
-20.337757
 20
-23.315356
 30
0.0
 70
    16
  0
VERTEX
  5
34F9E
330
19F73
100
AcDbEntity
  8
TITLE_BLOCK
  6
CONTINUOUS
 62
     7
100
AcDbVertex
100
AcDb2dVertex
 10
-20.211371
 20
-23.27977
 30
0.0
 70
    16
  0
VERTEX
  5
34F9F
330
19F73
100
AcDbEntity
  8
TITLE_BLOCK
  6
CONTINUOUS
 62
     7
100
AcDbVertex
100
AcDb2dVertex
 10
-20.118168
 20
-23.271372
 30
0.0
 70
    16
  0
VERTEX
  5
34FA0
330
19F73
100
AcDbEntity
  8
TITLE_BLOCK
  6
CONTINUOUS
 62
     7
100
AcDbVertex
100
AcDb2dVertex
 10
-20.121371
 20
-23.24977
 30
0.0
 70
    16
  0
VERTEX
  5
34FA1
330
19F73
100
AcDbEntity
  8
TITLE_BLOCK
  6
CONTINUOUS
 62
     7
100
AcDbVertex
100
AcDb2dVertex
 10
-20.127367
 20
-23.205786
 30
0.0
 70
    16
  0
VERTEX
  5
34FA2
330
19F73
100
AcDbEntity
  8
TITLE_BLOCK
  6
CONTINUOUS
 62
     7
100
AcDbVertex
100
AcDb2dVertex
 10
-20.13057
 20
-23.183793
 30
0.0
 70
    16
  0
VERTEX
  5
34FA3
330
19F73
100
AcDbEntity
  8
TITLE_BLOCK
  6
CONTINUOUS
 62
     7
100
AcDbVertex
100
AcDb2dVertex
 10
-20.284554
 20
-23.145356
 30
0.0
 70
    16
  0
VERTEX
  5
34FA4
330
19F73
100
AcDbEntity
  8
TITLE_BLOCK
  6
CONTINUOUS
 62
     7
100
AcDbVertex
100
AcDb2dVertex
 10
-20.486566
 20
-23.128989
 30
0.0
 70
    16
  0
VERTEX
  5
34FA5
330
19F73
100
AcDbEntity
  8
TITLE_BLOCK
  6
CONTINUOUS
 62
     7
100
AcDbVertex
100
AcDb2dVertex
 10
-20.533754
 20
-22.944184
 30
0.0
 70
    16
  0
VERTEX
  5
34FA6
330
19F73
100
AcDbEntity
  8
TITLE_BLOCK
  6
CONTINUOUS
 62
     7
100
AcDbVertex
100
AcDb2dVertex
 10
-20.501371
 20
-22.897387
 30
0.0
 70
    16
  0
VERTEX
  5
34FA7
330
19F73
100
AcDbEntity
  8
TITLE_BLOCK
  6
CONTINUOUS
 62
     7
100
AcDbVertex
100
AcDb2dVertex
 10
-20.468168
 20
-22.850981
 30
0.0
 70
    16
  0
VERTEX
  5
34FA8
330
19F73
100
AcDbEntity
  8
TITLE_BLOCK
  6
CONTINUOUS
 62
     7
100
AcDbVertex
100
AcDb2dVertex
 10
-20.433363
 20
-22.805786
 30
0.0
 70
    16
  0
VERTEX
  5
34FA9
330
19F73
100
AcDbEntity
  8
TITLE_BLOCK
  6
CONTINUOUS
 62
     7
100
AcDbVertex
100
AcDb2dVertex
 10
-20.388168
 20
-22.793793
 30
0.0
 70
    16
  0
VERTEX
  5
34FAA
330
19F73
100
AcDbEntity
  8
TITLE_BLOCK
  6
CONTINUOUS
 62
     7
100
AcDbVertex
100
AcDb2dVertex
 10
-20.343363
 20
-22.77977
 30
0.0
 70
    16
  0
VERTEX
  5
34FAB
330
19F73
100
AcDbEntity
  8
TITLE_BLOCK
  6
CONTINUOUS
 62
     7
100
AcDbVertex
100
AcDb2dVertex
 10
-20.298968
 20
-22.764184
 30
0.0
 70
    16
  0
VERTEX
  5
34FAC
330
19F73
100
AcDbEntity
  8
TITLE_BLOCK
  6
CONTINUOUS
 62
     7
100
AcDbVertex
100
AcDb2dVertex
 10
-20.298968
 20
-22.764184
 30
0.0
 70
    16
  0
VERTEX
  5
34FAD
330
19F73
100
AcDbEntity
  8
TITLE_BLOCK
  6
CONTINUOUS
 62
     7
100
AcDbVertex
100
AcDb2dVertex
 10
-20.298968
 20
-22.764184
 30
0.0
 70
    16
  0
VERTEX
  5
34FAE
330
19F73
100
AcDbEntity
  8
TITLE_BLOCK
  6
CONTINUOUS
 62
     7
100
AcDbVertex
100
AcDb2dVertex
 10
-20.298968
 20
-22.764184
 30
0.0
 70
    16
  0
SEQEND
  5
34FAF
330
19F73
100
AcDbEntity
  8
TITLE_BLOCK
  6
CONTINUOUS
 62
     7
  0
POLYLINE
  5
19FFD
330
34C93
100
AcDbEntity
  8
TITLE_BLOCK
  6
CONTINUOUS
 62
     7
100
AcDb2dPolyline
 66
     1
 10
0.0
 20
0.0
 30
0.0
 70
     5
 75
     5
  0
VERTEX
  5
34FB0
330
19FFD
100
AcDbEntity
  8
TITLE_BLOCK
  6
CONTINUOUS
 62
     7
100
AcDbVertex
100
AcDb2dVertex
 10
-19.800961
 20
-22.763364
 30
0.0
 70
     8
  0
VERTEX
  5
34FB1
330
19FFD
100
AcDbEntity
  8
TITLE_BLOCK
  6
CONTINUOUS
 62
     7
100
AcDbVertex
100
AcDb2dVertex
 10
-19.522511
 20
-22.765024
 30
0.0
 70
     8
  0
VERTEX
  5
34FB2
330
19FFD
100
AcDbEntity
  8
TITLE_BLOCK
  6
CONTINUOUS
 62
     7
100
AcDbVertex
100
AcDb2dVertex
 10
-19.243754
 20
-22.764575
 30
0.0
 70
     8
  0
VERTEX
  5
34FB3
330
19FFD
100
AcDbEntity
  8
TITLE_BLOCK
  6
CONTINUOUS
 62
     7
100
AcDbVertex
100
AcDb2dVertex
 10
-19.243754
 20
-22.923364
 30
0.0
 70
     8
  0
VERTEX
  5
34FB4
330
19FFD
100
AcDbEntity
  8
TITLE_BLOCK
  6
CONTINUOUS
 62
     7
100
AcDbVertex
100
AcDb2dVertex
 10
-19.605355
 20
-22.924184
 30
0.0
 70
     8
  0
VERTEX
  5
34FB5
330
19FFD
100
AcDbEntity
  8
TITLE_BLOCK
  6
CONTINUOUS
 62
     7
100
AcDbVertex
100
AcDb2dVertex
 10
-19.601761
 20
-23.004965
 30
0.0
 70
     8
  0
VERTEX
  5
34FB6
330
19FFD
100
AcDbEntity
  8
TITLE_BLOCK
  6
CONTINUOUS
 62
     7
100
AcDbVertex
100
AcDb2dVertex
 10
-19.440961
 20
-23.005678
 30
0.0
 70
     8
  0
VERTEX
  5
34FB7
330
19FFD
100
AcDbEntity
  8
TITLE_BLOCK
  6
CONTINUOUS
 62
     7
100
AcDbVertex
100
AcDb2dVertex
 10
-19.28016
 20
-23.004575
 30
0.0
 70
     8
  0
VERTEX
  5
34FB8
330
19FFD
100
AcDbEntity
  8
TITLE_BLOCK
  6
CONTINUOUS
 62
     7
100
AcDbVertex
100
AcDb2dVertex
 10
-19.28057
 20
-23.168559
 30
0.0
 70
     8
  0
VERTEX
  5
34FB9
330
19FFD
100
AcDbEntity
  8
TITLE_BLOCK
  6
CONTINUOUS
 62
     7
100
AcDbVertex
100
AcDb2dVertex
 10
-19.441517
 20
-23.164565
 30
0.0
 70
     8
  0
VERTEX
  5
34FBA
330
19FFD
100
AcDbEntity
  8
TITLE_BLOCK
  6
CONTINUOUS
 62
     7
100
AcDbVertex
100
AcDb2dVertex
 10
-19.602172
 20
-23.162973
 30
0.0
 70
     8
  0
VERTEX
  5
34FBB
330
19FFD
100
AcDbEntity
  8
TITLE_BLOCK
  6
CONTINUOUS
 62
     7
100
AcDbVertex
100
AcDb2dVertex
 10
-19.602562
 20
-23.285786
 30
0.0
 70
     8
  0
VERTEX
  5
34FBC
330
19FFD
100
AcDbEntity
  8
TITLE_BLOCK
  6
CONTINUOUS
 62
     7
100
AcDbVertex
100
AcDb2dVertex
 10
-19.243363
 20
-23.28059
 30
0.0
 70
     8
  0
VERTEX
  5
34FBD
330
19FFD
100
AcDbEntity
  8
TITLE_BLOCK
  6
CONTINUOUS
 62
     7
100
AcDbVertex
100
AcDb2dVertex
 10
-19.243363
 20
-23.443364
 30
0.0
 70
     8
  0
VERTEX
  5
34FBE
330
19FFD
100
AcDbEntity
  8
TITLE_BLOCK
  6
CONTINUOUS
 62
     7
100
AcDbVertex
100
AcDb2dVertex
 10
-19.524366
 20
-23.44476
 30
0.0
 70
     8
  0
VERTEX
  5
34FBF
330
19FFD
100
AcDbEntity
  8
TITLE_BLOCK
  6
CONTINUOUS
 62
     7
100
AcDbVertex
100
AcDb2dVertex
 10
-19.805355
 20
-23.442582
 30
0.0
 70
     8
  0
VERTEX
  5
34FC0
330
19FFD
100
AcDbEntity
  8
TITLE_BLOCK
  6
CONTINUOUS
 62
     7
100
AcDbVertex
100
AcDb2dVertex
 10
-19.803207
 20
-23.272778
 30
0.0
 70
     8
  0
VERTEX
  5
34FC1
330
19FFD
100
AcDbEntity
  8
TITLE_BLOCK
  6
CONTINUOUS
 62
     7
100
AcDbVertex
100
AcDb2dVertex
 10
-19.803158
 20
-23.102973
 30
0.0
 70
     8
  0
VERTEX
  5
34FC2
330
19FFD
100
AcDbEntity
  8
TITLE_BLOCK
  6
CONTINUOUS
 62
     7
100
AcDbVertex
100
AcDb2dVertex
 10
-19.803108
 20
-22.933168
 30
0.0
 70
     8
  0
VERTEX
  5
34FC3
330
19FFD
100
AcDbEntity
  8
TITLE_BLOCK
  6
CONTINUOUS
 62
     7
100
AcDbVertex
100
AcDb2dVertex
 10
-19.800961
 20
-22.763364
 30
0.0
 70
     8
  0
VERTEX
  5
34FC4
330
19FFD
100
AcDbEntity
  8
TITLE_BLOCK
  6
CONTINUOUS
 62
     7
100
AcDbVertex
100
AcDb2dVertex
 10
-19.800961
 20
-22.763364
 30
0.0
 70
     8
  0
VERTEX
  5
34FC5
330
19FFD
100
AcDbEntity
  8
TITLE_BLOCK
  6
CONTINUOUS
 62
     7
100
AcDbVertex
100
AcDb2dVertex
 10
-19.800961
 20
-22.763364
 30
0.0
 70
    16
  0
VERTEX
  5
34FC6
330
19FFD
100
AcDbEntity
  8
TITLE_BLOCK
  6
CONTINUOUS
 62
     7
100
AcDbVertex
100
AcDb2dVertex
 10
-19.615355
 20
-22.766176
 30
0.0
 70
    16
  0
VERTEX
  5
34FC7
330
19FFD
100
AcDbEntity
  8
TITLE_BLOCK
  6
CONTINUOUS
 62
     7
100
AcDbVertex
100
AcDb2dVertex
 10
-19.429769
 20
-22.764575
 30
0.0
 70
    16
  0
VERTEX
  5
34FC8
330
19FFD
100
AcDbEntity
  8
TITLE_BLOCK
  6
CONTINUOUS
 62
     7
100
AcDbVertex
100
AcDb2dVertex
 10
-19.243754
 20
-22.764575
 30
0.0
 70
    16
  0
VERTEX
  5
34FC9
330
19FFD
100
AcDbEntity
  8
TITLE_BLOCK
  6
CONTINUOUS
 62
     7
100
AcDbVertex
100
AcDb2dVertex
 10
-19.244164
 20
-22.817387
 30
0.0
 70
    16
  0
VERTEX
  5
34FCA
330
19FFD
100
AcDbEntity
  8
TITLE_BLOCK
  6
CONTINUOUS
 62
     7
100
AcDbVertex
100
AcDb2dVertex
 10
-19.244164
 20
-22.870161
 30
0.0
 70
    16
  0
VERTEX
  5
34FCB
330
19FFD
100
AcDbEntity
  8
TITLE_BLOCK
  6
CONTINUOUS
 62
     7
100
AcDbVertex
100
AcDb2dVertex
 10
-19.243754
 20
-22.923364
 30
0.0
 70
    16
  0
VERTEX
  5
34FCC
330
19FFD
100
AcDbEntity
  8
TITLE_BLOCK
  6
CONTINUOUS
 62
     7
100
AcDbVertex
100
AcDb2dVertex
 10
-19.364554
 20
-22.923364
 30
0.0
 70
    16
  0
VERTEX
  5
34FCD
330
19FFD
100
AcDbEntity
  8
TITLE_BLOCK
  6
CONTINUOUS
 62
     7
100
AcDbVertex
100
AcDb2dVertex
 10
-19.484964
 20
-22.923364
 30
0.0
 70
    16
  0
VERTEX
  5
34FCE
330
19FFD
100
AcDbEntity
  8
TITLE_BLOCK
  6
CONTINUOUS
 62
     7
100
AcDbVertex
100
AcDb2dVertex
 10
-19.605355
 20
-22.924184
 30
0.0
 70
    16
  0
VERTEX
  5
34FCF
330
19FFD
100
AcDbEntity
  8
TITLE_BLOCK
  6
CONTINUOUS
 62
     7
100
AcDbVertex
100
AcDb2dVertex
 10
-19.604554
 20
-22.944184
 30
0.0
 70
    16
  0
VERTEX
  5
34FD0
330
19FFD
100
AcDbEntity
  8
TITLE_BLOCK
  6
CONTINUOUS
 62
     7
100
AcDbVertex
100
AcDb2dVertex
 10
-19.602562
 20
-22.984575
 30
0.0
 70
    16
  0
VERTEX
  5
34FD1
330
19FFD
100
AcDbEntity
  8
TITLE_BLOCK
  6
CONTINUOUS
 62
     7
100
AcDbVertex
100
AcDb2dVertex
 10
-19.601761
 20
-23.004965
 30
0.0
 70
    16
  0
VERTEX
  5
34FD2
330
19FFD
100
AcDbEntity
  8
TITLE_BLOCK
  6
CONTINUOUS
 62
     7
100
AcDbVertex
100
AcDb2dVertex
 10
-19.494554
 20
-23.006176
 30
0.0
 70
    16
  0
VERTEX
  5
34FD3
330
19FFD
100
AcDbEntity
  8
TITLE_BLOCK
  6
CONTINUOUS
 62
     7
100
AcDbVertex
100
AcDb2dVertex
 10
-19.387367
 20
-23.005786
 30
0.0
 70
    16
  0
VERTEX
  5
34FD4
330
19FFD
100
AcDbEntity
  8
TITLE_BLOCK
  6
CONTINUOUS
 62
     7
100
AcDbVertex
100
AcDb2dVertex
 10
-19.28016
 20
-23.004575
 30
0.0
 70
    16
  0
VERTEX
  5
34FD5
330
19FFD
100
AcDbEntity
  8
TITLE_BLOCK
  6
CONTINUOUS
 62
     7
100
AcDbVertex
100
AcDb2dVertex
 10
-19.280961
 20
-23.058989
 30
0.0
 70
    16
  0
VERTEX
  5
34FD6
330
19FFD
100
AcDbEntity
  8
TITLE_BLOCK
  6
CONTINUOUS
 62
     7
100
AcDbVertex
100
AcDb2dVertex
 10
-19.280961
 20
-23.113793
 30
0.0
 70
    16
  0
VERTEX
  5
34FD7
330
19FFD
100
AcDbEntity
  8
TITLE_BLOCK
  6
CONTINUOUS
 62
     7
100
AcDbVertex
100
AcDb2dVertex
 10
-19.28057
 20
-23.168559
 30
0.0
 70
    16
  0
VERTEX
  5
34FD8
330
19FFD
100
AcDbEntity
  8
TITLE_BLOCK
  6
CONTINUOUS
 62
     7
100
AcDbVertex
100
AcDb2dVertex
 10
-19.388168
 20
-23.164965
 30
0.0
 70
    16
  0
VERTEX
  5
34FD9
330
19FFD
100
AcDbEntity
  8
TITLE_BLOCK
  6
CONTINUOUS
 62
     7
100
AcDbVertex
100
AcDb2dVertex
 10
-19.494964
 20
-23.163364
 30
0.0
 70
    16
  0
VERTEX
  5
34FDA
330
19FFD
100
AcDbEntity
  8
TITLE_BLOCK
  6
CONTINUOUS
 62
     7
100
AcDbVertex
100
AcDb2dVertex
 10
-19.602172
 20
-23.162973
 30
0.0
 70
    16
  0
VERTEX
  5
34FDB
330
19FFD
100
AcDbEntity
  8
TITLE_BLOCK
  6
CONTINUOUS
 62
     7
100
AcDbVertex
100
AcDb2dVertex
 10
-19.602172
 20
-23.193793
 30
0.0
 70
    16
  0
VERTEX
  5
34FDC
330
19FFD
100
AcDbEntity
  8
TITLE_BLOCK
  6
CONTINUOUS
 62
     7
100
AcDbVertex
100
AcDb2dVertex
 10
-19.602172
 20
-23.254965
 30
0.0
 70
    16
  0
VERTEX
  5
34FDD
330
19FFD
100
AcDbEntity
  8
TITLE_BLOCK
  6
CONTINUOUS
 62
     7
100
AcDbVertex
100
AcDb2dVertex
 10
-19.602562
 20
-23.285786
 30
0.0
 70
    16
  0
VERTEX
  5
34FDE
330
19FFD
100
AcDbEntity
  8
TITLE_BLOCK
  6
CONTINUOUS
 62
     7
100
AcDbVertex
100
AcDb2dVertex
 10
-19.482562
 20
-23.282582
 30
0.0
 70
    16
  0
VERTEX
  5
34FDF
330
19FFD
100
AcDbEntity
  8
TITLE_BLOCK
  6
CONTINUOUS
 62
     7
100
AcDbVertex
100
AcDb2dVertex
 10
-19.362953
 20
-23.284184
 30
0.0
 70
    16
  0
VERTEX
  5
34FE0
330
19FFD
100
AcDbEntity
  8
TITLE_BLOCK
  6
CONTINUOUS
 62
     7
100
AcDbVertex
100
AcDb2dVertex
 10
-19.243363
 20
-23.28059
 30
0.0
 70
    16
  0
VERTEX
  5
34FE1
330
19FFD
100
AcDbEntity
  8
TITLE_BLOCK
  6
CONTINUOUS
 62
     7
100
AcDbVertex
100
AcDb2dVertex
 10
-19.243363
 20
-23.334965
 30
0.0
 70
    16
  0
VERTEX
  5
34FE2
330
19FFD
100
AcDbEntity
  8
TITLE_BLOCK
  6
CONTINUOUS
 62
     7
100
AcDbVertex
100
AcDb2dVertex
 10
-19.243363
 20
-23.388989
 30
0.0
 70
    16
  0
VERTEX
  5
34FE3
330
19FFD
100
AcDbEntity
  8
TITLE_BLOCK
  6
CONTINUOUS
 62
     7
100
AcDbVertex
100
AcDb2dVertex
 10
-19.243363
 20
-23.443364
 30
0.0
 70
    16
  0
VERTEX
  5
34FE4
330
19FFD
100
AcDbEntity
  8
TITLE_BLOCK
  6
CONTINUOUS
 62
     7
100
AcDbVertex
100
AcDb2dVertex
 10
-19.43057
 20
-23.445356
 30
0.0
 70
    16
  0
VERTEX
  5
34FE5
330
19FFD
100
AcDbEntity
  8
TITLE_BLOCK
  6
CONTINUOUS
 62
     7
100
AcDbVertex
100
AcDb2dVertex
 10
-19.618168
 20
-23.445356
 30
0.0
 70
    16
  0
VERTEX
  5
34FE6
330
19FFD
100
AcDbEntity
  8
TITLE_BLOCK
  6
CONTINUOUS
 62
     7
100
AcDbVertex
100
AcDb2dVertex
 10
-19.805355
 20
-23.442582
 30
0.0
 70
    16
  0
VERTEX
  5
34FE7
330
19FFD
100
AcDbEntity
  8
TITLE_BLOCK
  6
CONTINUOUS
 62
     7
100
AcDbVertex
100
AcDb2dVertex
 10
-19.80016
 20
-23.216176
 30
0.0
 70
    16
  0
VERTEX
  5
34FE8
330
19FFD
100
AcDbEntity
  8
TITLE_BLOCK
  6
CONTINUOUS
 62
     7
100
AcDbVertex
100
AcDb2dVertex
 10
-19.806156
 20
-22.98977
 30
0.0
 70
    16
  0
VERTEX
  5
34FE9
330
19FFD
100
AcDbEntity
  8
TITLE_BLOCK
  6
CONTINUOUS
 62
     7
100
AcDbVertex
100
AcDb2dVertex
 10
-19.800961
 20
-22.763364
 30
0.0
 70
    16
  0
VERTEX
  5
34FEA
330
19FFD
100
AcDbEntity
  8
TITLE_BLOCK
  6
CONTINUOUS
 62
     7
100
AcDbVertex
100
AcDb2dVertex
 10
-19.800961
 20
-22.763364
 30
0.0
 70
    16
  0
VERTEX
  5
34FEB
330
19FFD
100
AcDbEntity
  8
TITLE_BLOCK
  6
CONTINUOUS
 62
     7
100
AcDbVertex
100
AcDb2dVertex
 10
-19.800961
 20
-22.763364
 30
0.0
 70
    16
  0
VERTEX
  5
34FEC
330
19FFD
100
AcDbEntity
  8
TITLE_BLOCK
  6
CONTINUOUS
 62
     7
100
AcDbVertex
100
AcDb2dVertex
 10
-19.800961
 20
-22.763364
 30
0.0
 70
    16
  0
SEQEND
  5
34FED
330
19FFD
100
AcDbEntity
  8
TITLE_BLOCK
  6
CONTINUOUS
 62
     7
  0
POLYLINE
  5
1A03B
330
34C93
100
AcDbEntity
  8
TITLE_BLOCK
  6
CONTINUOUS
 62
     7
100
AcDb2dPolyline
 66
     1
 10
0.0
 20
0.0
 30
0.0
 70
     5
 75
     5
  0
VERTEX
  5
34FEE
330
1A03B
100
AcDbEntity
  8
TITLE_BLOCK
  6
CONTINUOUS
 62
     7
100
AcDbVertex
100
AcDb2dVertex
 10
-18.842172
 20
-22.953793
 30
0.0
 70
     8
  0
VERTEX
  5
34FEF
330
1A03B
100
AcDbEntity
  8
TITLE_BLOCK
  6
CONTINUOUS
 62
     7
100
AcDbVertex
100
AcDb2dVertex
 10
-18.834579
 20
-22.922704
 30
0.0
 70
     8
  0
VERTEX
  5
34FF0
330
1A03B
100
AcDbEntity
  8
TITLE_BLOCK
  6
CONTINUOUS
 62
     7
100
AcDbVertex
100
AcDb2dVertex
 10
-18.823143
 20
-22.89477
 30
0.0
 70
     8
  0
VERTEX
  5
34FF1
330
1A03B
100
AcDbEntity
  8
TITLE_BLOCK
  6
CONTINUOUS
 62
     7
100
AcDbVertex
100
AcDb2dVertex
 10
-18.808219
 20
-22.869883
 30
0.0
 70
     8
  0
VERTEX
  5
34FF2
330
1A03B
100
AcDbEntity
  8
TITLE_BLOCK
  6
CONTINUOUS
 62
     7
100
AcDbVertex
100
AcDb2dVertex
 10
-18.790162
 20
-22.847936
 30
0.0
 70
     8
  0
VERTEX
  5
34FF3
330
1A03B
100
AcDbEntity
  8
TITLE_BLOCK
  6
CONTINUOUS
 62
     7
100
AcDbVertex
100
AcDb2dVertex
 10
-18.769328
 20
-22.82882
 30
0.0
 70
     8
  0
VERTEX
  5
34FF4
330
1A03B
100
AcDbEntity
  8
TITLE_BLOCK
  6
CONTINUOUS
 62
     7
100
AcDbVertex
100
AcDb2dVertex
 10
-18.746072
 20
-22.812428
 30
0.0
 70
     8
  0
VERTEX
  5
34FF5
330
1A03B
100
AcDbEntity
  8
TITLE_BLOCK
  6
CONTINUOUS
 62
     7
100
AcDbVertex
100
AcDb2dVertex
 10
-18.720751
 20
-22.798651
 30
0.0
 70
     8
  0
VERTEX
  5
34FF6
330
1A03B
100
AcDbEntity
  8
TITLE_BLOCK
  6
CONTINUOUS
 62
     7
100
AcDbVertex
100
AcDb2dVertex
 10
-18.693719
 20
-22.787382
 30
0.0
 70
     8
  0
VERTEX
  5
34FF7
330
1A03B
100
AcDbEntity
  8
TITLE_BLOCK
  6
CONTINUOUS
 62
     7
100
AcDbVertex
100
AcDb2dVertex
 10
-18.665333
 20
-22.778514
 30
0.0
 70
     8
  0
VERTEX
  5
34FF8
330
1A03B
100
AcDbEntity
  8
TITLE_BLOCK
  6
CONTINUOUS
 62
     7
100
AcDbVertex
100
AcDb2dVertex
 10
-18.635949
 20
-22.771937
 30
0.0
 70
     8
  0
VERTEX
  5
34FF9
330
1A03B
100
AcDbEntity
  8
TITLE_BLOCK
  6
CONTINUOUS
 62
     7
100
AcDbVertex
100
AcDb2dVertex
 10
-18.60592
 20
-22.767545
 30
0.0
 70
     8
  0
VERTEX
  5
34FFA
330
1A03B
100
AcDbEntity
  8
TITLE_BLOCK
  6
CONTINUOUS
 62
     7
100
AcDbVertex
100
AcDb2dVertex
 10
-18.575605
 20
-22.76523
 30
0.0
 70
     8
  0
VERTEX
  5
34FFB
330
1A03B
100
AcDbEntity
  8
TITLE_BLOCK
  6
CONTINUOUS
 62
     7
100
AcDbVertex
100
AcDb2dVertex
 10
-18.545357
 20
-22.764883
 30
0.0
 70
     8
  0
VERTEX
  5
34FFC
330
1A03B
100
AcDbEntity
  8
TITLE_BLOCK
  6
CONTINUOUS
 62
     7
100
AcDbVertex
100
AcDb2dVertex
 10
-18.515533
 20
-22.766396
 30
0.0
 70
     8
  0
VERTEX
  5
34FFD
330
1A03B
100
AcDbEntity
  8
TITLE_BLOCK
  6
CONTINUOUS
 62
     7
100
AcDbVertex
100
AcDb2dVertex
 10
-18.486488
 20
-22.769663
 30
0.0
 70
     8
  0
VERTEX
  5
34FFE
330
1A03B
100
AcDbEntity
  8
TITLE_BLOCK
  6
CONTINUOUS
 62
     7
100
AcDbVertex
100
AcDb2dVertex
 10
-18.458578
 20
-22.774575
 30
0.0
 70
     8
  0
VERTEX
  5
34FFF
330
1A03B
100
AcDbEntity
  8
TITLE_BLOCK
  6
CONTINUOUS
 62
     7
100
AcDbVertex
100
AcDb2dVertex
 10
-18.424956
 20
-22.785803
 30
0.0
 70
     8
  0
VERTEX
  5
35000
330
1A03B
100
AcDbEntity
  8
TITLE_BLOCK
  6
CONTINUOUS
 62
     7
100
AcDbVertex
100
AcDb2dVertex
 10
-18.394418
 20
-22.80128
 30
0.0
 70
     8
  0
VERTEX
  5
35001
330
1A03B
100
AcDbEntity
  8
TITLE_BLOCK
  6
CONTINUOUS
 62
     7
100
AcDbVertex
100
AcDb2dVertex
 10
-18.367117
 20
-22.820677
 30
0.0
 70
     8
  0
VERTEX
  5
35002
330
1A03B
100
AcDbEntity
  8
TITLE_BLOCK
  6
CONTINUOUS
 62
     7
100
AcDbVertex
100
AcDb2dVertex
 10
-18.343207
 20
-22.843666
 30
0.0
 70
     8
  0
VERTEX
  5
35003
330
1A03B
100
AcDbEntity
  8
TITLE_BLOCK
  6
CONTINUOUS
 62
     7
100
AcDbVertex
100
AcDb2dVertex
 10
-18.322842
 20
-22.869918
 30
0.0
 70
     8
  0
VERTEX
  5
35004
330
1A03B
100
AcDbEntity
  8
TITLE_BLOCK
  6
CONTINUOUS
 62
     7
100
AcDbVertex
100
AcDb2dVertex
 10
-18.306175
 20
-22.899105
 30
0.0
 70
     8
  0
VERTEX
  5
35005
330
1A03B
100
AcDbEntity
  8
TITLE_BLOCK
  6
CONTINUOUS
 62
     7
100
AcDbVertex
100
AcDb2dVertex
 10
-18.293362
 20
-22.930897
 30
0.0
 70
     8
  0
VERTEX
  5
35006
330
1A03B
100
AcDbEntity
  8
TITLE_BLOCK
  6
CONTINUOUS
 62
     7
100
AcDbVertex
100
AcDb2dVertex
 10
-18.284554
 20
-22.964965
 30
0.0
 70
     8
  0
VERTEX
  5
35007
330
1A03B
100
AcDbEntity
  8
TITLE_BLOCK
  6
CONTINUOUS
 62
     7
100
AcDbVertex
100
AcDb2dVertex
 10
-18.331625
 20
-22.96655
 30
0.0
 70
     8
  0
VERTEX
  5
35008
330
1A03B
100
AcDbEntity
  8
TITLE_BLOCK
  6
CONTINUOUS
 62
     7
100
AcDbVertex
100
AcDb2dVertex
 10
-18.378128
 20
-22.963879
 30
0.0
 70
     8
  0
VERTEX
  5
35009
330
1A03B
100
AcDbEntity
  8
TITLE_BLOCK
  6
CONTINUOUS
 62
     7
100
AcDbVertex
100
AcDb2dVertex
 10
-18.424209
 20
-22.957991
 30
0.0
 70
     8
  0
VERTEX
  5
3500A
330
1A03B
100
AcDbEntity
  8
TITLE_BLOCK
  6
CONTINUOUS
 62
     7
100
AcDbVertex
100
AcDb2dVertex
 10
-18.470013
 20
-22.949921
 30
0.0
 70
     8
  0
VERTEX
  5
3500B
330
1A03B
100
AcDbEntity
  8
TITLE_BLOCK
  6
CONTINUOUS
 62
     7
100
AcDbVertex
100
AcDb2dVertex
 10
-18.561371
 20
-22.931386
 30
0.0
 70
     8
  0
VERTEX
  5
3500C
330
1A03B
100
AcDbEntity
  8
TITLE_BLOCK
  6
CONTINUOUS
 62
     7
100
AcDbVertex
100
AcDb2dVertex
 10
-18.607215
 20
-22.922993
 30
0.0
 70
     8
  0
VERTEX
  5
3500D
330
1A03B
100
AcDbEntity
  8
TITLE_BLOCK
  6
CONTINUOUS
 62
     7
100
AcDbVertex
100
AcDb2dVertex
 10
-18.653363
 20
-22.916567
 30
0.0
 70
     8
  0
VERTEX
  5
3500E
330
1A03B
100
AcDbEntity
  8
TITLE_BLOCK
  6
CONTINUOUS
 62
     7
100
AcDbVertex
100
AcDb2dVertex
 10
-18.653996
 20
-22.934868
 30
0.0
 70
     8
  0
VERTEX
  5
3500F
330
1A03B
100
AcDbEntity
  8
TITLE_BLOCK
  6
CONTINUOUS
 62
     7
100
AcDbVertex
100
AcDb2dVertex
 10
-18.652136
 20
-22.950883
 30
0.0
 70
     8
  0
VERTEX
  5
35010
330
1A03B
100
AcDbEntity
  8
TITLE_BLOCK
  6
CONTINUOUS
 62
     7
100
AcDbVertex
100
AcDb2dVertex
 10
-18.648
 20
-22.964791
 30
0.0
 70
     8
  0
VERTEX
  5
35011
330
1A03B
100
AcDbEntity
  8
TITLE_BLOCK
  6
CONTINUOUS
 62
     7
100
AcDbVertex
100
AcDb2dVertex
 10
-18.641804
 20
-22.976773
 30
0.0
 70
     8
  0
VERTEX
  5
35012
330
1A03B
100
AcDbEntity
  8
TITLE_BLOCK
  6
CONTINUOUS
 62
     7
100
AcDbVertex
100
AcDb2dVertex
 10
-18.633766
 20
-22.987008
 30
0.0
 70
     8
  0
VERTEX
  5
35013
330
1A03B
100
AcDbEntity
  8
TITLE_BLOCK
  6
CONTINUOUS
 62
     7
100
AcDbVertex
100
AcDb2dVertex
 10
-18.624102
 20
-22.995676
 30
0.0
 70
     8
  0
VERTEX
  5
35014
330
1A03B
100
AcDbEntity
  8
TITLE_BLOCK
  6
CONTINUOUS
 62
     7
100
AcDbVertex
100
AcDb2dVertex
 10
-18.600765
 20
-23.009033
 30
0.0
 70
     8
  0
VERTEX
  5
35015
330
1A03B
100
AcDbEntity
  8
TITLE_BLOCK
  6
CONTINUOUS
 62
     7
100
AcDbVertex
100
AcDb2dVertex
 10
-18.573528
 20
-23.018282
 30
0.0
 70
     8
  0
VERTEX
  5
35016
330
1A03B
100
AcDbEntity
  8
TITLE_BLOCK
  6
CONTINUOUS
 62
     7
100
AcDbVertex
100
AcDb2dVertex
 10
-18.544126
 20
-23.024865
 30
0.0
 70
     8
  0
VERTEX
  5
35017
330
1A03B
100
AcDbEntity
  8
TITLE_BLOCK
  6
CONTINUOUS
 62
     7
100
AcDbVertex
100
AcDb2dVertex
 10
-18.485765
 20
-23.035786
 30
0.0
 70
     8
  0
VERTEX
  5
35018
330
1A03B
100
AcDbEntity
  8
TITLE_BLOCK
  6
CONTINUOUS
 62
     7
100
AcDbVertex
100
AcDb2dVertex
 10
-18.45674
 20
-23.040491
 30
0.0
 70
     8
  0
VERTEX
  5
35019
330
1A03B
100
AcDbEntity
  8
TITLE_BLOCK
  6
CONTINUOUS
 62
     7
100
AcDbVertex
100
AcDb2dVertex
 10
-18.428667
 20
-23.04801
 30
0.0
 70
     8
  0
VERTEX
  5
3501A
330
1A03B
100
AcDbEntity
  8
TITLE_BLOCK
  6
CONTINUOUS
 62
     7
100
AcDbVertex
100
AcDb2dVertex
 10
-18.401418
 20
-23.05789
 30
0.0
 70
     8
  0
VERTEX
  5
3501B
330
1A03B
100
AcDbEntity
  8
TITLE_BLOCK
  6
CONTINUOUS
 62
     7
100
AcDbVertex
100
AcDb2dVertex
 10
-18.374862
 20
-23.069682
 30
0.0
 70
     8
  0
VERTEX
  5
3501C
330
1A03B
100
AcDbEntity
  8
TITLE_BLOCK
  6
CONTINUOUS
 62
     7
100
AcDbVertex
100
AcDb2dVertex
 10
-18.323305
 20
-23.097199
 30
0.0
 70
     8
  0
VERTEX
  5
3501D
330
1A03B
100
AcDbEntity
  8
TITLE_BLOCK
  6
CONTINUOUS
 62
     7
100
AcDbVertex
100
AcDb2dVertex
 10
-18.272953
 20
-23.126957
 30
0.0
 70
     8
  0
VERTEX
  5
3501E
330
1A03B
100
AcDbEntity
  8
TITLE_BLOCK
  6
CONTINUOUS
 62
     7
100
AcDbVertex
100
AcDb2dVertex
 10
-18.237757
 20
-23.23059
 30
0.0
 70
     8
  0
VERTEX
  5
3501F
330
1A03B
100
AcDbEntity
  8
TITLE_BLOCK
  6
CONTINUOUS
 62
     7
100
AcDbVertex
100
AcDb2dVertex
 10
-18.243831
 20
-23.251367
 30
0.0
 70
     8
  0
VERTEX
  5
35020
330
1A03B
100
AcDbEntity
  8
TITLE_BLOCK
  6
CONTINUOUS
 62
     7
100
AcDbVertex
100
AcDb2dVertex
 10
-18.251136
 20
-23.270893
 30
0.0
 70
     8
  0
VERTEX
  5
35021
330
1A03B
100
AcDbEntity
  8
TITLE_BLOCK
  6
CONTINUOUS
 62
     7
100
AcDbVertex
100
AcDb2dVertex
 10
-18.259616
 20
-23.289194
 30
0.0
 70
     8
  0
VERTEX
  5
35022
330
1A03B
100
AcDbEntity
  8
TITLE_BLOCK
  6
CONTINUOUS
 62
     7
100
AcDbVertex
100
AcDb2dVertex
 10
-18.269213
 20
-23.306298
 30
0.0
 70
     8
  0
VERTEX
  5
35023
330
1A03B
100
AcDbEntity
  8
TITLE_BLOCK
  6
CONTINUOUS
 62
     7
100
AcDbVertex
100
AcDb2dVertex
 10
-18.291533
 20
-23.33703
 30
0.0
 70
     8
  0
VERTEX
  5
35024
330
1A03B
100
AcDbEntity
  8
TITLE_BLOCK
  6
CONTINUOUS
 62
     7
100
AcDbVertex
100
AcDb2dVertex
 10
-18.317638
 20
-23.363308
 30
0.0
 70
     8
  0
VERTEX
  5
35025
330
1A03B
100
AcDbEntity
  8
TITLE_BLOCK
  6
CONTINUOUS
 62
     7
100
AcDbVertex
100
AcDb2dVertex
 10
-18.347071
 20
-23.385356
 30
0.0
 70
     8
  0
VERTEX
  5
35026
330
1A03B
100
AcDbEntity
  8
TITLE_BLOCK
  6
CONTINUOUS
 62
     7
100
AcDbVertex
100
AcDb2dVertex
 10
-18.379375
 20
-23.403396
 30
0.0
 70
     8
  0
VERTEX
  5
35027
330
1A03B
100
AcDbEntity
  8
TITLE_BLOCK
  6
CONTINUOUS
 62
     7
100
AcDbVertex
100
AcDb2dVertex
 10
-18.414093
 20
-23.41765
 30
0.0
 70
     8
  0
VERTEX
  5
35028
330
1A03B
100
AcDbEntity
  8
TITLE_BLOCK
  6
CONTINUOUS
 62
     7
100
AcDbVertex
100
AcDb2dVertex
 10
-18.450768
 20
-23.428339
 30
0.0
 70
     8
  0
VERTEX
  5
35029
330
1A03B
100
AcDbEntity
  8
TITLE_BLOCK
  6
CONTINUOUS
 62
     7
100
AcDbVertex
100
AcDb2dVertex
 10
-18.488942
 20
-23.435687
 30
0.0
 70
     8
  0
VERTEX
  5
3502A
330
1A03B
100
AcDbEntity
  8
TITLE_BLOCK
  6
CONTINUOUS
 62
     7
100
AcDbVertex
100
AcDb2dVertex
 10
-18.52816
 20
-23.439914
 30
0.0
 70
     8
  0
VERTEX
  5
3502B
330
1A03B
100
AcDbEntity
  8
TITLE_BLOCK
  6
CONTINUOUS
 62
     7
100
AcDbVertex
100
AcDb2dVertex
 10
-18.567963
 20
-23.441243
 30
0.0
 70
     8
  0
VERTEX
  5
3502C
330
1A03B
100
AcDbEntity
  8
TITLE_BLOCK
  6
CONTINUOUS
 62
     7
100
AcDbVertex
100
AcDb2dVertex
 10
-18.607895
 20
-23.439896
 30
0.0
 70
     8
  0
VERTEX
  5
3502D
330
1A03B
100
AcDbEntity
  8
TITLE_BLOCK
  6
CONTINUOUS
 62
     7
100
AcDbVertex
100
AcDb2dVertex
 10
-18.647499
 20
-23.436096
 30
0.0
 70
     8
  0
VERTEX
  5
3502E
330
1A03B
100
AcDbEntity
  8
TITLE_BLOCK
  6
CONTINUOUS
 62
     7
100
AcDbVertex
100
AcDb2dVertex
 10
-18.686317
 20
-23.430063
 30
0.0
 70
     8
  0
VERTEX
  5
3502F
330
1A03B
100
AcDbEntity
  8
TITLE_BLOCK
  6
CONTINUOUS
 62
     7
100
AcDbVertex
100
AcDb2dVertex
 10
-18.723893
 20
-23.422021
 30
0.0
 70
     8
  0
VERTEX
  5
35030
330
1A03B
100
AcDbEntity
  8
TITLE_BLOCK
  6
CONTINUOUS
 62
     7
100
AcDbVertex
100
AcDb2dVertex
 10
-18.759769
 20
-23.412192
 30
0.0
 70
     8
  0
VERTEX
  5
35031
330
1A03B
100
AcDbEntity
  8
TITLE_BLOCK
  6
CONTINUOUS
 62
     7
100
AcDbVertex
100
AcDb2dVertex
 10
-18.779665
 20
-23.391643
 30
0.0
 70
     8
  0
VERTEX
  5
35032
330
1A03B
100
AcDbEntity
  8
TITLE_BLOCK
  6
CONTINUOUS
 62
     7
100
AcDbVertex
100
AcDb2dVertex
 10
-18.798047
 20
-23.369983
 30
0.0
 70
     8
  0
VERTEX
  5
35033
330
1A03B
100
AcDbEntity
  8
TITLE_BLOCK
  6
CONTINUOUS
 62
     7
100
AcDbVertex
100
AcDb2dVertex
 10
-18.815052
 20
-23.347339
 30
0.0
 70
     8
  0
VERTEX
  5
35034
330
1A03B
100
AcDbEntity
  8
TITLE_BLOCK
  6
CONTINUOUS
 62
     7
100
AcDbVertex
100
AcDb2dVertex
 10
-18.830814
 20
-23.323837
 30
0.0
 70
     8
  0
VERTEX
  5
35035
330
1A03B
100
AcDbEntity
  8
TITLE_BLOCK
  6
CONTINUOUS
 62
     7
100
AcDbVertex
100
AcDb2dVertex
 10
-18.859157
 20
-23.274769
 30
0.0
 70
     8
  0
VERTEX
  5
35036
330
1A03B
100
AcDbEntity
  8
TITLE_BLOCK
  6
CONTINUOUS
 62
     7
100
AcDbVertex
100
AcDb2dVertex
 10
-18.884164
 20
-23.223793
 30
0.0
 70
     8
  0
VERTEX
  5
35037
330
1A03B
100
AcDbEntity
  8
TITLE_BLOCK
  6
CONTINUOUS
 62
     7
100
AcDbVertex
100
AcDb2dVertex
 10
-18.858059
 20
-23.224125
 30
0.0
 70
     8
  0
VERTEX
  5
35038
330
1A03B
100
AcDbEntity
  8
TITLE_BLOCK
  6
CONTINUOUS
 62
     7
100
AcDbVertex
100
AcDb2dVertex
 10
-18.830586
 20
-23.220793
 30
0.0
 70
     8
  0
VERTEX
  5
35039
330
1A03B
100
AcDbEntity
  8
TITLE_BLOCK
  6
CONTINUOUS
 62
     7
100
AcDbVertex
100
AcDb2dVertex
 10
-18.774164
 20
-23.211274
 30
0.0
 70
     8
  0
VERTEX
  5
3503A
330
1A03B
100
AcDbEntity
  8
TITLE_BLOCK
  6
CONTINUOUS
 62
     7
100
AcDbVertex
100
AcDb2dVertex
 10
-18.746525
 20
-23.209156
 30
0.0
 70
     8
  0
VERTEX
  5
3503B
330
1A03B
100
AcDbEntity
  8
TITLE_BLOCK
  6
CONTINUOUS
 62
     7
100
AcDbVertex
100
AcDb2dVertex
 10
-18.720143
 20
-23.211511
 30
0.0
 70
     8
  0
VERTEX
  5
3503C
330
1A03B
100
AcDbEntity
  8
TITLE_BLOCK
  6
CONTINUOUS
 62
     7
100
AcDbVertex
100
AcDb2dVertex
 10
-18.695674
 20
-23.220373
 30
0.0
 70
     8
  0
VERTEX
  5
3503D
330
1A03B
100
AcDbEntity
  8
TITLE_BLOCK
  6
CONTINUOUS
 62
     7
100
AcDbVertex
100
AcDb2dVertex
 10
-18.684361
 20
-23.227881
 30
0.0
 70
     8
  0
VERTEX
  5
3503E
330
1A03B
100
AcDbEntity
  8
TITLE_BLOCK
  6
CONTINUOUS
 62
     7
100
AcDbVertex
100
AcDb2dVertex
 10
-18.673773
 20
-23.237778
 30
0.0
 70
     8
  0
VERTEX
  5
3503F
330
1A03B
100
AcDbEntity
  8
TITLE_BLOCK
  6
CONTINUOUS
 62
     7
100
AcDbVertex
100
AcDb2dVertex
 10
-18.651039
 20
-23.258427
 30
0.0
 70
     8
  0
VERTEX
  5
35040
330
1A03B
100
AcDbEntity
  8
TITLE_BLOCK
  6
CONTINUOUS
 62
     7
100
AcDbVertex
100
AcDb2dVertex
 10
-18.625808
 20
-23.272051
 30
0.0
 70
     8
  0
VERTEX
  5
35041
330
1A03B
100
AcDbEntity
  8
TITLE_BLOCK
  6
CONTINUOUS
 62
     7
100
AcDbVertex
100
AcDb2dVertex
 10
-18.598619
 20
-23.279948
 30
0.0
 70
     8
  0
VERTEX
  5
35042
330
1A03B
100
AcDbEntity
  8
TITLE_BLOCK
  6
CONTINUOUS
 62
     7
100
AcDbVertex
100
AcDb2dVertex
 10
-18.570011
 20
-23.283417
 30
0.0
 70
     8
  0
VERTEX
  5
35043
330
1A03B
100
AcDbEntity
  8
TITLE_BLOCK
  6
CONTINUOUS
 62
     7
100
AcDbVertex
100
AcDb2dVertex
 10
-18.540523
 20
-23.283757
 30
0.0
 70
     8
  0
VERTEX
  5
35044
330
1A03B
100
AcDbEntity
  8
TITLE_BLOCK
  6
CONTINUOUS
 62
     7
100
AcDbVertex
100
AcDb2dVertex
 10
-18.510695
 20
-23.282267
 30
0.0
 70
     8
  0
VERTEX
  5
35045
330
1A03B
100
AcDbEntity
  8
TITLE_BLOCK
  6
CONTINUOUS
 62
     7
100
AcDbVertex
100
AcDb2dVertex
 10
-18.452172
 20
-23.278989
 30
0.0
 70
     8
  0
VERTEX
  5
35046
330
1A03B
100
AcDbEntity
  8
TITLE_BLOCK
  6
CONTINUOUS
 62
     7
100
AcDbVertex
100
AcDb2dVertex
 10
-18.43975
 20
-23.186176
 30
0.0
 70
     8
  0
VERTEX
  5
35047
330
1A03B
100
AcDbEntity
  8
TITLE_BLOCK
  6
CONTINUOUS
 62
     7
100
AcDbVertex
100
AcDb2dVertex
 10
-18.497517
 20
-23.170789
 30
0.0
 70
     8
  0
VERTEX
  5
35048
330
1A03B
100
AcDbEntity
  8
TITLE_BLOCK
  6
CONTINUOUS
 62
     7
100
AcDbVertex
100
AcDb2dVertex
 10
-18.559499
 20
-23.157227
 30
0.0
 70
     8
  0
VERTEX
  5
35049
330
1A03B
100
AcDbEntity
  8
TITLE_BLOCK
  6
CONTINUOUS
 62
     7
100
AcDbVertex
100
AcDb2dVertex
 10
-18.622522
 20
-23.142628
 30
0.0
 70
     8
  0
VERTEX
  5
3504A
330
1A03B
100
AcDbEntity
  8
TITLE_BLOCK
  6
CONTINUOUS
 62
     7
100
AcDbVertex
100
AcDb2dVertex
 10
-18.653432
 20
-23.134044
 30
0.0
 70
     8
  0
VERTEX
  5
3504B
330
1A03B
100
AcDbEntity
  8
TITLE_BLOCK
  6
CONTINUOUS
 62
     7
100
AcDbVertex
100
AcDb2dVertex
 10
-18.683412
 20
-23.124125
 30
0.0
 70
     8
  0
VERTEX
  5
3504C
330
1A03B
100
AcDbEntity
  8
TITLE_BLOCK
  6
CONTINUOUS
 62
     7
100
AcDbVertex
100
AcDb2dVertex
 10
-18.712065
 20
-23.112515
 30
0.0
 70
     8
  0
VERTEX
  5
3504D
330
1A03B
100
AcDbEntity
  8
TITLE_BLOCK
  6
CONTINUOUS
 62
     7
100
AcDbVertex
100
AcDb2dVertex
 10
-18.738995
 20
-23.098856
 30
0.0
 70
     8
  0
VERTEX
  5
3504E
330
1A03B
100
AcDbEntity
  8
TITLE_BLOCK
  6
CONTINUOUS
 62
     7
100
AcDbVertex
100
AcDb2dVertex
 10
-18.763806
 20
-23.082788
 30
0.0
 70
     8
  0
VERTEX
  5
3504F
330
1A03B
100
AcDbEntity
  8
TITLE_BLOCK
  6
CONTINUOUS
 62
     7
100
AcDbVertex
100
AcDb2dVertex
 10
-18.786099
 20
-23.063953
 30
0.0
 70
     8
  0
VERTEX
  5
35050
330
1A03B
100
AcDbEntity
  8
TITLE_BLOCK
  6
CONTINUOUS
 62
     7
100
AcDbVertex
100
AcDb2dVertex
 10
-18.805479
 20
-23.041995
 30
0.0
 70
     8
  0
VERTEX
  5
35051
330
1A03B
100
AcDbEntity
  8
TITLE_BLOCK
  6
CONTINUOUS
 62
     7
100
AcDbVertex
100
AcDb2dVertex
 10
-18.821549
 20
-23.016554
 30
0.0
 70
     8
  0
VERTEX
  5
35052
330
1A03B
100
AcDbEntity
  8
TITLE_BLOCK
  6
CONTINUOUS
 62
     7
100
AcDbVertex
100
AcDb2dVertex
 10
-18.833912
 20
-22.987273
 30
0.0
 70
     8
  0
VERTEX
  5
35053
330
1A03B
100
AcDbEntity
  8
TITLE_BLOCK
  6
CONTINUOUS
 62
     7
100
AcDbVertex
100
AcDb2dVertex
 10
-18.842172
 20
-22.953793
 30
0.0
 70
     8
  0
VERTEX
  5
35054
330
1A03B
100
AcDbEntity
  8
TITLE_BLOCK
  6
CONTINUOUS
 62
     7
100
AcDbVertex
100
AcDb2dVertex
 10
-18.842172
 20
-22.953793
 30
0.0
 70
     8
  0
VERTEX
  5
35055
330
1A03B
100
AcDbEntity
  8
TITLE_BLOCK
  6
CONTINUOUS
 62
     7
100
AcDbVertex
100
AcDb2dVertex
 10
-18.842172
 20
-22.953793
 30
0.0
 70
    16
  0
VERTEX
  5
35056
330
1A03B
100
AcDbEntity
  8
TITLE_BLOCK
  6
CONTINUOUS
 62
     7
100
AcDbVertex
100
AcDb2dVertex
 10
-18.812562
 20
-22.779379
 30
0.0
 70
    16
  0
VERTEX
  5
35057
330
1A03B
100
AcDbEntity
  8
TITLE_BLOCK
  6
CONTINUOUS
 62
     7
100
AcDbVertex
100
AcDb2dVertex
 10
-18.603773
 20
-22.744184
 30
0.0
 70
    16
  0
VERTEX
  5
35058
330
1A03B
100
AcDbEntity
  8
TITLE_BLOCK
  6
CONTINUOUS
 62
     7
100
AcDbVertex
100
AcDb2dVertex
 10
-18.458578
 20
-22.774575
 30
0.0
 70
    16
  0
VERTEX
  5
35059
330
1A03B
100
AcDbEntity
  8
TITLE_BLOCK
  6
CONTINUOUS
 62
     7
100
AcDbVertex
100
AcDb2dVertex
 10
-18.364945
 20
-22.798559
 30
0.0
 70
    16
  0
VERTEX
  5
3505A
330
1A03B
100
AcDbEntity
  8
TITLE_BLOCK
  6
CONTINUOUS
 62
     7
100
AcDbVertex
100
AcDb2dVertex
 10
-18.302562
 20
-22.871372
 30
0.0
 70
    16
  0
VERTEX
  5
3505B
330
1A03B
100
AcDbEntity
  8
TITLE_BLOCK
  6
CONTINUOUS
 62
     7
100
AcDbVertex
100
AcDb2dVertex
 10
-18.284554
 20
-22.964965
 30
0.0
 70
    16
  0
VERTEX
  5
3505C
330
1A03B
100
AcDbEntity
  8
TITLE_BLOCK
  6
CONTINUOUS
 62
     7
100
AcDbVertex
100
AcDb2dVertex
 10
-18.410961
 20
-22.975786
 30
0.0
 70
    16
  0
VERTEX
  5
3505D
330
1A03B
100
AcDbEntity
  8
TITLE_BLOCK
  6
CONTINUOUS
 62
     7
100
AcDbVertex
100
AcDb2dVertex
 10
-18.529769
 20
-22.930161
 30
0.0
 70
    16
  0
VERTEX
  5
3505E
330
1A03B
100
AcDbEntity
  8
TITLE_BLOCK
  6
CONTINUOUS
 62
     7
100
AcDbVertex
100
AcDb2dVertex
 10
-18.653363
 20
-22.916567
 30
0.0
 70
    16
  0
VERTEX
  5
3505F
330
1A03B
100
AcDbEntity
  8
TITLE_BLOCK
  6
CONTINUOUS
 62
     7
100
AcDbVertex
100
AcDb2dVertex
 10
-18.663773
 20
-23.02059
 30
0.0
 70
    16
  0
VERTEX
  5
35060
330
1A03B
100
AcDbEntity
  8
TITLE_BLOCK
  6
CONTINUOUS
 62
     7
100
AcDbVertex
100
AcDb2dVertex
 10
-18.558558
 20
-23.019379
 30
0.0
 70
    16
  0
VERTEX
  5
35061
330
1A03B
100
AcDbEntity
  8
TITLE_BLOCK
  6
CONTINUOUS
 62
     7
100
AcDbVertex
100
AcDb2dVertex
 10
-18.485765
 20
-23.035786
 30
0.0
 70
    16
  0
VERTEX
  5
35062
330
1A03B
100
AcDbEntity
  8
TITLE_BLOCK
  6
CONTINUOUS
 62
     7
100
AcDbVertex
100
AcDb2dVertex
 10
-18.406976
 20
-23.044184
 30
0.0
 70
    16
  0
VERTEX
  5
35063
330
1A03B
100
AcDbEntity
  8
TITLE_BLOCK
  6
CONTINUOUS
 62
     7
100
AcDbVertex
100
AcDb2dVertex
 10
-18.33975
 20
-23.087387
 30
0.0
 70
    16
  0
VERTEX
  5
35064
330
1A03B
100
AcDbEntity
  8
TITLE_BLOCK
  6
CONTINUOUS
 62
     7
100
AcDbVertex
100
AcDb2dVertex
 10
-18.272953
 20
-23.126957
 30
0.0
 70
    16
  0
VERTEX
  5
35065
330
1A03B
100
AcDbEntity
  8
TITLE_BLOCK
  6
CONTINUOUS
 62
     7
100
AcDbVertex
100
AcDb2dVertex
 10
-18.264164
 20
-23.152582
 30
0.0
 70
    16
  0
VERTEX
  5
35066
330
1A03B
100
AcDbEntity
  8
TITLE_BLOCK
  6
CONTINUOUS
 62
     7
100
AcDbVertex
100
AcDb2dVertex
 10
-18.246547
 20
-23.204575
 30
0.0
 70
    16
  0
VERTEX
  5
35067
330
1A03B
100
AcDbEntity
  8
TITLE_BLOCK
  6
CONTINUOUS
 62
     7
100
AcDbVertex
100
AcDb2dVertex
 10
-18.237757
 20
-23.23059
 30
0.0
 70
    16
  0
VERTEX
  5
35068
330
1A03B
100
AcDbEntity
  8
TITLE_BLOCK
  6
CONTINUOUS
 62
     7
100
AcDbVertex
100
AcDb2dVertex
 10
-18.295765
 20
-23.458989
 30
0.0
 70
    16
  0
VERTEX
  5
35069
330
1A03B
100
AcDbEntity
  8
TITLE_BLOCK
  6
CONTINUOUS
 62
     7
100
AcDbVertex
100
AcDb2dVertex
 10
-18.573773
 20
-23.468989
 30
0.0
 70
    16
  0
VERTEX
  5
3506A
330
1A03B
100
AcDbEntity
  8
TITLE_BLOCK
  6
CONTINUOUS
 62
     7
100
AcDbVertex
100
AcDb2dVertex
 10
-18.759769
 20
-23.412192
 30
0.0
 70
    16
  0
VERTEX
  5
3506B
330
1A03B
100
AcDbEntity
  8
TITLE_BLOCK
  6
CONTINUOUS
 62
     7
100
AcDbVertex
100
AcDb2dVertex
 10
-18.814964
 20
-23.358989
 30
0.0
 70
    16
  0
VERTEX
  5
3506C
330
1A03B
100
AcDbEntity
  8
TITLE_BLOCK
  6
CONTINUOUS
 62
     7
100
AcDbVertex
100
AcDb2dVertex
 10
-18.852562
 20
-23.292582
 30
0.0
 70
    16
  0
VERTEX
  5
3506D
330
1A03B
100
AcDbEntity
  8
TITLE_BLOCK
  6
CONTINUOUS
 62
     7
100
AcDbVertex
100
AcDb2dVertex
 10
-18.884164
 20
-23.223793
 30
0.0
 70
    16
  0
VERTEX
  5
3506E
330
1A03B
100
AcDbEntity
  8
TITLE_BLOCK
  6
CONTINUOUS
 62
     7
100
AcDbVertex
100
AcDb2dVertex
 10
-18.816957
 20
-23.231372
 30
0.0
 70
    16
  0
VERTEX
  5
3506F
330
1A03B
100
AcDbEntity
  8
TITLE_BLOCK
  6
CONTINUOUS
 62
     7
100
AcDbVertex
100
AcDb2dVertex
 10
-18.728168
 20
-23.178168
 30
0.0
 70
    16
  0
VERTEX
  5
35070
330
1A03B
100
AcDbEntity
  8
TITLE_BLOCK
  6
CONTINUOUS
 62
     7
100
AcDbVertex
100
AcDb2dVertex
 10
-18.673773
 20
-23.237778
 30
0.0
 70
    16
  0
VERTEX
  5
35071
330
1A03B
100
AcDbEntity
  8
TITLE_BLOCK
  6
CONTINUOUS
 62
     7
100
AcDbVertex
100
AcDb2dVertex
 10
-18.616957
 20
-23.303364
 30
0.0
 70
    16
  0
VERTEX
  5
35072
330
1A03B
100
AcDbEntity
  8
TITLE_BLOCK
  6
CONTINUOUS
 62
     7
100
AcDbVertex
100
AcDb2dVertex
 10
-18.527757
 20
-23.280161
 30
0.0
 70
    16
  0
VERTEX
  5
35073
330
1A03B
100
AcDbEntity
  8
TITLE_BLOCK
  6
CONTINUOUS
 62
     7
100
AcDbVertex
100
AcDb2dVertex
 10
-18.452172
 20
-23.278989
 30
0.0
 70
    16
  0
VERTEX
  5
35074
330
1A03B
100
AcDbEntity
  8
TITLE_BLOCK
  6
CONTINUOUS
 62
     7
100
AcDbVertex
100
AcDb2dVertex
 10
-18.448968
 20
-23.255786
 30
0.0
 70
    16
  0
VERTEX
  5
35075
330
1A03B
100
AcDbEntity
  8
TITLE_BLOCK
  6
CONTINUOUS
 62
     7
100
AcDbVertex
100
AcDb2dVertex
 10
-18.442953
 20
-23.209379
 30
0.0
 70
    16
  0
VERTEX
  5
35076
330
1A03B
100
AcDbEntity
  8
TITLE_BLOCK
  6
CONTINUOUS
 62
     7
100
AcDbVertex
100
AcDb2dVertex
 10
-18.43975
 20
-23.186176
 30
0.0
 70
    16
  0
VERTEX
  5
35077
330
1A03B
100
AcDbEntity
  8
TITLE_BLOCK
  6
CONTINUOUS
 62
     7
100
AcDbVertex
100
AcDb2dVertex
 10
-18.585355
 20
-23.140161
 30
0.0
 70
    16
  0
VERTEX
  5
35078
330
1A03B
100
AcDbEntity
  8
TITLE_BLOCK
  6
CONTINUOUS
 62
     7
100
AcDbVertex
100
AcDb2dVertex
 10
-18.809769
 20
-23.144184
 30
0.0
 70
    16
  0
VERTEX
  5
35079
330
1A03B
100
AcDbEntity
  8
TITLE_BLOCK
  6
CONTINUOUS
 62
     7
100
AcDbVertex
100
AcDb2dVertex
 10
-18.842172
 20
-22.953793
 30
0.0
 70
    16
  0
VERTEX
  5
3507A
330
1A03B
100
AcDbEntity
  8
TITLE_BLOCK
  6
CONTINUOUS
 62
     7
100
AcDbVertex
100
AcDb2dVertex
 10
-18.842172
 20
-22.953793
 30
0.0
 70
    16
  0
VERTEX
  5
3507B
330
1A03B
100
AcDbEntity
  8
TITLE_BLOCK
  6
CONTINUOUS
 62
     7
100
AcDbVertex
100
AcDb2dVertex
 10
-18.842172
 20
-22.953793
 30
0.0
 70
    16
  0
VERTEX
  5
3507C
330
1A03B
100
AcDbEntity
  8
TITLE_BLOCK
  6
CONTINUOUS
 62
     7
100
AcDbVertex
100
AcDb2dVertex
 10
-18.842172
 20
-22.953793
 30
0.0
 70
    16
  0
SEQEND
  5
3507D
330
1A03B
100
AcDbEntity
  8
TITLE_BLOCK
  6
CONTINUOUS
 62
     7
  0
POLYLINE
  5
1A0CB
330
34C93
100
AcDbEntity
  8
TITLE_BLOCK
  6
CONTINUOUS
 62
     7
100
AcDb2dPolyline
 66
     1
 10
0.0
 20
0.0
 30
0.0
 70
     5
 75
     5
  0
VERTEX
  5
3507E
330
1A0CB
100
AcDbEntity
  8
TITLE_BLOCK
  6
CONTINUOUS
 62
     7
100
AcDbVertex
100
AcDb2dVertex
 10
-18.164554
 20
-22.765356
 30
0.0
 70
     8
  0
VERTEX
  5
3507F
330
1A0CB
100
AcDbEntity
  8
TITLE_BLOCK
  6
CONTINUOUS
 62
     7
100
AcDbVertex
100
AcDb2dVertex
 10
-18.014194
 20
-22.764557
 30
0.0
 70
     8
  0
VERTEX
  5
35080
330
1A0CB
100
AcDbEntity
  8
TITLE_BLOCK
  6
CONTINUOUS
 62
     7
100
AcDbVertex
100
AcDb2dVertex
 10
-17.863754
 20
-22.765175
 30
0.0
 70
     8
  0
VERTEX
  5
35081
330
1A0CB
100
AcDbEntity
  8
TITLE_BLOCK
  6
CONTINUOUS
 62
     7
100
AcDbVertex
100
AcDb2dVertex
 10
-17.713313
 20
-22.765493
 30
0.0
 70
     8
  0
VERTEX
  5
35082
330
1A0CB
100
AcDbEntity
  8
TITLE_BLOCK
  6
CONTINUOUS
 62
     7
100
AcDbVertex
100
AcDb2dVertex
 10
-17.562953
 20
-22.763793
 30
0.0
 70
     8
  0
VERTEX
  5
35083
330
1A0CB
100
AcDbEntity
  8
TITLE_BLOCK
  6
CONTINUOUS
 62
     7
100
AcDbVertex
100
AcDb2dVertex
 10
-17.560179
 20
-22.927778
 30
0.0
 70
     8
  0
VERTEX
  5
35084
330
1A0CB
100
AcDbEntity
  8
TITLE_BLOCK
  6
CONTINUOUS
 62
     7
100
AcDbVertex
100
AcDb2dVertex
 10
-17.759359
 20
-22.920981
 30
0.0
 70
     8
  0
VERTEX
  5
35085
330
1A0CB
100
AcDbEntity
  8
TITLE_BLOCK
  6
CONTINUOUS
 62
     7
100
AcDbVertex
100
AcDb2dVertex
 10
-17.761922
 20
-23.051469
 30
0.0
 70
     8
  0
VERTEX
  5
35086
330
1A0CB
100
AcDbEntity
  8
TITLE_BLOCK
  6
CONTINUOUS
 62
     7
100
AcDbVertex
100
AcDb2dVertex
 10
-17.762757
 20
-23.181928
 30
0.0
 70
     8
  0
VERTEX
  5
35087
330
1A0CB
100
AcDbEntity
  8
TITLE_BLOCK
  6
CONTINUOUS
 62
     7
100
AcDbVertex
100
AcDb2dVertex
 10
-17.761351
 20
-23.442582
 30
0.0
 70
     8
  0
VERTEX
  5
35088
330
1A0CB
100
AcDbEntity
  8
TITLE_BLOCK
  6
CONTINUOUS
 62
     7
100
AcDbVertex
100
AcDb2dVertex
 10
-17.961781
 20
-23.447387
 30
0.0
 70
     8
  0
VERTEX
  5
35089
330
1A0CB
100
AcDbEntity
  8
TITLE_BLOCK
  6
CONTINUOUS
 62
     7
100
AcDbVertex
100
AcDb2dVertex
 10
-17.963343
 20
-22.924184
 30
0.0
 70
     8
  0
VERTEX
  5
3508A
330
1A0CB
100
AcDbEntity
  8
TITLE_BLOCK
  6
CONTINUOUS
 62
     7
100
AcDbVertex
100
AcDb2dVertex
 10
-18.162172
 20
-22.924575
 30
0.0
 70
     8
  0
VERTEX
  5
3508B
330
1A0CB
100
AcDbEntity
  8
TITLE_BLOCK
  6
CONTINUOUS
 62
     7
100
AcDbVertex
100
AcDb2dVertex
 10
-18.164554
 20
-22.765356
 30
0.0
 70
     8
  0
VERTEX
  5
3508C
330
1A0CB
100
AcDbEntity
  8
TITLE_BLOCK
  6
CONTINUOUS
 62
     7
100
AcDbVertex
100
AcDb2dVertex
 10
-18.164554
 20
-22.765356
 30
0.0
 70
     8
  0
VERTEX
  5
3508D
330
1A0CB
100
AcDbEntity
  8
TITLE_BLOCK
  6
CONTINUOUS
 62
     7
100
AcDbVertex
100
AcDb2dVertex
 10
-18.164554
 20
-22.765356
 30
0.0
 70
    16
  0
VERTEX
  5
3508E
330
1A0CB
100
AcDbEntity
  8
TITLE_BLOCK
  6
CONTINUOUS
 62
     7
100
AcDbVertex
100
AcDb2dVertex
 10
-17.964164
 20
-22.762582
 30
0.0
 70
    16
  0
VERTEX
  5
3508F
330
1A0CB
100
AcDbEntity
  8
TITLE_BLOCK
  6
CONTINUOUS
 62
     7
100
AcDbVertex
100
AcDb2dVertex
 10
-17.763343
 20
-22.768168
 30
0.0
 70
    16
  0
VERTEX
  5
35090
330
1A0CB
100
AcDbEntity
  8
TITLE_BLOCK
  6
CONTINUOUS
 62
     7
100
AcDbVertex
100
AcDb2dVertex
 10
-17.562953
 20
-22.763793
 30
0.0
 70
    16
  0
VERTEX
  5
35091
330
1A0CB
100
AcDbEntity
  8
TITLE_BLOCK
  6
CONTINUOUS
 62
     7
100
AcDbVertex
100
AcDb2dVertex
 10
-17.562172
 20
-22.818168
 30
0.0
 70
    16
  0
VERTEX
  5
35092
330
1A0CB
100
AcDbEntity
  8
TITLE_BLOCK
  6
CONTINUOUS
 62
     7
100
AcDbVertex
100
AcDb2dVertex
 10
-17.561351
 20
-22.872973
 30
0.0
 70
    16
  0
VERTEX
  5
35093
330
1A0CB
100
AcDbEntity
  8
TITLE_BLOCK
  6
CONTINUOUS
 62
     7
100
AcDbVertex
100
AcDb2dVertex
 10
-17.560179
 20
-22.927778
 30
0.0
 70
    16
  0
VERTEX
  5
35094
330
1A0CB
100
AcDbEntity
  8
TITLE_BLOCK
  6
CONTINUOUS
 62
     7
100
AcDbVertex
100
AcDb2dVertex
 10
-17.626976
 20
-22.925356
 30
0.0
 70
    16
  0
VERTEX
  5
35095
330
1A0CB
100
AcDbEntity
  8
TITLE_BLOCK
  6
CONTINUOUS
 62
     7
100
AcDbVertex
100
AcDb2dVertex
 10
-17.692953
 20
-22.923364
 30
0.0
 70
    16
  0
VERTEX
  5
35096
330
1A0CB
100
AcDbEntity
  8
TITLE_BLOCK
  6
CONTINUOUS
 62
     7
100
AcDbVertex
100
AcDb2dVertex
 10
-17.759359
 20
-22.920981
 30
0.0
 70
    16
  0
VERTEX
  5
35097
330
1A0CB
100
AcDbEntity
  8
TITLE_BLOCK
  6
CONTINUOUS
 62
     7
100
AcDbVertex
100
AcDb2dVertex
 10
-17.764164
 20
-23.094965
 30
0.0
 70
    16
  0
VERTEX
  5
35098
330
1A0CB
100
AcDbEntity
  8
TITLE_BLOCK
  6
CONTINUOUS
 62
     7
100
AcDbVertex
100
AcDb2dVertex
 10
-17.762953
 20
-23.268989
 30
0.0
 70
    16
  0
VERTEX
  5
35099
330
1A0CB
100
AcDbEntity
  8
TITLE_BLOCK
  6
CONTINUOUS
 62
     7
100
AcDbVertex
100
AcDb2dVertex
 10
-17.761351
 20
-23.442582
 30
0.0
 70
    16
  0
VERTEX
  5
3509A
330
1A0CB
100
AcDbEntity
  8
TITLE_BLOCK
  6
CONTINUOUS
 62
     7
100
AcDbVertex
100
AcDb2dVertex
 10
-17.828148
 20
-23.443793
 30
0.0
 70
    16
  0
VERTEX
  5
3509B
330
1A0CB
100
AcDbEntity
  8
TITLE_BLOCK
  6
CONTINUOUS
 62
     7
100
AcDbVertex
100
AcDb2dVertex
 10
-17.894945
 20
-23.445356
 30
0.0
 70
    16
  0
VERTEX
  5
3509C
330
1A0CB
100
AcDbEntity
  8
TITLE_BLOCK
  6
CONTINUOUS
 62
     7
100
AcDbVertex
100
AcDb2dVertex
 10
-17.961781
 20
-23.447387
 30
0.0
 70
    16
  0
VERTEX
  5
3509D
330
1A0CB
100
AcDbEntity
  8
TITLE_BLOCK
  6
CONTINUOUS
 62
     7
100
AcDbVertex
100
AcDb2dVertex
 10
-17.962562
 20
-23.272973
 30
0.0
 70
    16
  0
VERTEX
  5
3509E
330
1A0CB
100
AcDbEntity
  8
TITLE_BLOCK
  6
CONTINUOUS
 62
     7
100
AcDbVertex
100
AcDb2dVertex
 10
-17.961781
 20
-23.098559
 30
0.0
 70
    16
  0
VERTEX
  5
3509F
330
1A0CB
100
AcDbEntity
  8
TITLE_BLOCK
  6
CONTINUOUS
 62
     7
100
AcDbVertex
100
AcDb2dVertex
 10
-17.963343
 20
-22.924184
 30
0.0
 70
    16
  0
VERTEX
  5
350A0
330
1A0CB
100
AcDbEntity
  8
TITLE_BLOCK
  6
CONTINUOUS
 62
     7
100
AcDbVertex
100
AcDb2dVertex
 10
-18.02975
 20
-22.923793
 30
0.0
 70
    16
  0
VERTEX
  5
350A1
330
1A0CB
100
AcDbEntity
  8
TITLE_BLOCK
  6
CONTINUOUS
 62
     7
100
AcDbVertex
100
AcDb2dVertex
 10
-18.095765
 20
-22.924184
 30
0.0
 70
    16
  0
VERTEX
  5
350A2
330
1A0CB
100
AcDbEntity
  8
TITLE_BLOCK
  6
CONTINUOUS
 62
     7
100
AcDbVertex
100
AcDb2dVertex
 10
-18.162172
 20
-22.924575
 30
0.0
 70
    16
  0
VERTEX
  5
350A3
330
1A0CB
100
AcDbEntity
  8
TITLE_BLOCK
  6
CONTINUOUS
 62
     7
100
AcDbVertex
100
AcDb2dVertex
 10
-18.162953
 20
-22.871372
 30
0.0
 70
    16
  0
VERTEX
  5
350A4
330
1A0CB
100
AcDbEntity
  8
TITLE_BLOCK
  6
CONTINUOUS
 62
     7
100
AcDbVertex
100
AcDb2dVertex
 10
-18.163773
 20
-22.818559
 30
0.0
 70
    16
  0
VERTEX
  5
350A5
330
1A0CB
100
AcDbEntity
  8
TITLE_BLOCK
  6
CONTINUOUS
 62
     7
100
AcDbVertex
100
AcDb2dVertex
 10
-18.164554
 20
-22.765356
 30
0.0
 70
    16
  0
VERTEX
  5
350A6
330
1A0CB
100
AcDbEntity
  8
TITLE_BLOCK
  6
CONTINUOUS
 62
     7
100
AcDbVertex
100
AcDb2dVertex
 10
-18.164554
 20
-22.765356
 30
0.0
 70
    16
  0
VERTEX
  5
350A7
330
1A0CB
100
AcDbEntity
  8
TITLE_BLOCK
  6
CONTINUOUS
 62
     7
100
AcDbVertex
100
AcDb2dVertex
 10
-18.164554
 20
-22.765356
 30
0.0
 70
    16
  0
VERTEX
  5
350A8
330
1A0CB
100
AcDbEntity
  8
TITLE_BLOCK
  6
CONTINUOUS
 62
     7
100
AcDbVertex
100
AcDb2dVertex
 10
-18.164554
 20
-22.765356
 30
0.0
 70
    16
  0
SEQEND
  5
350A9
330
1A0CB
100
AcDbEntity
  8
TITLE_BLOCK
  6
CONTINUOUS
 62
     7
  0
POLYLINE
  5
1A0F7
330
34C93
100
AcDbEntity
  8
TITLE_BLOCK
  6
CONTINUOUS
 62
     7
100
AcDb2dPolyline
 66
     1
 10
0.0
 20
0.0
 30
0.0
 70
     5
 75
     5
  0
VERTEX
  5
350AA
330
1A0F7
100
AcDbEntity
  8
TITLE_BLOCK
  6
CONTINUOUS
 62
     7
100
AcDbVertex
100
AcDb2dVertex
 10
-17.511351
 20
-23.442973
 30
0.0
 70
     8
  0
VERTEX
  5
350AB
330
1A0F7
100
AcDbEntity
  8
TITLE_BLOCK
  6
CONTINUOUS
 62
     7
100
AcDbVertex
100
AcDb2dVertex
 10
-17.480767
 20
-23.357268
 30
0.0
 70
     8
  0
VERTEX
  5
350AC
330
1A0F7
100
AcDbEntity
  8
TITLE_BLOCK
  6
CONTINUOUS
 62
     7
100
AcDbVertex
100
AcDb2dVertex
 10
-17.448456
 20
-23.272225
 30
0.0
 70
     8
  0
VERTEX
  5
350AD
330
1A0F7
100
AcDbEntity
  8
TITLE_BLOCK
  6
CONTINUOUS
 62
     7
100
AcDbVertex
100
AcDb2dVertex
 10
-17.380755
 20
-23.10332
 30
0.0
 70
     8
  0
VERTEX
  5
350AE
330
1A0F7
100
AcDbEntity
  8
TITLE_BLOCK
  6
CONTINUOUS
 62
     7
100
AcDbVertex
100
AcDb2dVertex
 10
-17.312455
 20
-22.934641
 30
0.0
 70
     8
  0
VERTEX
  5
350AF
330
1A0F7
100
AcDbEntity
  8
TITLE_BLOCK
  6
CONTINUOUS
 62
     7
100
AcDbVertex
100
AcDb2dVertex
 10
-17.279393
 20
-22.849882
 30
0.0
 70
     8
  0
VERTEX
  5
350B0
330
1A0F7
100
AcDbEntity
  8
TITLE_BLOCK
  6
CONTINUOUS
 62
     7
100
AcDbVertex
100
AcDb2dVertex
 10
-17.247757
 20
-22.764575
 30
0.0
 70
     8
  0
VERTEX
  5
350B1
330
1A0F7
100
AcDbEntity
  8
TITLE_BLOCK
  6
CONTINUOUS
 62
     7
100
AcDbVertex
100
AcDb2dVertex
 10
-17.036976
 20
-22.764575
 30
0.0
 70
     8
  0
VERTEX
  5
350B2
330
1A0F7
100
AcDbEntity
  8
TITLE_BLOCK
  6
CONTINUOUS
 62
     7
100
AcDbVertex
100
AcDb2dVertex
 10
-16.971359
 20
-22.935197
 30
0.0
 70
     8
  0
VERTEX
  5
350B3
330
1A0F7
100
AcDbEntity
  8
TITLE_BLOCK
  6
CONTINUOUS
 62
     7
100
AcDbVertex
100
AcDb2dVertex
 10
-16.903827
 20
-23.105068
 30
0.0
 70
     8
  0
VERTEX
  5
350B4
330
1A0F7
100
AcDbEntity
  8
TITLE_BLOCK
  6
CONTINUOUS
 62
     7
100
AcDbVertex
100
AcDb2dVertex
 10
-16.836668
 20
-23.275093
 30
0.0
 70
     8
  0
VERTEX
  5
350B5
330
1A0F7
100
AcDbEntity
  8
TITLE_BLOCK
  6
CONTINUOUS
 62
     7
100
AcDbVertex
100
AcDb2dVertex
 10
-16.772172
 20
-23.446176
 30
0.0
 70
     8
  0
VERTEX
  5
350B6
330
1A0F7
100
AcDbEntity
  8
TITLE_BLOCK
  6
CONTINUOUS
 62
     7
100
AcDbVertex
100
AcDb2dVertex
 10
-16.968148
 20
-23.442973
 30
0.0
 70
     8
  0
VERTEX
  5
350B7
330
1A0F7
100
AcDbEntity
  8
TITLE_BLOCK
  6
CONTINUOUS
 62
     7
100
AcDbVertex
100
AcDb2dVertex
 10
-17.006156
 20
-23.322973
 30
0.0
 70
     8
  0
VERTEX
  5
350B8
330
1A0F7
100
AcDbEntity
  8
TITLE_BLOCK
  6
CONTINUOUS
 62
     7
100
AcDbVertex
100
AcDb2dVertex
 10
-17.278148
 20
-23.324184
 30
0.0
 70
     8
  0
VERTEX
  5
350B9
330
1A0F7
100
AcDbEntity
  8
TITLE_BLOCK
  6
CONTINUOUS
 62
     7
100
AcDbVertex
100
AcDb2dVertex
 10
-17.317757
 20
-23.442973
 30
0.0
 70
     8
  0
VERTEX
  5
350BA
330
1A0F7
100
AcDbEntity
  8
TITLE_BLOCK
  6
CONTINUOUS
 62
     7
100
AcDbVertex
100
AcDb2dVertex
 10
-17.511351
 20
-23.442973
 30
0.0
 70
     8
  0
VERTEX
  5
350BB
330
1A0F7
100
AcDbEntity
  8
TITLE_BLOCK
  6
CONTINUOUS
 62
     7
100
AcDbVertex
100
AcDb2dVertex
 10
-17.511351
 20
-23.442973
 30
0.0
 70
     8
  0
VERTEX
  5
350BC
330
1A0F7
100
AcDbEntity
  8
TITLE_BLOCK
  6
CONTINUOUS
 62
     7
100
AcDbVertex
100
AcDb2dVertex
 10
-17.511351
 20
-23.442973
 30
0.0
 70
    16
  0
VERTEX
  5
350BD
330
1A0F7
100
AcDbEntity
  8
TITLE_BLOCK
  6
CONTINUOUS
 62
     7
100
AcDbVertex
100
AcDb2dVertex
 10
-17.432562
 20
-23.213364
 30
0.0
 70
    16
  0
VERTEX
  5
350BE
330
1A0F7
100
AcDbEntity
  8
TITLE_BLOCK
  6
CONTINUOUS
 62
     7
100
AcDbVertex
100
AcDb2dVertex
 10
-17.32975
 20
-22.992973
 30
0.0
 70
    16
  0
VERTEX
  5
350BF
330
1A0F7
100
AcDbEntity
  8
TITLE_BLOCK
  6
CONTINUOUS
 62
     7
100
AcDbVertex
100
AcDb2dVertex
 10
-17.247757
 20
-22.764575
 30
0.0
 70
    16
  0
VERTEX
  5
350C0
330
1A0F7
100
AcDbEntity
  8
TITLE_BLOCK
  6
CONTINUOUS
 62
     7
100
AcDbVertex
100
AcDb2dVertex
 10
-17.177757
 20
-22.764575
 30
0.0
 70
    16
  0
VERTEX
  5
350C1
330
1A0F7
100
AcDbEntity
  8
TITLE_BLOCK
  6
CONTINUOUS
 62
     7
100
AcDbVertex
100
AcDb2dVertex
 10
-17.107367
 20
-22.764575
 30
0.0
 70
    16
  0
VERTEX
  5
350C2
330
1A0F7
100
AcDbEntity
  8
TITLE_BLOCK
  6
CONTINUOUS
 62
     7
100
AcDbVertex
100
AcDb2dVertex
 10
-17.036976
 20
-22.764575
 30
0.0
 70
    16
  0
VERTEX
  5
350C3
330
1A0F7
100
AcDbEntity
  8
TITLE_BLOCK
  6
CONTINUOUS
 62
     7
100
AcDbVertex
100
AcDb2dVertex
 10
-16.951781
 20
-22.992973
 30
0.0
 70
    16
  0
VERTEX
  5
350C4
330
1A0F7
100
AcDbEntity
  8
TITLE_BLOCK
  6
CONTINUOUS
 62
     7
100
AcDbVertex
100
AcDb2dVertex
 10
-16.855375
 20
-23.216957
 30
0.0
 70
    16
  0
VERTEX
  5
350C5
330
1A0F7
100
AcDbEntity
  8
TITLE_BLOCK
  6
CONTINUOUS
 62
     7
100
AcDbVertex
100
AcDb2dVertex
 10
-16.772172
 20
-23.446176
 30
0.0
 70
    16
  0
VERTEX
  5
350C6
330
1A0F7
100
AcDbEntity
  8
TITLE_BLOCK
  6
CONTINUOUS
 62
     7
100
AcDbVertex
100
AcDb2dVertex
 10
-16.837367
 20
-23.445356
 30
0.0
 70
    16
  0
VERTEX
  5
350C7
330
1A0F7
100
AcDbEntity
  8
TITLE_BLOCK
  6
CONTINUOUS
 62
     7
100
AcDbVertex
100
AcDb2dVertex
 10
-16.902953
 20
-23.444184
 30
0.0
 70
    16
  0
VERTEX
  5
350C8
330
1A0F7
100
AcDbEntity
  8
TITLE_BLOCK
  6
CONTINUOUS
 62
     7
100
AcDbVertex
100
AcDb2dVertex
 10
-16.968148
 20
-23.442973
 30
0.0
 70
    16
  0
VERTEX
  5
350C9
330
1A0F7
100
AcDbEntity
  8
TITLE_BLOCK
  6
CONTINUOUS
 62
     7
100
AcDbVertex
100
AcDb2dVertex
 10
-16.98057
 20
-23.402582
 30
0.0
 70
    16
  0
VERTEX
  5
350CA
330
1A0F7
100
AcDbEntity
  8
TITLE_BLOCK
  6
CONTINUOUS
 62
     7
100
AcDbVertex
100
AcDb2dVertex
 10
-16.993343
 20
-23.362582
 30
0.0
 70
    16
  0
VERTEX
  5
350CB
330
1A0F7
100
AcDbEntity
  8
TITLE_BLOCK
  6
CONTINUOUS
 62
     7
100
AcDbVertex
100
AcDb2dVertex
 10
-17.006156
 20
-23.322973
 30
0.0
 70
    16
  0
VERTEX
  5
350CC
330
1A0F7
100
AcDbEntity
  8
TITLE_BLOCK
  6
CONTINUOUS
 62
     7
100
AcDbVertex
100
AcDb2dVertex
 10
-17.096976
 20
-23.323364
 30
0.0
 70
    16
  0
VERTEX
  5
350CD
330
1A0F7
100
AcDbEntity
  8
TITLE_BLOCK
  6
CONTINUOUS
 62
     7
100
AcDbVertex
100
AcDb2dVertex
 10
-17.187757
 20
-23.324184
 30
0.0
 70
    16
  0
VERTEX
  5
350CE
330
1A0F7
100
AcDbEntity
  8
TITLE_BLOCK
  6
CONTINUOUS
 62
     7
100
AcDbVertex
100
AcDb2dVertex
 10
-17.278148
 20
-23.324184
 30
0.0
 70
    16
  0
VERTEX
  5
350CF
330
1A0F7
100
AcDbEntity
  8
TITLE_BLOCK
  6
CONTINUOUS
 62
     7
100
AcDbVertex
100
AcDb2dVertex
 10
-17.291781
 20
-23.363793
 30
0.0
 70
    16
  0
VERTEX
  5
350D0
330
1A0F7
100
AcDbEntity
  8
TITLE_BLOCK
  6
CONTINUOUS
 62
     7
100
AcDbVertex
100
AcDb2dVertex
 10
-17.304945
 20
-23.403364
 30
0.0
 70
    16
  0
VERTEX
  5
350D1
330
1A0F7
100
AcDbEntity
  8
TITLE_BLOCK
  6
CONTINUOUS
 62
     7
100
AcDbVertex
100
AcDb2dVertex
 10
-17.317757
 20
-23.442973
 30
0.0
 70
    16
  0
VERTEX
  5
350D2
330
1A0F7
100
AcDbEntity
  8
TITLE_BLOCK
  6
CONTINUOUS
 62
     7
100
AcDbVertex
100
AcDb2dVertex
 10
-17.382562
 20
-23.443364
 30
0.0
 70
    16
  0
VERTEX
  5
350D3
330
1A0F7
100
AcDbEntity
  8
TITLE_BLOCK
  6
CONTINUOUS
 62
     7
100
AcDbVertex
100
AcDb2dVertex
 10
-17.446976
 20
-23.443793
 30
0.0
 70
    16
  0
VERTEX
  5
350D4
330
1A0F7
100
AcDbEntity
  8
TITLE_BLOCK
  6
CONTINUOUS
 62
     7
100
AcDbVertex
100
AcDb2dVertex
 10
-17.511351
 20
-23.442973
 30
0.0
 70
    16
  0
VERTEX
  5
350D5
330
1A0F7
100
AcDbEntity
  8
TITLE_BLOCK
  6
CONTINUOUS
 62
     7
100
AcDbVertex
100
AcDb2dVertex
 10
-17.511351
 20
-23.442973
 30
0.0
 70
    16
  0
VERTEX
  5
350D6
330
1A0F7
100
AcDbEntity
  8
TITLE_BLOCK
  6
CONTINUOUS
 62
     7
100
AcDbVertex
100
AcDb2dVertex
 10
-17.511351
 20
-23.442973
 30
0.0
 70
    16
  0
VERTEX
  5
350D7
330
1A0F7
100
AcDbEntity
  8
TITLE_BLOCK
  6
CONTINUOUS
 62
     7
100
AcDbVertex
100
AcDb2dVertex
 10
-17.511351
 20
-23.442973
 30
0.0
 70
    16
  0
SEQEND
  5
350D8
330
1A0F7
100
AcDbEntity
  8
TITLE_BLOCK
  6
CONTINUOUS
 62
     7
  0
POLYLINE
  5
1A126
330
34C93
100
AcDbEntity
  8
TITLE_BLOCK
  6
CONTINUOUS
 62
     7
100
AcDb2dPolyline
 66
     1
 10
0.0
 20
0.0
 30
0.0
 70
     5
 75
     5
  0
VERTEX
  5
350D9
330
1A126
100
AcDbEntity
  8
TITLE_BLOCK
  6
CONTINUOUS
 62
     7
100
AcDbVertex
100
AcDb2dVertex
 10
-16.682172
 20
-22.762192
 30
0.0
 70
     8
  0
VERTEX
  5
350DA
330
1A126
100
AcDbEntity
  8
TITLE_BLOCK
  6
CONTINUOUS
 62
     7
100
AcDbVertex
100
AcDb2dVertex
 10
-16.483343
 20
-22.764575
 30
0.0
 70
     8
  0
VERTEX
  5
350DB
330
1A126
100
AcDbEntity
  8
TITLE_BLOCK
  6
CONTINUOUS
 62
     7
100
AcDbVertex
100
AcDb2dVertex
 10
-16.481351
 20
-23.442582
 30
0.0
 70
     8
  0
VERTEX
  5
350DC
330
1A126
100
AcDbEntity
  8
TITLE_BLOCK
  6
CONTINUOUS
 62
     7
100
AcDbVertex
100
AcDb2dVertex
 10
-16.681781
 20
-23.447387
 30
0.0
 70
     8
  0
VERTEX
  5
350DD
330
1A126
100
AcDbEntity
  8
TITLE_BLOCK
  6
CONTINUOUS
 62
     7
100
AcDbVertex
100
AcDb2dVertex
 10
-16.682172
 20
-22.762192
 30
0.0
 70
     8
  0
VERTEX
  5
350DE
330
1A126
100
AcDbEntity
  8
TITLE_BLOCK
  6
CONTINUOUS
 62
     7
100
AcDbVertex
100
AcDb2dVertex
 10
-16.682172
 20
-22.762192
 30
0.0
 70
     8
  0
VERTEX
  5
350DF
330
1A126
100
AcDbEntity
  8
TITLE_BLOCK
  6
CONTINUOUS
 62
     7
100
AcDbVertex
100
AcDb2dVertex
 10
-16.682172
 20
-22.762192
 30
0.0
 70
    16
  0
VERTEX
  5
350E0
330
1A126
100
AcDbEntity
  8
TITLE_BLOCK
  6
CONTINUOUS
 62
     7
100
AcDbVertex
100
AcDb2dVertex
 10
-16.616156
 20
-22.763364
 30
0.0
 70
    16
  0
VERTEX
  5
350E1
330
1A126
100
AcDbEntity
  8
TITLE_BLOCK
  6
CONTINUOUS
 62
     7
100
AcDbVertex
100
AcDb2dVertex
 10
-16.54975
 20
-22.763793
 30
0.0
 70
    16
  0
VERTEX
  5
350E2
330
1A126
100
AcDbEntity
  8
TITLE_BLOCK
  6
CONTINUOUS
 62
     7
100
AcDbVertex
100
AcDb2dVertex
 10
-16.483343
 20
-22.764575
 30
0.0
 70
    16
  0
VERTEX
  5
350E3
330
1A126
100
AcDbEntity
  8
TITLE_BLOCK
  6
CONTINUOUS
 62
     7
100
AcDbVertex
100
AcDb2dVertex
 10
-16.48057
 20
-22.99059
 30
0.0
 70
    16
  0
VERTEX
  5
350E4
330
1A126
100
AcDbEntity
  8
TITLE_BLOCK
  6
CONTINUOUS
 62
     7
100
AcDbVertex
100
AcDb2dVertex
 10
-16.484164
 20
-23.216567
 30
0.0
 70
    16
  0
VERTEX
  5
350E5
330
1A126
100
AcDbEntity
  8
TITLE_BLOCK
  6
CONTINUOUS
 62
     7
100
AcDbVertex
100
AcDb2dVertex
 10
-16.481351
 20
-23.442582
 30
0.0
 70
    16
  0
VERTEX
  5
350E6
330
1A126
100
AcDbEntity
  8
TITLE_BLOCK
  6
CONTINUOUS
 62
     7
100
AcDbVertex
100
AcDb2dVertex
 10
-16.548148
 20
-23.443793
 30
0.0
 70
    16
  0
VERTEX
  5
350E7
330
1A126
100
AcDbEntity
  8
TITLE_BLOCK
  6
CONTINUOUS
 62
     7
100
AcDbVertex
100
AcDb2dVertex
 10
-16.614945
 20
-23.445356
 30
0.0
 70
    16
  0
VERTEX
  5
350E8
330
1A126
100
AcDbEntity
  8
TITLE_BLOCK
  6
CONTINUOUS
 62
     7
100
AcDbVertex
100
AcDb2dVertex
 10
-16.681781
 20
-23.447387
 30
0.0
 70
    16
  0
VERTEX
  5
350E9
330
1A126
100
AcDbEntity
  8
TITLE_BLOCK
  6
CONTINUOUS
 62
     7
100
AcDbVertex
100
AcDb2dVertex
 10
-16.683343
 20
-23.218989
 30
0.0
 70
    16
  0
VERTEX
  5
350EA
330
1A126
100
AcDbEntity
  8
TITLE_BLOCK
  6
CONTINUOUS
 62
     7
100
AcDbVertex
100
AcDb2dVertex
 10
-16.680961
 20
-22.99059
 30
0.0
 70
    16
  0
VERTEX
  5
350EB
330
1A126
100
AcDbEntity
  8
TITLE_BLOCK
  6
CONTINUOUS
 62
     7
100
AcDbVertex
100
AcDb2dVertex
 10
-16.682172
 20
-22.762192
 30
0.0
 70
    16
  0
VERTEX
  5
350EC
330
1A126
100
AcDbEntity
  8
TITLE_BLOCK
  6
CONTINUOUS
 62
     7
100
AcDbVertex
100
AcDb2dVertex
 10
-16.682172
 20
-22.762192
 30
0.0
 70
    16
  0
VERTEX
  5
350ED
330
1A126
100
AcDbEntity
  8
TITLE_BLOCK
  6
CONTINUOUS
 62
     7
100
AcDbVertex
100
AcDb2dVertex
 10
-16.682172
 20
-22.762192
 30
0.0
 70
    16
  0
VERTEX
  5
350EE
330
1A126
100
AcDbEntity
  8
TITLE_BLOCK
  6
CONTINUOUS
 62
     7
100
AcDbVertex
100
AcDb2dVertex
 10
-16.682172
 20
-22.762192
 30
0.0
 70
    16
  0
SEQEND
  5
350EF
330
1A126
100
AcDbEntity
  8
TITLE_BLOCK
  6
CONTINUOUS
 62
     7
  0
POLYLINE
  5
1A13D
330
34C93
100
AcDbEntity
  8
TITLE_BLOCK
  6
CONTINUOUS
 62
     7
100
AcDb2dPolyline
 66
     1
 10
0.0
 20
0.0
 30
0.0
 70
     5
 75
     5
  0
VERTEX
  5
350F0
330
1A13D
100
AcDbEntity
  8
TITLE_BLOCK
  6
CONTINUOUS
 62
     7
100
AcDbVertex
100
AcDb2dVertex
 10
-16.326156
 20
-22.758168
 30
0.0
 70
     8
  0
VERTEX
  5
350F1
330
1A13D
100
AcDbEntity
  8
TITLE_BLOCK
  6
CONTINUOUS
 62
     7
100
AcDbVertex
100
AcDb2dVertex
 10
-16.286633
 20
-22.759739
 30
0.0
 70
     8
  0
VERTEX
  5
350F2
330
1A13D
100
AcDbEntity
  8
TITLE_BLOCK
  6
CONTINUOUS
 62
     7
100
AcDbVertex
100
AcDb2dVertex
 10
-16.247303
 20
-22.763173
 30
0.0
 70
     8
  0
VERTEX
  5
350F3
330
1A13D
100
AcDbEntity
  8
TITLE_BLOCK
  6
CONTINUOUS
 62
     7
100
AcDbVertex
100
AcDb2dVertex
 10
-16.208201
 20
-22.768402
 30
0.0
 70
     8
  0
VERTEX
  5
350F4
330
1A13D
100
AcDbEntity
  8
TITLE_BLOCK
  6
CONTINUOUS
 62
     7
100
AcDbVertex
100
AcDb2dVertex
 10
-16.169359
 20
-22.775356
 30
0.0
 70
     8
  0
VERTEX
  5
350F5
330
1A13D
100
AcDbEntity
  8
TITLE_BLOCK
  6
CONTINUOUS
 62
     7
100
AcDbVertex
100
AcDb2dVertex
 10
-16.126673
 20
-22.829473
 30
0.0
 70
     8
  0
VERTEX
  5
350F6
330
1A13D
100
AcDbEntity
  8
TITLE_BLOCK
  6
CONTINUOUS
 62
     7
100
AcDbVertex
100
AcDb2dVertex
 10
-16.085788
 20
-22.884979
 30
0.0
 70
     8
  0
VERTEX
  5
350F7
330
1A13D
100
AcDbEntity
  8
TITLE_BLOCK
  6
CONTINUOUS
 62
     7
100
AcDbVertex
100
AcDb2dVertex
 10
-16.006869
 20
-22.998227
 30
0.0
 70
     8
  0
VERTEX
  5
350F8
330
1A13D
100
AcDbEntity
  8
TITLE_BLOCK
  6
CONTINUOUS
 62
     7
100
AcDbVertex
100
AcDb2dVertex
 10
-15.927495
 20
-23.111241
 30
0.0
 70
     8
  0
VERTEX
  5
350F9
330
1A13D
100
AcDbEntity
  8
TITLE_BLOCK
  6
CONTINUOUS
 62
     7
100
AcDbVertex
100
AcDb2dVertex
 10
-15.886043
 20
-23.166454
 30
0.0
 70
     8
  0
VERTEX
  5
350FA
330
1A13D
100
AcDbEntity
  8
TITLE_BLOCK
  6
CONTINUOUS
 62
     7
100
AcDbVertex
100
AcDb2dVertex
 10
-15.842562
 20
-23.220161
 30
0.0
 70
     8
  0
VERTEX
  5
350FB
330
1A13D
100
AcDbEntity
  8
TITLE_BLOCK
  6
CONTINUOUS
 62
     7
100
AcDbVertex
100
AcDb2dVertex
 10
-15.843465
 20
-22.991977
 30
0.0
 70
     8
  0
VERTEX
  5
350FC
330
1A13D
100
AcDbEntity
  8
TITLE_BLOCK
  6
CONTINUOUS
 62
     7
100
AcDbVertex
100
AcDb2dVertex
 10
-15.843458
 20
-22.877849
 30
0.0
 70
     8
  0
VERTEX
  5
350FD
330
1A13D
100
AcDbEntity
  8
TITLE_BLOCK
  6
CONTINUOUS
 62
     7
100
AcDbVertex
100
AcDb2dVertex
 10
-15.841351
 20
-22.763793
 30
0.0
 70
     8
  0
VERTEX
  5
350FE
330
1A13D
100
AcDbEntity
  8
TITLE_BLOCK
  6
CONTINUOUS
 62
     7
100
AcDbVertex
100
AcDb2dVertex
 10
-15.67975
 20
-22.766567
 30
0.0
 70
     8
  0
VERTEX
  5
350FF
330
1A13D
100
AcDbEntity
  8
TITLE_BLOCK
  6
CONTINUOUS
 62
     7
100
AcDbVertex
100
AcDb2dVertex
 10
-15.682289
 20
-22.936005
 30
0.0
 70
     8
  0
VERTEX
  5
35100
330
1A13D
100
AcDbEntity
  8
TITLE_BLOCK
  6
CONTINUOUS
 62
     7
100
AcDbVertex
100
AcDb2dVertex
 10
-15.682953
 20
-23.105327
 30
0.0
 70
     8
  0
VERTEX
  5
35101
330
1A13D
100
AcDbEntity
  8
TITLE_BLOCK
  6
CONTINUOUS
 62
     7
100
AcDbVertex
100
AcDb2dVertex
 10
-15.680179
 20
-23.443793
 30
0.0
 70
     8
  0
VERTEX
  5
35102
330
1A13D
100
AcDbEntity
  8
TITLE_BLOCK
  6
CONTINUOUS
 62
     7
100
AcDbVertex
100
AcDb2dVertex
 10
-15.835375
 20
-23.444965
 30
0.0
 70
     8
  0
VERTEX
  5
35103
330
1A13D
100
AcDbEntity
  8
TITLE_BLOCK
  6
CONTINUOUS
 62
     7
100
AcDbVertex
100
AcDb2dVertex
 10
-15.994823
 20
-23.214521
 30
0.0
 70
     8
  0
VERTEX
  5
35104
330
1A13D
100
AcDbEntity
  8
TITLE_BLOCK
  6
CONTINUOUS
 62
     7
100
AcDbVertex
100
AcDb2dVertex
 10
-16.075728
 20
-23.100099
 30
0.0
 70
     8
  0
VERTEX
  5
35105
330
1A13D
100
AcDbEntity
  8
TITLE_BLOCK
  6
CONTINUOUS
 62
     7
100
AcDbVertex
100
AcDb2dVertex
 10
-16.117509
 20
-23.043859
 30
0.0
 70
     8
  0
VERTEX
  5
35106
330
1A13D
100
AcDbEntity
  8
TITLE_BLOCK
  6
CONTINUOUS
 62
     7
100
AcDbVertex
100
AcDb2dVertex
 10
-16.16057
 20
-22.988559
 30
0.0
 70
     8
  0
VERTEX
  5
35107
330
1A13D
100
AcDbEntity
  8
TITLE_BLOCK
  6
CONTINUOUS
 62
     7
100
AcDbVertex
100
AcDb2dVertex
 10
-16.162572
 20
-23.214575
 30
0.0
 70
     8
  0
VERTEX
  5
35108
330
1A13D
100
AcDbEntity
  8
TITLE_BLOCK
  6
CONTINUOUS
 62
     7
100
AcDbVertex
100
AcDb2dVertex
 10
-16.163343
 20
-23.44059
 30
0.0
 70
     8
  0
VERTEX
  5
35109
330
1A13D
100
AcDbEntity
  8
TITLE_BLOCK
  6
CONTINUOUS
 62
     7
100
AcDbVertex
100
AcDb2dVertex
 10
-16.320961
 20
-23.448559
 30
0.0
 70
     8
  0
VERTEX
  5
3510A
330
1A13D
100
AcDbEntity
  8
TITLE_BLOCK
  6
CONTINUOUS
 62
     7
100
AcDbVertex
100
AcDb2dVertex
 10
-16.322569
 20
-23.275833
 30
0.0
 70
     8
  0
VERTEX
  5
3510B
330
1A13D
100
AcDbEntity
  8
TITLE_BLOCK
  6
CONTINUOUS
 62
     7
100
AcDbVertex
100
AcDb2dVertex
 10
-16.322372
 20
-23.103217
 30
0.0
 70
     8
  0
VERTEX
  5
3510C
330
1A13D
100
AcDbEntity
  8
TITLE_BLOCK
  6
CONTINUOUS
 62
     7
100
AcDbVertex
100
AcDb2dVertex
 10
-16.322768
 20
-22.930675
 30
0.0
 70
     8
  0
VERTEX
  5
3510D
330
1A13D
100
AcDbEntity
  8
TITLE_BLOCK
  6
CONTINUOUS
 62
     7
100
AcDbVertex
100
AcDb2dVertex
 10
-16.326156
 20
-22.758168
 30
0.0
 70
     8
  0
VERTEX
  5
3510E
330
1A13D
100
AcDbEntity
  8
TITLE_BLOCK
  6
CONTINUOUS
 62
     7
100
AcDbVertex
100
AcDb2dVertex
 10
-16.326156
 20
-22.758168
 30
0.0
 70
     8
  0
VERTEX
  5
3510F
330
1A13D
100
AcDbEntity
  8
TITLE_BLOCK
  6
CONTINUOUS
 62
     7
100
AcDbVertex
100
AcDb2dVertex
 10
-16.326156
 20
-22.758168
 30
0.0
 70
    16
  0
VERTEX
  5
35110
330
1A13D
100
AcDbEntity
  8
TITLE_BLOCK
  6
CONTINUOUS
 62
     7
100
AcDbVertex
100
AcDb2dVertex
 10
-16.273343
 20
-22.758989
 30
0.0
 70
    16
  0
VERTEX
  5
35111
330
1A13D
100
AcDbEntity
  8
TITLE_BLOCK
  6
CONTINUOUS
 62
     7
100
AcDbVertex
100
AcDb2dVertex
 10
-16.220961
 20
-22.764965
 30
0.0
 70
    16
  0
VERTEX
  5
35112
330
1A13D
100
AcDbEntity
  8
TITLE_BLOCK
  6
CONTINUOUS
 62
     7
100
AcDbVertex
100
AcDb2dVertex
 10
-16.169359
 20
-22.775356
 30
0.0
 70
    16
  0
VERTEX
  5
35113
330
1A13D
100
AcDbEntity
  8
TITLE_BLOCK
  6
CONTINUOUS
 62
     7
100
AcDbVertex
100
AcDb2dVertex
 10
-16.052562
 20
-22.917387
 30
0.0
 70
    16
  0
VERTEX
  5
35114
330
1A13D
100
AcDbEntity
  8
TITLE_BLOCK
  6
CONTINUOUS
 62
     7
100
AcDbVertex
100
AcDb2dVertex
 10
-15.961781
 20
-23.079379
 30
0.0
 70
    16
  0
VERTEX
  5
35115
330
1A13D
100
AcDbEntity
  8
TITLE_BLOCK
  6
CONTINUOUS
 62
     7
100
AcDbVertex
100
AcDb2dVertex
 10
-15.842562
 20
-23.220161
 30
0.0
 70
    16
  0
VERTEX
  5
35116
330
1A13D
100
AcDbEntity
  8
TITLE_BLOCK
  6
CONTINUOUS
 62
     7
100
AcDbVertex
100
AcDb2dVertex
 10
-15.841781
 20
-23.068168
 30
0.0
 70
    16
  0
VERTEX
  5
35117
330
1A13D
100
AcDbEntity
  8
TITLE_BLOCK
  6
CONTINUOUS
 62
     7
100
AcDbVertex
100
AcDb2dVertex
 10
-15.846156
 20
-22.915786
 30
0.0
 70
    16
  0
VERTEX
  5
35118
330
1A13D
100
AcDbEntity
  8
TITLE_BLOCK
  6
CONTINUOUS
 62
     7
100
AcDbVertex
100
AcDb2dVertex
 10
-15.841351
 20
-22.763793
 30
0.0
 70
    16
  0
VERTEX
  5
35119
330
1A13D
100
AcDbEntity
  8
TITLE_BLOCK
  6
CONTINUOUS
 62
     7
100
AcDbVertex
100
AcDb2dVertex
 10
-15.787367
 20
-22.764965
 30
0.0
 70
    16
  0
VERTEX
  5
3511A
330
1A13D
100
AcDbEntity
  8
TITLE_BLOCK
  6
CONTINUOUS
 62
     7
100
AcDbVertex
100
AcDb2dVertex
 10
-15.733773
 20
-22.765786
 30
0.0
 70
    16
  0
VERTEX
  5
3511B
330
1A13D
100
AcDbEntity
  8
TITLE_BLOCK
  6
CONTINUOUS
 62
     7
100
AcDbVertex
100
AcDb2dVertex
 10
-15.67975
 20
-22.766567
 30
0.0
 70
    16
  0
VERTEX
  5
3511C
330
1A13D
100
AcDbEntity
  8
TITLE_BLOCK
  6
CONTINUOUS
 62
     7
100
AcDbVertex
100
AcDb2dVertex
 10
-15.684554
 20
-22.992582
 30
0.0
 70
    16
  0
VERTEX
  5
3511D
330
1A13D
100
AcDbEntity
  8
TITLE_BLOCK
  6
CONTINUOUS
 62
     7
100
AcDbVertex
100
AcDb2dVertex
 10
-15.683343
 20
-23.218168
 30
0.0
 70
    16
  0
VERTEX
  5
3511E
330
1A13D
100
AcDbEntity
  8
TITLE_BLOCK
  6
CONTINUOUS
 62
     7
100
AcDbVertex
100
AcDb2dVertex
 10
-15.680179
 20
-23.443793
 30
0.0
 70
    16
  0
VERTEX
  5
3511F
330
1A13D
100
AcDbEntity
  8
TITLE_BLOCK
  6
CONTINUOUS
 62
     7
100
AcDbVertex
100
AcDb2dVertex
 10
-15.732172
 20
-23.444184
 30
0.0
 70
    16
  0
VERTEX
  5
35120
330
1A13D
100
AcDbEntity
  8
TITLE_BLOCK
  6
CONTINUOUS
 62
     7
100
AcDbVertex
100
AcDb2dVertex
 10
-15.783773
 20
-23.444575
 30
0.0
 70
    16
  0
VERTEX
  5
35121
330
1A13D
100
AcDbEntity
  8
TITLE_BLOCK
  6
CONTINUOUS
 62
     7
100
AcDbVertex
100
AcDb2dVertex
 10
-15.835375
 20
-23.444965
 30
0.0
 70
    16
  0
VERTEX
  5
35122
330
1A13D
100
AcDbEntity
  8
TITLE_BLOCK
  6
CONTINUOUS
 62
     7
100
AcDbVertex
100
AcDb2dVertex
 10
-15.943773
 20
-23.292973
 30
0.0
 70
    16
  0
VERTEX
  5
35123
330
1A13D
100
AcDbEntity
  8
TITLE_BLOCK
  6
CONTINUOUS
 62
     7
100
AcDbVertex
100
AcDb2dVertex
 10
-16.043773
 20
-23.134575
 30
0.0
 70
    16
  0
VERTEX
  5
35124
330
1A13D
100
AcDbEntity
  8
TITLE_BLOCK
  6
CONTINUOUS
 62
     7
100
AcDbVertex
100
AcDb2dVertex
 10
-16.16057
 20
-22.988559
 30
0.0
 70
    16
  0
VERTEX
  5
35125
330
1A13D
100
AcDbEntity
  8
TITLE_BLOCK
  6
CONTINUOUS
 62
     7
100
AcDbVertex
100
AcDb2dVertex
 10
-16.163773
 20
-23.139379
 30
0.0
 70
    16
  0
VERTEX
  5
35126
330
1A13D
100
AcDbEntity
  8
TITLE_BLOCK
  6
CONTINUOUS
 62
     7
100
AcDbVertex
100
AcDb2dVertex
 10
-16.161781
 20
-23.28977
 30
0.0
 70
    16
  0
VERTEX
  5
35127
330
1A13D
100
AcDbEntity
  8
TITLE_BLOCK
  6
CONTINUOUS
 62
     7
100
AcDbVertex
100
AcDb2dVertex
 10
-16.163343
 20
-23.44059
 30
0.0
 70
    16
  0
VERTEX
  5
35128
330
1A13D
100
AcDbEntity
  8
TITLE_BLOCK
  6
CONTINUOUS
 62
     7
100
AcDbVertex
100
AcDb2dVertex
 10
-16.216156
 20
-23.443364
 30
0.0
 70
    16
  0
VERTEX
  5
35129
330
1A13D
100
AcDbEntity
  8
TITLE_BLOCK
  6
CONTINUOUS
 62
     7
100
AcDbVertex
100
AcDb2dVertex
 10
-16.268578
 20
-23.445786
 30
0.0
 70
    16
  0
VERTEX
  5
3512A
330
1A13D
100
AcDbEntity
  8
TITLE_BLOCK
  6
CONTINUOUS
 62
     7
100
AcDbVertex
100
AcDb2dVertex
 10
-16.320961
 20
-23.448559
 30
0.0
 70
    16
  0
VERTEX
  5
3512B
330
1A13D
100
AcDbEntity
  8
TITLE_BLOCK
  6
CONTINUOUS
 62
     7
100
AcDbVertex
100
AcDb2dVertex
 10
-16.325375
 20
-23.218168
 30
0.0
 70
    16
  0
VERTEX
  5
3512C
330
1A13D
100
AcDbEntity
  8
TITLE_BLOCK
  6
CONTINUOUS
 62
     7
100
AcDbVertex
100
AcDb2dVertex
 10
-16.318578
 20
-22.988168
 30
0.0
 70
    16
  0
VERTEX
  5
3512D
330
1A13D
100
AcDbEntity
  8
TITLE_BLOCK
  6
CONTINUOUS
 62
     7
100
AcDbVertex
100
AcDb2dVertex
 10
-16.326156
 20
-22.758168
 30
0.0
 70
    16
  0
VERTEX
  5
3512E
330
1A13D
100
AcDbEntity
  8
TITLE_BLOCK
  6
CONTINUOUS
 62
     7
100
AcDbVertex
100
AcDb2dVertex
 10
-16.326156
 20
-22.758168
 30
0.0
 70
    16
  0
VERTEX
  5
3512F
330
1A13D
100
AcDbEntity
  8
TITLE_BLOCK
  6
CONTINUOUS
 62
     7
100
AcDbVertex
100
AcDb2dVertex
 10
-16.326156
 20
-22.758168
 30
0.0
 70
    16
  0
VERTEX
  5
35130
330
1A13D
100
AcDbEntity
  8
TITLE_BLOCK
  6
CONTINUOUS
 62
     7
100
AcDbVertex
100
AcDb2dVertex
 10
-16.326156
 20
-22.758168
 30
0.0
 70
    16
  0
SEQEND
  5
35131
330
1A13D
100
AcDbEntity
  8
TITLE_BLOCK
  6
CONTINUOUS
 62
     7
  0
POLYLINE
  5
1A17F
330
34C93
100
AcDbEntity
  8
TITLE_BLOCK
  6
CONTINUOUS
 62
     7
100
AcDb2dPolyline
 66
     1
 10
0.0
 20
0.0
 30
0.0
 70
     5
 75
     5
  0
VERTEX
  5
35132
330
1A17F
100
AcDbEntity
  8
TITLE_BLOCK
  6
CONTINUOUS
 62
     7
100
AcDbVertex
100
AcDb2dVertex
 10
-15.523343
 20
-22.765356
 30
0.0
 70
     8
  0
VERTEX
  5
35133
330
1A17F
100
AcDbEntity
  8
TITLE_BLOCK
  6
CONTINUOUS
 62
     7
100
AcDbVertex
100
AcDb2dVertex
 10
-15.324164
 20
-22.762973
 30
0.0
 70
     8
  0
VERTEX
  5
35134
330
1A17F
100
AcDbEntity
  8
TITLE_BLOCK
  6
CONTINUOUS
 62
     7
100
AcDbVertex
100
AcDb2dVertex
 10
-15.321112
 20
-23.023417
 30
0.0
 70
     8
  0
VERTEX
  5
35135
330
1A17F
100
AcDbEntity
  8
TITLE_BLOCK
  6
CONTINUOUS
 62
     7
100
AcDbVertex
100
AcDb2dVertex
 10
-15.321631
 20
-23.15374
 30
0.0
 70
     8
  0
VERTEX
  5
35136
330
1A17F
100
AcDbEntity
  8
TITLE_BLOCK
  6
CONTINUOUS
 62
     7
100
AcDbVertex
100
AcDb2dVertex
 10
-15.323773
 20
-23.284184
 30
0.0
 70
     8
  0
VERTEX
  5
35137
330
1A17F
100
AcDbEntity
  8
TITLE_BLOCK
  6
CONTINUOUS
 62
     7
100
AcDbVertex
100
AcDb2dVertex
 10
-15.002953
 20
-23.285786
 30
0.0
 70
     8
  0
VERTEX
  5
35138
330
1A17F
100
AcDbEntity
  8
TITLE_BLOCK
  6
CONTINUOUS
 62
     7
100
AcDbVertex
100
AcDb2dVertex
 10
-15.003773
 20
-23.442973
 30
0.0
 70
     8
  0
VERTEX
  5
35139
330
1A17F
100
AcDbEntity
  8
TITLE_BLOCK
  6
CONTINUOUS
 62
     7
100
AcDbVertex
100
AcDb2dVertex
 10
-15.264769
 20
-23.444829
 30
0.0
 70
     8
  0
VERTEX
  5
3513A
330
1A17F
100
AcDbEntity
  8
TITLE_BLOCK
  6
CONTINUOUS
 62
     7
100
AcDbVertex
100
AcDb2dVertex
 10
-15.525765
 20
-23.444575
 30
0.0
 70
     8
  0
VERTEX
  5
3513B
330
1A17F
100
AcDbEntity
  8
TITLE_BLOCK
  6
CONTINUOUS
 62
     7
100
AcDbVertex
100
AcDb2dVertex
 10
-15.522695
 20
-23.27477
 30
0.0
 70
     8
  0
VERTEX
  5
3513C
330
1A17F
100
AcDbEntity
  8
TITLE_BLOCK
  6
CONTINUOUS
 62
     7
100
AcDbVertex
100
AcDb2dVertex
 10
-15.522767
 20
-23.104965
 30
0.0
 70
     8
  0
VERTEX
  5
3513D
330
1A17F
100
AcDbEntity
  8
TITLE_BLOCK
  6
CONTINUOUS
 62
     7
100
AcDbVertex
100
AcDb2dVertex
 10
-15.523343
 20
-22.765356
 30
0.0
 70
     8
  0
VERTEX
  5
3513E
330
1A17F
100
AcDbEntity
  8
TITLE_BLOCK
  6
CONTINUOUS
 62
     7
100
AcDbVertex
100
AcDb2dVertex
 10
-15.523343
 20
-22.765356
 30
0.0
 70
     8
  0
VERTEX
  5
3513F
330
1A17F
100
AcDbEntity
  8
TITLE_BLOCK
  6
CONTINUOUS
 62
     7
100
AcDbVertex
100
AcDb2dVertex
 10
-15.523343
 20
-22.765356
 30
0.0
 70
    16
  0
VERTEX
  5
35140
330
1A17F
100
AcDbEntity
  8
TITLE_BLOCK
  6
CONTINUOUS
 62
     7
100
AcDbVertex
100
AcDb2dVertex
 10
-15.456976
 20
-22.764575
 30
0.0
 70
    16
  0
VERTEX
  5
35141
330
1A17F
100
AcDbEntity
  8
TITLE_BLOCK
  6
CONTINUOUS
 62
     7
100
AcDbVertex
100
AcDb2dVertex
 10
-15.39057
 20
-22.763793
 30
0.0
 70
    16
  0
VERTEX
  5
35142
330
1A17F
100
AcDbEntity
  8
TITLE_BLOCK
  6
CONTINUOUS
 62
     7
100
AcDbVertex
100
AcDb2dVertex
 10
-15.324164
 20
-22.762973
 30
0.0
 70
    16
  0
VERTEX
  5
35143
330
1A17F
100
AcDbEntity
  8
TITLE_BLOCK
  6
CONTINUOUS
 62
     7
100
AcDbVertex
100
AcDb2dVertex
 10
-15.32057
 20
-22.936567
 30
0.0
 70
    16
  0
VERTEX
  5
35144
330
1A17F
100
AcDbEntity
  8
TITLE_BLOCK
  6
CONTINUOUS
 62
     7
100
AcDbVertex
100
AcDb2dVertex
 10
-15.31975
 20
-23.110161
 30
0.0
 70
    16
  0
VERTEX
  5
35145
330
1A17F
100
AcDbEntity
  8
TITLE_BLOCK
  6
CONTINUOUS
 62
     7
100
AcDbVertex
100
AcDb2dVertex
 10
-15.323773
 20
-23.284184
 30
0.0
 70
    16
  0
VERTEX
  5
35146
330
1A17F
100
AcDbEntity
  8
TITLE_BLOCK
  6
CONTINUOUS
 62
     7
100
AcDbVertex
100
AcDb2dVertex
 10
-15.216976
 20
-23.284965
 30
0.0
 70
    16
  0
VERTEX
  5
35147
330
1A17F
100
AcDbEntity
  8
TITLE_BLOCK
  6
CONTINUOUS
 62
     7
100
AcDbVertex
100
AcDb2dVertex
 10
-15.110179
 20
-23.284965
 30
0.0
 70
    16
  0
VERTEX
  5
35148
330
1A17F
100
AcDbEntity
  8
TITLE_BLOCK
  6
CONTINUOUS
 62
     7
100
AcDbVertex
100
AcDb2dVertex
 10
-15.002953
 20
-23.285786
 30
0.0
 70
    16
  0
VERTEX
  5
35149
330
1A17F
100
AcDbEntity
  8
TITLE_BLOCK
  6
CONTINUOUS
 62
     7
100
AcDbVertex
100
AcDb2dVertex
 10
-15.003343
 20
-23.338168
 30
0.0
 70
    16
  0
VERTEX
  5
3514A
330
1A17F
100
AcDbEntity
  8
TITLE_BLOCK
  6
CONTINUOUS
 62
     7
100
AcDbVertex
100
AcDb2dVertex
 10
-15.003773
 20
-23.39059
 30
0.0
 70
    16
  0
VERTEX
  5
3514B
330
1A17F
100
AcDbEntity
  8
TITLE_BLOCK
  6
CONTINUOUS
 62
     7
100
AcDbVertex
100
AcDb2dVertex
 10
-15.003773
 20
-23.442973
 30
0.0
 70
    16
  0
VERTEX
  5
3514C
330
1A17F
100
AcDbEntity
  8
TITLE_BLOCK
  6
CONTINUOUS
 62
     7
100
AcDbVertex
100
AcDb2dVertex
 10
-15.177757
 20
-23.446176
 30
0.0
 70
    16
  0
VERTEX
  5
3514D
330
1A17F
100
AcDbEntity
  8
TITLE_BLOCK
  6
CONTINUOUS
 62
     7
100
AcDbVertex
100
AcDb2dVertex
 10
-15.351781
 20
-23.444184
 30
0.0
 70
    16
  0
VERTEX
  5
3514E
330
1A17F
100
AcDbEntity
  8
TITLE_BLOCK
  6
CONTINUOUS
 62
     7
100
AcDbVertex
100
AcDb2dVertex
 10
-15.525765
 20
-23.444575
 30
0.0
 70
    16
  0
VERTEX
  5
3514F
330
1A17F
100
AcDbEntity
  8
TITLE_BLOCK
  6
CONTINUOUS
 62
     7
100
AcDbVertex
100
AcDb2dVertex
 10
-15.518578
 20
-23.218168
 30
0.0
 70
    16
  0
VERTEX
  5
35150
330
1A17F
100
AcDbEntity
  8
TITLE_BLOCK
  6
CONTINUOUS
 62
     7
100
AcDbVertex
100
AcDb2dVertex
 10
-15.525765
 20
-22.991762
 30
0.0
 70
    16
  0
VERTEX
  5
35151
330
1A17F
100
AcDbEntity
  8
TITLE_BLOCK
  6
CONTINUOUS
 62
     7
100
AcDbVertex
100
AcDb2dVertex
 10
-15.523343
 20
-22.765356
 30
0.0
 70
    16
  0
VERTEX
  5
35152
330
1A17F
100
AcDbEntity
  8
TITLE_BLOCK
  6
CONTINUOUS
 62
     7
100
AcDbVertex
100
AcDb2dVertex
 10
-15.523343
 20
-22.765356
 30
0.0
 70
    16
  0
VERTEX
  5
35153
330
1A17F
100
AcDbEntity
  8
TITLE_BLOCK
  6
CONTINUOUS
 62
     7
100
AcDbVertex
100
AcDb2dVertex
 10
-15.523343
 20
-22.765356
 30
0.0
 70
    16
  0
VERTEX
  5
35154
330
1A17F
100
AcDbEntity
  8
TITLE_BLOCK
  6
CONTINUOUS
 62
     7
100
AcDbVertex
100
AcDb2dVertex
 10
-15.523343
 20
-22.765356
 30
0.0
 70
    16
  0
SEQEND
  5
35155
330
1A17F
100
AcDbEntity
  8
TITLE_BLOCK
  6
CONTINUOUS
 62
     7
  0
POLYLINE
  5
1A1A3
330
34C93
100
AcDbEntity
  8
TITLE_BLOCK
  6
CONTINUOUS
 62
     7
100
AcDb2dPolyline
 66
     1
 10
0.0
 20
0.0
 30
0.0
 70
     5
 75
     5
  0
VERTEX
  5
35156
330
1A1A3
100
AcDbEntity
  8
TITLE_BLOCK
  6
CONTINUOUS
 62
     7
100
AcDbVertex
100
AcDb2dVertex
 10
-14.885375
 20
-22.762582
 30
0.0
 70
     8
  0
VERTEX
  5
35157
330
1A1A3
100
AcDbEntity
  8
TITLE_BLOCK
  6
CONTINUOUS
 62
     7
100
AcDbVertex
100
AcDb2dVertex
 10
-14.744308
 20
-22.764799
 30
0.0
 70
     8
  0
VERTEX
  5
35158
330
1A1A3
100
AcDbEntity
  8
TITLE_BLOCK
  6
CONTINUOUS
 62
     7
100
AcDbVertex
100
AcDb2dVertex
 10
-14.603168
 20
-22.76499
 30
0.0
 70
     8
  0
VERTEX
  5
35159
330
1A1A3
100
AcDbEntity
  8
TITLE_BLOCK
  6
CONTINUOUS
 62
     7
100
AcDbVertex
100
AcDb2dVertex
 10
-14.320961
 20
-22.763793
 30
0.0
 70
     8
  0
VERTEX
  5
3515A
330
1A1A3
100
AcDbEntity
  8
TITLE_BLOCK
  6
CONTINUOUS
 62
     7
100
AcDbVertex
100
AcDb2dVertex
 10
-14.321781
 20
-22.925356
 30
0.0
 70
     8
  0
VERTEX
  5
3515B
330
1A1A3
100
AcDbEntity
  8
TITLE_BLOCK
  6
CONTINUOUS
 62
     7
100
AcDbVertex
100
AcDb2dVertex
 10
-14.501161
 20
-22.923422
 30
0.0
 70
     8
  0
VERTEX
  5
3515C
330
1A1A3
100
AcDbEntity
  8
TITLE_BLOCK
  6
CONTINUOUS
 62
     7
100
AcDbVertex
100
AcDb2dVertex
 10
-14.68057
 20
-22.924184
 30
0.0
 70
     8
  0
VERTEX
  5
3515D
330
1A1A3
100
AcDbEntity
  8
TITLE_BLOCK
  6
CONTINUOUS
 62
     7
100
AcDbVertex
100
AcDb2dVertex
 10
-14.682953
 20
-23.004575
 30
0.0
 70
     8
  0
VERTEX
  5
3515E
330
1A1A3
100
AcDbEntity
  8
TITLE_BLOCK
  6
CONTINUOUS
 62
     7
100
AcDbVertex
100
AcDb2dVertex
 10
-14.363773
 20
-23.002973
 30
0.0
 70
     8
  0
VERTEX
  5
3515F
330
1A1A3
100
AcDbEntity
  8
TITLE_BLOCK
  6
CONTINUOUS
 62
     7
100
AcDbVertex
100
AcDb2dVertex
 10
-14.363343
 20
-23.166176
 30
0.0
 70
     8
  0
VERTEX
  5
35160
330
1A1A3
100
AcDbEntity
  8
TITLE_BLOCK
  6
CONTINUOUS
 62
     7
100
AcDbVertex
100
AcDb2dVertex
 10
-14.682953
 20
-23.164965
 30
0.0
 70
     8
  0
VERTEX
  5
35161
330
1A1A3
100
AcDbEntity
  8
TITLE_BLOCK
  6
CONTINUOUS
 62
     7
100
AcDbVertex
100
AcDb2dVertex
 10
-14.682953
 20
-23.286567
 30
0.0
 70
     8
  0
VERTEX
  5
35162
330
1A1A3
100
AcDbEntity
  8
TITLE_BLOCK
  6
CONTINUOUS
 62
     7
100
AcDbVertex
100
AcDb2dVertex
 10
-14.502167
 20
-23.284072
 30
0.0
 70
     8
  0
VERTEX
  5
35163
330
1A1A3
100
AcDbEntity
  8
TITLE_BLOCK
  6
CONTINUOUS
 62
     7
100
AcDbVertex
100
AcDb2dVertex
 10
-14.321351
 20
-23.283364
 30
0.0
 70
     8
  0
VERTEX
  5
35164
330
1A1A3
100
AcDbEntity
  8
TITLE_BLOCK
  6
CONTINUOUS
 62
     7
100
AcDbVertex
100
AcDb2dVertex
 10
-14.326156
 20
-23.447387
 30
0.0
 70
     8
  0
VERTEX
  5
35165
330
1A1A3
100
AcDbEntity
  8
TITLE_BLOCK
  6
CONTINUOUS
 62
     7
100
AcDbVertex
100
AcDb2dVertex
 10
-14.46482
 20
-23.445079
 30
0.0
 70
     8
  0
VERTEX
  5
35166
330
1A1A3
100
AcDbEntity
  8
TITLE_BLOCK
  6
CONTINUOUS
 62
     7
100
AcDbVertex
100
AcDb2dVertex
 10
-14.603558
 20
-23.444536
 30
0.0
 70
     8
  0
VERTEX
  5
35167
330
1A1A3
100
AcDbEntity
  8
TITLE_BLOCK
  6
CONTINUOUS
 62
     7
100
AcDbVertex
100
AcDb2dVertex
 10
-14.880961
 20
-23.443793
 30
0.0
 70
     8
  0
VERTEX
  5
35168
330
1A1A3
100
AcDbEntity
  8
TITLE_BLOCK
  6
CONTINUOUS
 62
     7
100
AcDbVertex
100
AcDb2dVertex
 10
-14.882826
 20
-23.273441
 30
0.0
 70
     8
  0
VERTEX
  5
35169
330
1A1A3
100
AcDbEntity
  8
TITLE_BLOCK
  6
CONTINUOUS
 62
     7
100
AcDbVertex
100
AcDb2dVertex
 10
-14.883314
 20
-23.103173
 30
0.0
 70
     8
  0
VERTEX
  5
3516A
330
1A1A3
100
AcDbEntity
  8
TITLE_BLOCK
  6
CONTINUOUS
 62
     7
100
AcDbVertex
100
AcDb2dVertex
 10
-14.885375
 20
-22.762582
 30
0.0
 70
     8
  0
VERTEX
  5
3516B
330
1A1A3
100
AcDbEntity
  8
TITLE_BLOCK
  6
CONTINUOUS
 62
     7
100
AcDbVertex
100
AcDb2dVertex
 10
-14.885375
 20
-22.762582
 30
0.0
 70
     8
  0
VERTEX
  5
3516C
330
1A1A3
100
AcDbEntity
  8
TITLE_BLOCK
  6
CONTINUOUS
 62
     7
100
AcDbVertex
100
AcDb2dVertex
 10
-14.885375
 20
-22.762582
 30
0.0
 70
    16
  0
VERTEX
  5
3516D
330
1A1A3
100
AcDbEntity
  8
TITLE_BLOCK
  6
CONTINUOUS
 62
     7
100
AcDbVertex
100
AcDb2dVertex
 10
-14.697367
 20
-22.767387
 30
0.0
 70
    16
  0
VERTEX
  5
3516E
330
1A1A3
100
AcDbEntity
  8
TITLE_BLOCK
  6
CONTINUOUS
 62
     7
100
AcDbVertex
100
AcDb2dVertex
 10
-14.508968
 20
-22.763793
 30
0.0
 70
    16
  0
VERTEX
  5
3516F
330
1A1A3
100
AcDbEntity
  8
TITLE_BLOCK
  6
CONTINUOUS
 62
     7
100
AcDbVertex
100
AcDb2dVertex
 10
-14.320961
 20
-22.763793
 30
0.0
 70
    16
  0
VERTEX
  5
35170
330
1A1A3
100
AcDbEntity
  8
TITLE_BLOCK
  6
CONTINUOUS
 62
     7
100
AcDbVertex
100
AcDb2dVertex
 10
-14.320961
 20
-22.817387
 30
0.0
 70
    16
  0
VERTEX
  5
35171
330
1A1A3
100
AcDbEntity
  8
TITLE_BLOCK
  6
CONTINUOUS
 62
     7
100
AcDbVertex
100
AcDb2dVertex
 10
-14.321351
 20
-22.871372
 30
0.0
 70
    16
  0
VERTEX
  5
35172
330
1A1A3
100
AcDbEntity
  8
TITLE_BLOCK
  6
CONTINUOUS
 62
     7
100
AcDbVertex
100
AcDb2dVertex
 10
-14.321781
 20
-22.925356
 30
0.0
 70
    16
  0
VERTEX
  5
35173
330
1A1A3
100
AcDbEntity
  8
TITLE_BLOCK
  6
CONTINUOUS
 62
     7
100
AcDbVertex
100
AcDb2dVertex
 10
-14.441351
 20
-22.922973
 30
0.0
 70
    16
  0
VERTEX
  5
35174
330
1A1A3
100
AcDbEntity
  8
TITLE_BLOCK
  6
CONTINUOUS
 62
     7
100
AcDbVertex
100
AcDb2dVertex
 10
-14.560961
 20
-22.922973
 30
0.0
 70
    16
  0
VERTEX
  5
35175
330
1A1A3
100
AcDbEntity
  8
TITLE_BLOCK
  6
CONTINUOUS
 62
     7
100
AcDbVertex
100
AcDb2dVertex
 10
-14.68057
 20
-22.924184
 30
0.0
 70
    16
  0
VERTEX
  5
35176
330
1A1A3
100
AcDbEntity
  8
TITLE_BLOCK
  6
CONTINUOUS
 62
     7
100
AcDbVertex
100
AcDb2dVertex
 10
-14.681351
 20
-22.944184
 30
0.0
 70
    16
  0
VERTEX
  5
35177
330
1A1A3
100
AcDbEntity
  8
TITLE_BLOCK
  6
CONTINUOUS
 62
     7
100
AcDbVertex
100
AcDb2dVertex
 10
-14.682562
 20
-22.984184
 30
0.0
 70
    16
  0
VERTEX
  5
35178
330
1A1A3
100
AcDbEntity
  8
TITLE_BLOCK
  6
CONTINUOUS
 62
     7
100
AcDbVertex
100
AcDb2dVertex
 10
-14.682953
 20
-23.004575
 30
0.0
 70
    16
  0
VERTEX
  5
35179
330
1A1A3
100
AcDbEntity
  8
TITLE_BLOCK
  6
CONTINUOUS
 62
     7
100
AcDbVertex
100
AcDb2dVertex
 10
-14.576976
 20
-23.003364
 30
0.0
 70
    16
  0
VERTEX
  5
3517A
330
1A1A3
100
AcDbEntity
  8
TITLE_BLOCK
  6
CONTINUOUS
 62
     7
100
AcDbVertex
100
AcDb2dVertex
 10
-14.47057
 20
-23.003364
 30
0.0
 70
    16
  0
VERTEX
  5
3517B
330
1A1A3
100
AcDbEntity
  8
TITLE_BLOCK
  6
CONTINUOUS
 62
     7
100
AcDbVertex
100
AcDb2dVertex
 10
-14.363773
 20
-23.002973
 30
0.0
 70
    16
  0
VERTEX
  5
3517C
330
1A1A3
100
AcDbEntity
  8
TITLE_BLOCK
  6
CONTINUOUS
 62
     7
100
AcDbVertex
100
AcDb2dVertex
 10
-14.363773
 20
-23.057387
 30
0.0
 70
    16
  0
VERTEX
  5
3517D
330
1A1A3
100
AcDbEntity
  8
TITLE_BLOCK
  6
CONTINUOUS
 62
     7
100
AcDbVertex
100
AcDb2dVertex
 10
-14.363773
 20
-23.111762
 30
0.0
 70
    16
  0
VERTEX
  5
3517E
330
1A1A3
100
AcDbEntity
  8
TITLE_BLOCK
  6
CONTINUOUS
 62
     7
100
AcDbVertex
100
AcDb2dVertex
 10
-14.363343
 20
-23.166176
 30
0.0
 70
    16
  0
VERTEX
  5
3517F
330
1A1A3
100
AcDbEntity
  8
TITLE_BLOCK
  6
CONTINUOUS
 62
     7
100
AcDbVertex
100
AcDb2dVertex
 10
-14.46975
 20
-23.164965
 30
0.0
 70
    16
  0
VERTEX
  5
35180
330
1A1A3
100
AcDbEntity
  8
TITLE_BLOCK
  6
CONTINUOUS
 62
     7
100
AcDbVertex
100
AcDb2dVertex
 10
-14.576547
 20
-23.165356
 30
0.0
 70
    16
  0
VERTEX
  5
35181
330
1A1A3
100
AcDbEntity
  8
TITLE_BLOCK
  6
CONTINUOUS
 62
     7
100
AcDbVertex
100
AcDb2dVertex
 10
-14.682953
 20
-23.164965
 30
0.0
 70
    16
  0
VERTEX
  5
35182
330
1A1A3
100
AcDbEntity
  8
TITLE_BLOCK
  6
CONTINUOUS
 62
     7
100
AcDbVertex
100
AcDb2dVertex
 10
-14.682953
 20
-23.195356
 30
0.0
 70
    16
  0
VERTEX
  5
35183
330
1A1A3
100
AcDbEntity
  8
TITLE_BLOCK
  6
CONTINUOUS
 62
     7
100
AcDbVertex
100
AcDb2dVertex
 10
-14.682953
 20
-23.256176
 30
0.0
 70
    16
  0
VERTEX
  5
35184
330
1A1A3
100
AcDbEntity
  8
TITLE_BLOCK
  6
CONTINUOUS
 62
     7
100
AcDbVertex
100
AcDb2dVertex
 10
-14.682953
 20
-23.286567
 30
0.0
 70
    16
  0
VERTEX
  5
35185
330
1A1A3
100
AcDbEntity
  8
TITLE_BLOCK
  6
CONTINUOUS
 62
     7
100
AcDbVertex
100
AcDb2dVertex
 10
-14.562562
 20
-23.284575
 30
0.0
 70
    16
  0
VERTEX
  5
35186
330
1A1A3
100
AcDbEntity
  8
TITLE_BLOCK
  6
CONTINUOUS
 62
     7
100
AcDbVertex
100
AcDb2dVertex
 10
-14.441781
 20
-23.282973
 30
0.0
 70
    16
  0
VERTEX
  5
35187
330
1A1A3
100
AcDbEntity
  8
TITLE_BLOCK
  6
CONTINUOUS
 62
     7
100
AcDbVertex
100
AcDb2dVertex
 10
-14.321351
 20
-23.283364
 30
0.0
 70
    16
  0
VERTEX
  5
35188
330
1A1A3
100
AcDbEntity
  8
TITLE_BLOCK
  6
CONTINUOUS
 62
     7
100
AcDbVertex
100
AcDb2dVertex
 10
-14.322953
 20
-23.338168
 30
0.0
 70
    16
  0
VERTEX
  5
35189
330
1A1A3
100
AcDbEntity
  8
TITLE_BLOCK
  6
CONTINUOUS
 62
     7
100
AcDbVertex
100
AcDb2dVertex
 10
-14.324554
 20
-23.392582
 30
0.0
 70
    16
  0
VERTEX
  5
3518A
330
1A1A3
100
AcDbEntity
  8
TITLE_BLOCK
  6
CONTINUOUS
 62
     7
100
AcDbVertex
100
AcDb2dVertex
 10
-14.326156
 20
-23.447387
 30
0.0
 70
    16
  0
VERTEX
  5
3518B
330
1A1A3
100
AcDbEntity
  8
TITLE_BLOCK
  6
CONTINUOUS
 62
     7
100
AcDbVertex
100
AcDb2dVertex
 10
-14.510961
 20
-23.442582
 30
0.0
 70
    16
  0
VERTEX
  5
3518C
330
1A1A3
100
AcDbEntity
  8
TITLE_BLOCK
  6
CONTINUOUS
 62
     7
100
AcDbVertex
100
AcDb2dVertex
 10
-14.696156
 20
-23.445786
 30
0.0
 70
    16
  0
VERTEX
  5
3518D
330
1A1A3
100
AcDbEntity
  8
TITLE_BLOCK
  6
CONTINUOUS
 62
     7
100
AcDbVertex
100
AcDb2dVertex
 10
-14.880961
 20
-23.443793
 30
0.0
 70
    16
  0
VERTEX
  5
3518E
330
1A1A3
100
AcDbEntity
  8
TITLE_BLOCK
  6
CONTINUOUS
 62
     7
100
AcDbVertex
100
AcDb2dVertex
 10
-14.884945
 20
-23.216567
 30
0.0
 70
    16
  0
VERTEX
  5
3518F
330
1A1A3
100
AcDbEntity
  8
TITLE_BLOCK
  6
CONTINUOUS
 62
     7
100
AcDbVertex
100
AcDb2dVertex
 10
-14.881781
 20
-22.98977
 30
0.0
 70
    16
  0
VERTEX
  5
35190
330
1A1A3
100
AcDbEntity
  8
TITLE_BLOCK
  6
CONTINUOUS
 62
     7
100
AcDbVertex
100
AcDb2dVertex
 10
-14.885375
 20
-22.762582
 30
0.0
 70
    16
  0
VERTEX
  5
35191
330
1A1A3
100
AcDbEntity
  8
TITLE_BLOCK
  6
CONTINUOUS
 62
     7
100
AcDbVertex
100
AcDb2dVertex
 10
-14.885375
 20
-22.762582
 30
0.0
 70
    16
  0
VERTEX
  5
35192
330
1A1A3
100
AcDbEntity
  8
TITLE_BLOCK
  6
CONTINUOUS
 62
     7
100
AcDbVertex
100
AcDb2dVertex
 10
-14.885375
 20
-22.762582
 30
0.0
 70
    16
  0
VERTEX
  5
35193
330
1A1A3
100
AcDbEntity
  8
TITLE_BLOCK
  6
CONTINUOUS
 62
     7
100
AcDbVertex
100
AcDb2dVertex
 10
-14.885375
 20
-22.762582
 30
0.0
 70
    16
  0
SEQEND
  5
35194
330
1A1A3
100
AcDbEntity
  8
TITLE_BLOCK
  6
CONTINUOUS
 62
     7
  0
POLYLINE
  5
1A1E2
330
34C93
100
AcDbEntity
  8
TITLE_BLOCK
  6
CONTINUOUS
 62
     7
100
AcDb2dPolyline
 66
     1
 10
0.0
 20
0.0
 30
0.0
 70
     5
 75
     5
  0
VERTEX
  5
35195
330
1A1E2
100
AcDbEntity
  8
TITLE_BLOCK
  6
CONTINUOUS
 62
     7
100
AcDbVertex
100
AcDb2dVertex
 10
-14.14975
 20
-22.795786
 30
0.0
 70
     8
  0
VERTEX
  5
35196
330
1A1E2
100
AcDbEntity
  8
TITLE_BLOCK
  6
CONTINUOUS
 62
     7
100
AcDbVertex
100
AcDb2dVertex
 10
-14.027718
 20
-22.774726
 30
0.0
 70
     8
  0
VERTEX
  5
35197
330
1A1E2
100
AcDbEntity
  8
TITLE_BLOCK
  6
CONTINUOUS
 62
     7
100
AcDbVertex
100
AcDb2dVertex
 10
-13.966223
 20
-22.76726
 30
0.0
 70
     8
  0
VERTEX
  5
35198
330
1A1E2
100
AcDbEntity
  8
TITLE_BLOCK
  6
CONTINUOUS
 62
     7
100
AcDbVertex
100
AcDb2dVertex
 10
-13.904164
 20
-22.764184
 30
0.0
 70
     8
  0
VERTEX
  5
35199
330
1A1E2
100
AcDbEntity
  8
TITLE_BLOCK
  6
CONTINUOUS
 62
     7
100
AcDbVertex
100
AcDb2dVertex
 10
-13.835809
 20
-22.785532
 30
0.0
 70
     8
  0
VERTEX
  5
3519A
330
1A1E2
100
AcDbEntity
  8
TITLE_BLOCK
  6
CONTINUOUS
 62
     7
100
AcDbVertex
100
AcDb2dVertex
 10
-13.766547
 20
-22.804184
 30
0.0
 70
     8
  0
VERTEX
  5
3519B
330
1A1E2
100
AcDbEntity
  8
TITLE_BLOCK
  6
CONTINUOUS
 62
     7
100
AcDbVertex
100
AcDb2dVertex
 10
-13.742502
 20
-22.84368
 30
0.0
 70
     8
  0
VERTEX
  5
3519C
330
1A1E2
100
AcDbEntity
  8
TITLE_BLOCK
  6
CONTINUOUS
 62
     7
100
AcDbVertex
100
AcDb2dVertex
 10
-13.719999
 20
-22.884077
 30
0.0
 70
     8
  0
VERTEX
  5
3519D
330
1A1E2
100
AcDbEntity
  8
TITLE_BLOCK
  6
CONTINUOUS
 62
     7
100
AcDbVertex
100
AcDb2dVertex
 10
-13.678578
 20
-22.966957
 30
0.0
 70
     8
  0
VERTEX
  5
3519E
330
1A1E2
100
AcDbEntity
  8
TITLE_BLOCK
  6
CONTINUOUS
 62
     7
100
AcDbVertex
100
AcDb2dVertex
 10
-13.702946
 20
-22.972852
 30
0.0
 70
     8
  0
VERTEX
  5
3519F
330
1A1E2
100
AcDbEntity
  8
TITLE_BLOCK
  6
CONTINUOUS
 62
     7
100
AcDbVertex
100
AcDb2dVertex
 10
-13.728347
 20
-22.974547
 30
0.0
 70
     8
  0
VERTEX
  5
351A0
330
1A1E2
100
AcDbEntity
  8
TITLE_BLOCK
  6
CONTINUOUS
 62
     7
100
AcDbVertex
100
AcDb2dVertex
 10
-13.754548
 20
-22.972821
 30
0.0
 70
     8
  0
VERTEX
  5
351A1
330
1A1E2
100
AcDbEntity
  8
TITLE_BLOCK
  6
CONTINUOUS
 62
     7
100
AcDbVertex
100
AcDb2dVertex
 10
-13.781317
 20
-22.968452
 30
0.0
 70
     8
  0
VERTEX
  5
351A2
330
1A1E2
100
AcDbEntity
  8
TITLE_BLOCK
  6
CONTINUOUS
 62
     7
100
AcDbVertex
100
AcDb2dVertex
 10
-13.835627
 20
-22.954902
 30
0.0
 70
     8
  0
VERTEX
  5
351A3
330
1A1E2
100
AcDbEntity
  8
TITLE_BLOCK
  6
CONTINUOUS
 62
     7
100
AcDbVertex
100
AcDb2dVertex
 10
-13.889418
 20
-22.940126
 30
0.0
 70
     8
  0
VERTEX
  5
351A4
330
1A1E2
100
AcDbEntity
  8
TITLE_BLOCK
  6
CONTINUOUS
 62
     7
100
AcDbVertex
100
AcDb2dVertex
 10
-13.915536
 20
-22.934226
 30
0.0
 70
     8
  0
VERTEX
  5
351A5
330
1A1E2
100
AcDbEntity
  8
TITLE_BLOCK
  6
CONTINUOUS
 62
     7
100
AcDbVertex
100
AcDb2dVertex
 10
-13.940828
 20
-22.930355
 30
0.0
 70
     8
  0
VERTEX
  5
351A6
330
1A1E2
100
AcDbEntity
  8
TITLE_BLOCK
  6
CONTINUOUS
 62
     7
100
AcDbVertex
100
AcDb2dVertex
 10
-13.965058
 20
-22.929293
 30
0.0
 70
     8
  0
VERTEX
  5
351A7
330
1A1E2
100
AcDbEntity
  8
TITLE_BLOCK
  6
CONTINUOUS
 62
     7
100
AcDbVertex
100
AcDb2dVertex
 10
-13.987997
 20
-22.931818
 30
0.0
 70
     8
  0
VERTEX
  5
351A8
330
1A1E2
100
AcDbEntity
  8
TITLE_BLOCK
  6
CONTINUOUS
 62
     7
100
AcDbVertex
100
AcDb2dVertex
 10
-14.00941
 20
-22.938709
 30
0.0
 70
     8
  0
VERTEX
  5
351A9
330
1A1E2
100
AcDbEntity
  8
TITLE_BLOCK
  6
CONTINUOUS
 62
     7
100
AcDbVertex
100
AcDb2dVertex
 10
-14.029065
 20
-22.950744
 30
0.0
 70
     8
  0
VERTEX
  5
351AA
330
1A1E2
100
AcDbEntity
  8
TITLE_BLOCK
  6
CONTINUOUS
 62
     7
100
AcDbVertex
100
AcDb2dVertex
 10
-14.04673
 20
-22.968703
 30
0.0
 70
     8
  0
VERTEX
  5
351AB
330
1A1E2
100
AcDbEntity
  8
TITLE_BLOCK
  6
CONTINUOUS
 62
     7
100
AcDbVertex
100
AcDb2dVertex
 10
-14.062172
 20
-22.993364
 30
0.0
 70
     8
  0
VERTEX
  5
351AC
330
1A1E2
100
AcDbEntity
  8
TITLE_BLOCK
  6
CONTINUOUS
 62
     7
100
AcDbVertex
100
AcDb2dVertex
 10
-14.001023
 20
-23.008531
 30
0.0
 70
     8
  0
VERTEX
  5
351AD
330
1A1E2
100
AcDbEntity
  8
TITLE_BLOCK
  6
CONTINUOUS
 62
     7
100
AcDbVertex
100
AcDb2dVertex
 10
-13.936883
 20
-23.022003
 30
0.0
 70
     8
  0
VERTEX
  5
351AE
330
1A1E2
100
AcDbEntity
  8
TITLE_BLOCK
  6
CONTINUOUS
 62
     7
100
AcDbVertex
100
AcDb2dVertex
 10
-13.872311
 20
-23.036583
 30
0.0
 70
     8
  0
VERTEX
  5
351AF
330
1A1E2
100
AcDbEntity
  8
TITLE_BLOCK
  6
CONTINUOUS
 62
     7
100
AcDbVertex
100
AcDb2dVertex
 10
-13.840663
 20
-23.045164
 30
0.0
 70
     8
  0
VERTEX
  5
351B0
330
1A1E2
100
AcDbEntity
  8
TITLE_BLOCK
  6
CONTINUOUS
 62
     7
100
AcDbVertex
100
AcDb2dVertex
 10
-13.809867
 20
-23.055073
 30
0.0
 70
     8
  0
VERTEX
  5
351B1
330
1A1E2
100
AcDbEntity
  8
TITLE_BLOCK
  6
CONTINUOUS
 62
     7
100
AcDbVertex
100
AcDb2dVertex
 10
-13.780242
 20
-23.06666
 30
0.0
 70
     8
  0
VERTEX
  5
351B2
330
1A1E2
100
AcDbEntity
  8
TITLE_BLOCK
  6
CONTINUOUS
 62
     7
100
AcDbVertex
100
AcDb2dVertex
 10
-13.75211
 20
-23.080276
 30
0.0
 70
     8
  0
VERTEX
  5
351B3
330
1A1E2
100
AcDbEntity
  8
TITLE_BLOCK
  6
CONTINUOUS
 62
     7
100
AcDbVertex
100
AcDb2dVertex
 10
-13.725789
 20
-23.09627
 30
0.0
 70
     8
  0
VERTEX
  5
351B4
330
1A1E2
100
AcDbEntity
  8
TITLE_BLOCK
  6
CONTINUOUS
 62
     7
100
AcDbVertex
100
AcDb2dVertex
 10
-13.7016
 20
-23.114993
 30
0.0
 70
     8
  0
VERTEX
  5
351B5
330
1A1E2
100
AcDbEntity
  8
TITLE_BLOCK
  6
CONTINUOUS
 62
     7
100
AcDbVertex
100
AcDb2dVertex
 10
-13.679863
 20
-23.136796
 30
0.0
 70
     8
  0
VERTEX
  5
351B6
330
1A1E2
100
AcDbEntity
  8
TITLE_BLOCK
  6
CONTINUOUS
 62
     7
100
AcDbVertex
100
AcDb2dVertex
 10
-13.660898
 20
-23.162029
 30
0.0
 70
     8
  0
VERTEX
  5
351B7
330
1A1E2
100
AcDbEntity
  8
TITLE_BLOCK
  6
CONTINUOUS
 62
     7
100
AcDbVertex
100
AcDb2dVertex
 10
-13.645024
 20
-23.191041
 30
0.0
 70
     8
  0
VERTEX
  5
351B8
330
1A1E2
100
AcDbEntity
  8
TITLE_BLOCK
  6
CONTINUOUS
 62
     7
100
AcDbVertex
100
AcDb2dVertex
 10
-13.632562
 20
-23.224184
 30
0.0
 70
     8
  0
VERTEX
  5
351B9
330
1A1E2
100
AcDbEntity
  8
TITLE_BLOCK
  6
CONTINUOUS
 62
     7
100
AcDbVertex
100
AcDb2dVertex
 10
-13.640646
 20
-23.250781
 30
0.0
 70
     8
  0
VERTEX
  5
351BA
330
1A1E2
100
AcDbEntity
  8
TITLE_BLOCK
  6
CONTINUOUS
 62
     7
100
AcDbVertex
100
AcDb2dVertex
 10
-13.651069
 20
-23.275676
 30
0.0
 70
     8
  0
VERTEX
  5
351BB
330
1A1E2
100
AcDbEntity
  8
TITLE_BLOCK
  6
CONTINUOUS
 62
     7
100
AcDbVertex
100
AcDb2dVertex
 10
-13.663675
 20
-23.298869
 30
0.0
 70
     8
  0
VERTEX
  5
351BC
330
1A1E2
100
AcDbEntity
  8
TITLE_BLOCK
  6
CONTINUOUS
 62
     7
100
AcDbVertex
100
AcDb2dVertex
 10
-13.678311
 20
-23.320361
 30
0.0
 70
     8
  0
VERTEX
  5
351BD
330
1A1E2
100
AcDbEntity
  8
TITLE_BLOCK
  6
CONTINUOUS
 62
     7
100
AcDbVertex
100
AcDb2dVertex
 10
-13.694821
 20
-23.340149
 30
0.0
 70
     8
  0
VERTEX
  5
351BE
330
1A1E2
100
AcDbEntity
  8
TITLE_BLOCK
  6
CONTINUOUS
 62
     7
100
AcDbVertex
100
AcDb2dVertex
 10
-13.713051
 20
-23.358235
 30
0.0
 70
     8
  0
VERTEX
  5
351BF
330
1A1E2
100
AcDbEntity
  8
TITLE_BLOCK
  6
CONTINUOUS
 62
     7
100
AcDbVertex
100
AcDb2dVertex
 10
-13.732845
 20
-23.374618
 30
0.0
 70
     8
  0
VERTEX
  5
351C0
330
1A1E2
100
AcDbEntity
  8
TITLE_BLOCK
  6
CONTINUOUS
 62
     7
100
AcDbVertex
100
AcDb2dVertex
 10
-13.75405
 20
-23.389297
 30
0.0
 70
     8
  0
VERTEX
  5
351C1
330
1A1E2
100
AcDbEntity
  8
TITLE_BLOCK
  6
CONTINUOUS
 62
     7
100
AcDbVertex
100
AcDb2dVertex
 10
-13.776509
 20
-23.402272
 30
0.0
 70
     8
  0
VERTEX
  5
351C2
330
1A1E2
100
AcDbEntity
  8
TITLE_BLOCK
  6
CONTINUOUS
 62
     7
100
AcDbVertex
100
AcDb2dVertex
 10
-13.800068
 20
-23.413544
 30
0.0
 70
     8
  0
VERTEX
  5
351C3
330
1A1E2
100
AcDbEntity
  8
TITLE_BLOCK
  6
CONTINUOUS
 62
     7
100
AcDbVertex
100
AcDb2dVertex
 10
-13.824573
 20
-23.423111
 30
0.0
 70
     8
  0
VERTEX
  5
351C4
330
1A1E2
100
AcDbEntity
  8
TITLE_BLOCK
  6
CONTINUOUS
 62
     7
100
AcDbVertex
100
AcDb2dVertex
 10
-13.849868
 20
-23.430974
 30
0.0
 70
     8
  0
VERTEX
  5
351C5
330
1A1E2
100
AcDbEntity
  8
TITLE_BLOCK
  6
CONTINUOUS
 62
     7
100
AcDbVertex
100
AcDb2dVertex
 10
-13.875799
 20
-23.437131
 30
0.0
 70
     8
  0
VERTEX
  5
351C6
330
1A1E2
100
AcDbEntity
  8
TITLE_BLOCK
  6
CONTINUOUS
 62
     7
100
AcDbVertex
100
AcDb2dVertex
 10
-13.902211
 20
-23.441583
 30
0.0
 70
     8
  0
VERTEX
  5
351C7
330
1A1E2
100
AcDbEntity
  8
TITLE_BLOCK
  6
CONTINUOUS
 62
     7
100
AcDbVertex
100
AcDb2dVertex
 10
-13.928949
 20
-23.44433
 30
0.0
 70
     8
  0
VERTEX
  5
351C8
330
1A1E2
100
AcDbEntity
  8
TITLE_BLOCK
  6
CONTINUOUS
 62
     7
100
AcDbVertex
100
AcDb2dVertex
 10
-13.955858
 20
-23.445371
 30
0.0
 70
     8
  0
VERTEX
  5
351C9
330
1A1E2
100
AcDbEntity
  8
TITLE_BLOCK
  6
CONTINUOUS
 62
     7
100
AcDbVertex
100
AcDb2dVertex
 10
-13.982783
 20
-23.444705
 30
0.0
 70
     8
  0
VERTEX
  5
351CA
330
1A1E2
100
AcDbEntity
  8
TITLE_BLOCK
  6
CONTINUOUS
 62
     7
100
AcDbVertex
100
AcDb2dVertex
 10
-14.00957
 20
-23.442333
 30
0.0
 70
     8
  0
VERTEX
  5
351CB
330
1A1E2
100
AcDbEntity
  8
TITLE_BLOCK
  6
CONTINUOUS
 62
     7
100
AcDbVertex
100
AcDb2dVertex
 10
-14.036064
 20
-23.438254
 30
0.0
 70
     8
  0
VERTEX
  5
351CC
330
1A1E2
100
AcDbEntity
  8
TITLE_BLOCK
  6
CONTINUOUS
 62
     7
100
AcDbVertex
100
AcDb2dVertex
 10
-14.06211
 20
-23.432468
 30
0.0
 70
     8
  0
VERTEX
  5
351CD
330
1A1E2
100
AcDbEntity
  8
TITLE_BLOCK
  6
CONTINUOUS
 62
     7
100
AcDbVertex
100
AcDb2dVertex
 10
-14.087552
 20
-23.424975
 30
0.0
 70
     8
  0
VERTEX
  5
351CE
330
1A1E2
100
AcDbEntity
  8
TITLE_BLOCK
  6
CONTINUOUS
 62
     7
100
AcDbVertex
100
AcDb2dVertex
 10
-14.112237
 20
-23.415774
 30
0.0
 70
     8
  0
VERTEX
  5
351CF
330
1A1E2
100
AcDbEntity
  8
TITLE_BLOCK
  6
CONTINUOUS
 62
     7
100
AcDbVertex
100
AcDb2dVertex
 10
-14.136009
 20
-23.404865
 30
0.0
 70
     8
  0
VERTEX
  5
351D0
330
1A1E2
100
AcDbEntity
  8
TITLE_BLOCK
  6
CONTINUOUS
 62
     7
100
AcDbVertex
100
AcDb2dVertex
 10
-14.158714
 20
-23.392247
 30
0.0
 70
     8
  0
VERTEX
  5
351D1
330
1A1E2
100
AcDbEntity
  8
TITLE_BLOCK
  6
CONTINUOUS
 62
     7
100
AcDbVertex
100
AcDb2dVertex
 10
-14.180196
 20
-23.377921
 30
0.0
 70
     8
  0
VERTEX
  5
351D2
330
1A1E2
100
AcDbEntity
  8
TITLE_BLOCK
  6
CONTINUOUS
 62
     7
100
AcDbVertex
100
AcDb2dVertex
 10
-14.200302
 20
-23.361886
 30
0.0
 70
     8
  0
VERTEX
  5
351D3
330
1A1E2
100
AcDbEntity
  8
TITLE_BLOCK
  6
CONTINUOUS
 62
     7
100
AcDbVertex
100
AcDb2dVertex
 10
-14.218875
 20
-23.344142
 30
0.0
 70
     8
  0
VERTEX
  5
351D4
330
1A1E2
100
AcDbEntity
  8
TITLE_BLOCK
  6
CONTINUOUS
 62
     7
100
AcDbVertex
100
AcDb2dVertex
 10
-14.235762
 20
-23.324688
 30
0.0
 70
     8
  0
VERTEX
  5
351D5
330
1A1E2
100
AcDbEntity
  8
TITLE_BLOCK
  6
CONTINUOUS
 62
     7
100
AcDbVertex
100
AcDb2dVertex
 10
-14.250806
 20
-23.303524
 30
0.0
 70
     8
  0
VERTEX
  5
351D6
330
1A1E2
100
AcDbEntity
  8
TITLE_BLOCK
  6
CONTINUOUS
 62
     7
100
AcDbVertex
100
AcDb2dVertex
 10
-14.263855
 20
-23.28065
 30
0.0
 70
     8
  0
VERTEX
  5
351D7
330
1A1E2
100
AcDbEntity
  8
TITLE_BLOCK
  6
CONTINUOUS
 62
     7
100
AcDbVertex
100
AcDb2dVertex
 10
-14.274752
 20
-23.256065
 30
0.0
 70
     8
  0
VERTEX
  5
351D8
330
1A1E2
100
AcDbEntity
  8
TITLE_BLOCK
  6
CONTINUOUS
 62
     7
100
AcDbVertex
100
AcDb2dVertex
 10
-14.283343
 20
-23.22977
 30
0.0
 70
     8
  0
VERTEX
  5
351D9
330
1A1E2
100
AcDbEntity
  8
TITLE_BLOCK
  6
CONTINUOUS
 62
     7
100
AcDbVertex
100
AcDb2dVertex
 10
-14.101781
 20
-23.203364
 30
0.0
 70
     8
  0
VERTEX
  5
351DA
330
1A1E2
100
AcDbEntity
  8
TITLE_BLOCK
  6
CONTINUOUS
 62
     7
100
AcDbVertex
100
AcDb2dVertex
 10
-14.091507
 20
-23.222692
 30
0.0
 70
     8
  0
VERTEX
  5
351DB
330
1A1E2
100
AcDbEntity
  8
TITLE_BLOCK
  6
CONTINUOUS
 62
     7
100
AcDbVertex
100
AcDb2dVertex
 10
-14.07941
 20
-23.238843
 30
0.0
 70
     8
  0
VERTEX
  5
351DC
330
1A1E2
100
AcDbEntity
  8
TITLE_BLOCK
  6
CONTINUOUS
 62
     7
100
AcDbVertex
100
AcDb2dVertex
 10
-14.065674
 20
-23.25206
 30
0.0
 70
     8
  0
VERTEX
  5
351DD
330
1A1E2
100
AcDbEntity
  8
TITLE_BLOCK
  6
CONTINUOUS
 62
     7
100
AcDbVertex
100
AcDb2dVertex
 10
-14.050482
 20
-23.262587
 30
0.0
 70
     8
  0
VERTEX
  5
351DE
330
1A1E2
100
AcDbEntity
  8
TITLE_BLOCK
  6
CONTINUOUS
 62
     7
100
AcDbVertex
100
AcDb2dVertex
 10
-14.034018
 20
-23.270667
 30
0.0
 70
     8
  0
VERTEX
  5
351DF
330
1A1E2
100
AcDbEntity
  8
TITLE_BLOCK
  6
CONTINUOUS
 62
     7
100
AcDbVertex
100
AcDb2dVertex
 10
-14.016464
 20
-23.276544
 30
0.0
 70
     8
  0
VERTEX
  5
351E0
330
1A1E2
100
AcDbEntity
  8
TITLE_BLOCK
  6
CONTINUOUS
 62
     7
100
AcDbVertex
100
AcDb2dVertex
 10
-13.998004
 20
-23.280463
 30
0.0
 70
     8
  0
VERTEX
  5
351E1
330
1A1E2
100
AcDbEntity
  8
TITLE_BLOCK
  6
CONTINUOUS
 62
     7
100
AcDbVertex
100
AcDb2dVertex
 10
-13.978822
 20
-23.282665
 30
0.0
 70
     8
  0
VERTEX
  5
351E2
330
1A1E2
100
AcDbEntity
  8
TITLE_BLOCK
  6
CONTINUOUS
 62
     7
100
AcDbVertex
100
AcDb2dVertex
 10
-13.939023
 20
-23.2829
 30
0.0
 70
     8
  0
VERTEX
  5
351E3
330
1A1E2
100
AcDbEntity
  8
TITLE_BLOCK
  6
CONTINUOUS
 62
     7
100
AcDbVertex
100
AcDb2dVertex
 10
-13.898534
 20
-23.279197
 30
0.0
 70
     8
  0
VERTEX
  5
351E4
330
1A1E2
100
AcDbEntity
  8
TITLE_BLOCK
  6
CONTINUOUS
 62
     7
100
AcDbVertex
100
AcDb2dVertex
 10
-13.821351
 20
-23.267778
 30
0.0
 70
     8
  0
VERTEX
  5
351E5
330
1A1E2
100
AcDbEntity
  8
TITLE_BLOCK
  6
CONTINUOUS
 62
     7
100
AcDbVertex
100
AcDb2dVertex
 10
-13.828154
 20
-23.244058
 30
0.0
 70
     8
  0
VERTEX
  5
351E6
330
1A1E2
100
AcDbEntity
  8
TITLE_BLOCK
  6
CONTINUOUS
 62
     7
100
AcDbVertex
100
AcDb2dVertex
 10
-13.837867
 20
-23.223701
 30
0.0
 70
     8
  0
VERTEX
  5
351E7
330
1A1E2
100
AcDbEntity
  8
TITLE_BLOCK
  6
CONTINUOUS
 62
     7
100
AcDbVertex
100
AcDb2dVertex
 10
-13.850205
 20
-23.206405
 30
0.0
 70
     8
  0
VERTEX
  5
351E8
330
1A1E2
100
AcDbEntity
  8
TITLE_BLOCK
  6
CONTINUOUS
 62
     7
100
AcDbVertex
100
AcDb2dVertex
 10
-13.864883
 20
-23.191867
 30
0.0
 70
     8
  0
VERTEX
  5
351E9
330
1A1E2
100
AcDbEntity
  8
TITLE_BLOCK
  6
CONTINUOUS
 62
     7
100
AcDbVertex
100
AcDb2dVertex
 10
-13.881613
 20
-23.179783
 30
0.0
 70
     8
  0
VERTEX
  5
351EA
330
1A1E2
100
AcDbEntity
  8
TITLE_BLOCK
  6
CONTINUOUS
 62
     7
100
AcDbVertex
100
AcDb2dVertex
 10
-13.900111
 20
-23.169851
 30
0.0
 70
     8
  0
VERTEX
  5
351EB
330
1A1E2
100
AcDbEntity
  8
TITLE_BLOCK
  6
CONTINUOUS
 62
     7
100
AcDbVertex
100
AcDb2dVertex
 10
-13.92009
 20
-23.161767
 30
0.0
 70
     8
  0
VERTEX
  5
351EC
330
1A1E2
100
AcDbEntity
  8
TITLE_BLOCK
  6
CONTINUOUS
 62
     7
100
AcDbVertex
100
AcDb2dVertex
 10
-13.941263
 20
-23.155229
 30
0.0
 70
     8
  0
VERTEX
  5
351ED
330
1A1E2
100
AcDbEntity
  8
TITLE_BLOCK
  6
CONTINUOUS
 62
     7
100
AcDbVertex
100
AcDb2dVertex
 10
-13.986052
 20
-23.145576
 30
0.0
 70
     8
  0
VERTEX
  5
351EE
330
1A1E2
100
AcDbEntity
  8
TITLE_BLOCK
  6
CONTINUOUS
 62
     7
100
AcDbVertex
100
AcDb2dVertex
 10
-14.03219
 20
-23.138469
 30
0.0
 70
     8
  0
VERTEX
  5
351EF
330
1A1E2
100
AcDbEntity
  8
TITLE_BLOCK
  6
CONTINUOUS
 62
     7
100
AcDbVertex
100
AcDb2dVertex
 10
-14.077388
 20
-23.131482
 30
0.0
 70
     8
  0
VERTEX
  5
351F0
330
1A1E2
100
AcDbEntity
  8
TITLE_BLOCK
  6
CONTINUOUS
 62
     7
100
AcDbVertex
100
AcDb2dVertex
 10
-14.119359
 20
-23.122192
 30
0.0
 70
     8
  0
VERTEX
  5
351F1
330
1A1E2
100
AcDbEntity
  8
TITLE_BLOCK
  6
CONTINUOUS
 62
     7
100
AcDbVertex
100
AcDb2dVertex
 10
-14.158783
 20
-23.082545
 30
0.0
 70
     8
  0
VERTEX
  5
351F2
330
1A1E2
100
AcDbEntity
  8
TITLE_BLOCK
  6
CONTINUOUS
 62
     7
100
AcDbVertex
100
AcDb2dVertex
 10
-14.195013
 20
-23.040273
 30
0.0
 70
     8
  0
VERTEX
  5
351F3
330
1A1E2
100
AcDbEntity
  8
TITLE_BLOCK
  6
CONTINUOUS
 62
     7
100
AcDbVertex
100
AcDb2dVertex
 10
-14.227421
 20
-22.995151
 30
0.0
 70
     8
  0
VERTEX
  5
351F4
330
1A1E2
100
AcDbEntity
  8
TITLE_BLOCK
  6
CONTINUOUS
 62
     7
100
AcDbVertex
100
AcDb2dVertex
 10
-14.255375
 20
-22.946957
 30
0.0
 70
     8
  0
VERTEX
  5
351F5
330
1A1E2
100
AcDbEntity
  8
TITLE_BLOCK
  6
CONTINUOUS
 62
     7
100
AcDbVertex
100
AcDb2dVertex
 10
-14.203763
 20
-22.870478
 30
0.0
 70
     8
  0
VERTEX
  5
351F6
330
1A1E2
100
AcDbEntity
  8
TITLE_BLOCK
  6
CONTINUOUS
 62
     7
100
AcDbVertex
100
AcDb2dVertex
 10
-14.14975
 20
-22.795786
 30
0.0
 70
     8
  0
VERTEX
  5
351F7
330
1A1E2
100
AcDbEntity
  8
TITLE_BLOCK
  6
CONTINUOUS
 62
     7
100
AcDbVertex
100
AcDb2dVertex
 10
-14.14975
 20
-22.795786
 30
0.0
 70
     8
  0
VERTEX
  5
351F8
330
1A1E2
100
AcDbEntity
  8
TITLE_BLOCK
  6
CONTINUOUS
 62
     7
100
AcDbVertex
100
AcDb2dVertex
 10
-14.14975
 20
-22.795786
 30
0.0
 70
    16
  0
VERTEX
  5
351F9
330
1A1E2
100
AcDbEntity
  8
TITLE_BLOCK
  6
CONTINUOUS
 62
     7
100
AcDbVertex
100
AcDb2dVertex
 10
-14.068578
 20
-22.781372
 30
0.0
 70
    16
  0
VERTEX
  5
351FA
330
1A1E2
100
AcDbEntity
  8
TITLE_BLOCK
  6
CONTINUOUS
 62
     7
100
AcDbVertex
100
AcDb2dVertex
 10
-13.987367
 20
-22.764575
 30
0.0
 70
    16
  0
VERTEX
  5
351FB
330
1A1E2
100
AcDbEntity
  8
TITLE_BLOCK
  6
CONTINUOUS
 62
     7
100
AcDbVertex
100
AcDb2dVertex
 10
-13.904164
 20
-22.764184
 30
0.0
 70
    16
  0
VERTEX
  5
351FC
330
1A1E2
100
AcDbEntity
  8
TITLE_BLOCK
  6
CONTINUOUS
 62
     7
100
AcDbVertex
100
AcDb2dVertex
 10
-13.858968
 20
-22.779379
 30
0.0
 70
    16
  0
VERTEX
  5
351FD
330
1A1E2
100
AcDbEntity
  8
TITLE_BLOCK
  6
CONTINUOUS
 62
     7
100
AcDbVertex
100
AcDb2dVertex
 10
-13.812953
 20
-22.792582
 30
0.0
 70
    16
  0
VERTEX
  5
351FE
330
1A1E2
100
AcDbEntity
  8
TITLE_BLOCK
  6
CONTINUOUS
 62
     7
100
AcDbVertex
100
AcDb2dVertex
 10
-13.766547
 20
-22.804184
 30
0.0
 70
    16
  0
VERTEX
  5
351FF
330
1A1E2
100
AcDbEntity
  8
TITLE_BLOCK
  6
CONTINUOUS
 62
     7
100
AcDbVertex
100
AcDb2dVertex
 10
-13.733343
 20
-22.856176
 30
0.0
 70
    16
  0
VERTEX
  5
35200
330
1A1E2
100
AcDbEntity
  8
TITLE_BLOCK
  6
CONTINUOUS
 62
     7
100
AcDbVertex
100
AcDb2dVertex
 10
-13.704945
 20
-22.910981
 30
0.0
 70
    16
  0
VERTEX
  5
35201
330
1A1E2
100
AcDbEntity
  8
TITLE_BLOCK
  6
CONTINUOUS
 62
     7
100
AcDbVertex
100
AcDb2dVertex
 10
-13.678578
 20
-22.966957
 30
0.0
 70
    16
  0
VERTEX
  5
35202
330
1A1E2
100
AcDbEntity
  8
TITLE_BLOCK
  6
CONTINUOUS
 62
     7
100
AcDbVertex
100
AcDb2dVertex
 10
-13.805375
 20
-23.010981
 30
0.0
 70
    16
  0
VERTEX
  5
35203
330
1A1E2
100
AcDbEntity
  8
TITLE_BLOCK
  6
CONTINUOUS
 62
     7
100
AcDbVertex
100
AcDb2dVertex
 10
-13.986156
 20
-22.842582
 30
0.0
 70
    16
  0
VERTEX
  5
35204
330
1A1E2
100
AcDbEntity
  8
TITLE_BLOCK
  6
CONTINUOUS
 62
     7
100
AcDbVertex
100
AcDb2dVertex
 10
-14.062172
 20
-22.993364
 30
0.0
 70
    16
  0
VERTEX
  5
35205
330
1A1E2
100
AcDbEntity
  8
TITLE_BLOCK
  6
CONTINUOUS
 62
     7
100
AcDbVertex
100
AcDb2dVertex
 10
-13.905375
 20
-23.038559
 30
0.0
 70
    16
  0
VERTEX
  5
35206
330
1A1E2
100
AcDbEntity
  8
TITLE_BLOCK
  6
CONTINUOUS
 62
     7
100
AcDbVertex
100
AcDb2dVertex
 10
-13.689359
 20
-23.035786
 30
0.0
 70
    16
  0
VERTEX
  5
35207
330
1A1E2
100
AcDbEntity
  8
TITLE_BLOCK
  6
CONTINUOUS
 62
     7
100
AcDbVertex
100
AcDb2dVertex
 10
-13.632562
 20
-23.224184
 30
0.0
 70
    16
  0
VERTEX
  5
35208
330
1A1E2
100
AcDbEntity
  8
TITLE_BLOCK
  6
CONTINUOUS
 62
     7
100
AcDbVertex
100
AcDb2dVertex
 10
-13.705765
 20
-23.516957
 30
0.0
 70
    16
  0
VERTEX
  5
35209
330
1A1E2
100
AcDbEntity
  8
TITLE_BLOCK
  6
CONTINUOUS
 62
     7
100
AcDbVertex
100
AcDb2dVertex
 10
-14.204554
 20
-23.519379
 30
0.0
 70
    16
  0
VERTEX
  5
3520A
330
1A1E2
100
AcDbEntity
  8
TITLE_BLOCK
  6
CONTINUOUS
 62
     7
100
AcDbVertex
100
AcDb2dVertex
 10
-14.283343
 20
-23.22977
 30
0.0
 70
    16
  0
VERTEX
  5
3520B
330
1A1E2
100
AcDbEntity
  8
TITLE_BLOCK
  6
CONTINUOUS
 62
     7
100
AcDbVertex
100
AcDb2dVertex
 10
-14.222953
 20
-23.221372
 30
0.0
 70
    16
  0
VERTEX
  5
3520C
330
1A1E2
100
AcDbEntity
  8
TITLE_BLOCK
  6
CONTINUOUS
 62
     7
100
AcDbVertex
100
AcDb2dVertex
 10
-14.162562
 20
-23.211762
 30
0.0
 70
    16
  0
VERTEX
  5
3520D
330
1A1E2
100
AcDbEntity
  8
TITLE_BLOCK
  6
CONTINUOUS
 62
     7
100
AcDbVertex
100
AcDb2dVertex
 10
-14.101781
 20
-23.203364
 30
0.0
 70
    16
  0
VERTEX
  5
3520E
330
1A1E2
100
AcDbEntity
  8
TITLE_BLOCK
  6
CONTINUOUS
 62
     7
100
AcDbVertex
100
AcDb2dVertex
 10
-14.052172
 20
-23.315356
 30
0.0
 70
    16
  0
VERTEX
  5
3520F
330
1A1E2
100
AcDbEntity
  8
TITLE_BLOCK
  6
CONTINUOUS
 62
     7
100
AcDbVertex
100
AcDb2dVertex
 10
-13.916976
 20
-23.281372
 30
0.0
 70
    16
  0
VERTEX
  5
35210
330
1A1E2
100
AcDbEntity
  8
TITLE_BLOCK
  6
CONTINUOUS
 62
     7
100
AcDbVertex
100
AcDb2dVertex
 10
-13.821351
 20
-23.267778
 30
0.0
 70
    16
  0
VERTEX
  5
35211
330
1A1E2
100
AcDbEntity
  8
TITLE_BLOCK
  6
CONTINUOUS
 62
     7
100
AcDbVertex
100
AcDb2dVertex
 10
-13.849359
 20
-23.131762
 30
0.0
 70
    16
  0
VERTEX
  5
35212
330
1A1E2
100
AcDbEntity
  8
TITLE_BLOCK
  6
CONTINUOUS
 62
     7
100
AcDbVertex
100
AcDb2dVertex
 10
-14.013773
 20
-23.152192
 30
0.0
 70
    16
  0
VERTEX
  5
35213
330
1A1E2
100
AcDbEntity
  8
TITLE_BLOCK
  6
CONTINUOUS
 62
     7
100
AcDbVertex
100
AcDb2dVertex
 10
-14.119359
 20
-23.122192
 30
0.0
 70
    16
  0
VERTEX
  5
35214
330
1A1E2
100
AcDbEntity
  8
TITLE_BLOCK
  6
CONTINUOUS
 62
     7
100
AcDbVertex
100
AcDb2dVertex
 10
-14.173773
 20
-23.070981
 30
0.0
 70
    16
  0
VERTEX
  5
35215
330
1A1E2
100
AcDbEntity
  8
TITLE_BLOCK
  6
CONTINUOUS
 62
     7
100
AcDbVertex
100
AcDb2dVertex
 10
-14.221351
 20
-23.013364
 30
0.0
 70
    16
  0
VERTEX
  5
35216
330
1A1E2
100
AcDbEntity
  8
TITLE_BLOCK
  6
CONTINUOUS
 62
     7
100
AcDbVertex
100
AcDb2dVertex
 10
-14.255375
 20
-22.946957
 30
0.0
 70
    16
  0
VERTEX
  5
35217
330
1A1E2
100
AcDbEntity
  8
TITLE_BLOCK
  6
CONTINUOUS
 62
     7
100
AcDbVertex
100
AcDb2dVertex
 10
-14.221351
 20
-22.895786
 30
0.0
 70
    16
  0
VERTEX
  5
35218
330
1A1E2
100
AcDbEntity
  8
TITLE_BLOCK
  6
CONTINUOUS
 62
     7
100
AcDbVertex
100
AcDb2dVertex
 10
-14.186976
 20
-22.844575
 30
0.0
 70
    16
  0
VERTEX
  5
35219
330
1A1E2
100
AcDbEntity
  8
TITLE_BLOCK
  6
CONTINUOUS
 62
     7
100
AcDbVertex
100
AcDb2dVertex
 10
-14.14975
 20
-22.795786
 30
0.0
 70
    16
  0
VERTEX
  5
3521A
330
1A1E2
100
AcDbEntity
  8
TITLE_BLOCK
  6
CONTINUOUS
 62
     7
100
AcDbVertex
100
AcDb2dVertex
 10
-14.14975
 20
-22.795786
 30
0.0
 70
    16
  0
VERTEX
  5
3521B
330
1A1E2
100
AcDbEntity
  8
TITLE_BLOCK
  6
CONTINUOUS
 62
     7
100
AcDbVertex
100
AcDb2dVertex
 10
-14.14975
 20
-22.795786
 30
0.0
 70
    16
  0
VERTEX
  5
3521C
330
1A1E2
100
AcDbEntity
  8
TITLE_BLOCK
  6
CONTINUOUS
 62
     7
100
AcDbVertex
100
AcDb2dVertex
 10
-14.14975
 20
-22.795786
 30
0.0
 70
    16
  0
SEQEND
  5
3521D
330
1A1E2
100
AcDbEntity
  8
TITLE_BLOCK
  6
CONTINUOUS
 62
     7
  0
POLYLINE
  5
1A26B
330
34C93
100
AcDbEntity
  8
TITLE_BLOCK
  6
CONTINUOUS
 62
     7
100
AcDb2dPolyline
 66
     1
 10
0.0
 20
0.0
 30
0.0
 70
     5
 75
     5
  0
VERTEX
  5
3521E
330
1A26B
100
AcDbEntity
  8
TITLE_BLOCK
  6
CONTINUOUS
 62
     7
100
AcDbVertex
100
AcDb2dVertex
 10
-13.575765
 20
-22.992582
 30
0.0
 70
     8
  0
VERTEX
  5
3521F
330
1A26B
100
AcDbEntity
  8
TITLE_BLOCK
  6
CONTINUOUS
 62
     7
100
AcDbVertex
100
AcDb2dVertex
 10
-13.572373
 20
-22.965798
 30
0.0
 70
     8
  0
VERTEX
  5
35220
330
1A26B
100
AcDbEntity
  8
TITLE_BLOCK
  6
CONTINUOUS
 62
     7
100
AcDbVertex
100
AcDb2dVertex
 10
-13.566289
 20
-22.940649
 30
0.0
 70
     8
  0
VERTEX
  5
35221
330
1A26B
100
AcDbEntity
  8
TITLE_BLOCK
  6
CONTINUOUS
 62
     7
100
AcDbVertex
100
AcDb2dVertex
 10
-13.55769
 20
-22.917141
 30
0.0
 70
     8
  0
VERTEX
  5
35222
330
1A26B
100
AcDbEntity
  8
TITLE_BLOCK
  6
CONTINUOUS
 62
     7
100
AcDbVertex
100
AcDb2dVertex
 10
-13.54675
 20
-22.895277
 30
0.0
 70
     8
  0
VERTEX
  5
35223
330
1A26B
100
AcDbEntity
  8
TITLE_BLOCK
  6
CONTINUOUS
 62
     7
100
AcDbVertex
100
AcDb2dVertex
 10
-13.533645
 20
-22.875064
 30
0.0
 70
     8
  0
VERTEX
  5
35224
330
1A26B
100
AcDbEntity
  8
TITLE_BLOCK
  6
CONTINUOUS
 62
     7
100
AcDbVertex
100
AcDb2dVertex
 10
-13.518551
 20
-22.856504
 30
0.0
 70
     8
  0
VERTEX
  5
35225
330
1A26B
100
AcDbEntity
  8
TITLE_BLOCK
  6
CONTINUOUS
 62
     7
100
AcDbVertex
100
AcDb2dVertex
 10
-13.501641
 20
-22.839603
 30
0.0
 70
     8
  0
VERTEX
  5
35226
330
1A26B
100
AcDbEntity
  8
TITLE_BLOCK
  6
CONTINUOUS
 62
     7
100
AcDbVertex
100
AcDb2dVertex
 10
-13.483092
 20
-22.824365
 30
0.0
 70
     8
  0
VERTEX
  5
35227
330
1A26B
100
AcDbEntity
  8
TITLE_BLOCK
  6
CONTINUOUS
 62
     7
100
AcDbVertex
100
AcDb2dVertex
 10
-13.463079
 20
-22.810795
 30
0.0
 70
     8
  0
VERTEX
  5
35228
330
1A26B
100
AcDbEntity
  8
TITLE_BLOCK
  6
CONTINUOUS
 62
     7
100
AcDbVertex
100
AcDb2dVertex
 10
-13.441777
 20
-22.798897
 30
0.0
 70
     8
  0
VERTEX
  5
35229
330
1A26B
100
AcDbEntity
  8
TITLE_BLOCK
  6
CONTINUOUS
 62
     7
100
AcDbVertex
100
AcDb2dVertex
 10
-13.419361
 20
-22.788676
 30
0.0
 70
     8
  0
VERTEX
  5
3522A
330
1A26B
100
AcDbEntity
  8
TITLE_BLOCK
  6
CONTINUOUS
 62
     7
100
AcDbVertex
100
AcDb2dVertex
 10
-13.396007
 20
-22.780136
 30
0.0
 70
     8
  0
VERTEX
  5
3522B
330
1A26B
100
AcDbEntity
  8
TITLE_BLOCK
  6
CONTINUOUS
 62
     7
100
AcDbVertex
100
AcDb2dVertex
 10
-13.37189
 20
-22.773282
 30
0.0
 70
     8
  0
VERTEX
  5
3522C
330
1A26B
100
AcDbEntity
  8
TITLE_BLOCK
  6
CONTINUOUS
 62
     7
100
AcDbVertex
100
AcDb2dVertex
 10
-13.347185
 20
-22.768119
 30
0.0
 70
     8
  0
VERTEX
  5
3522D
330
1A26B
100
AcDbEntity
  8
TITLE_BLOCK
  6
CONTINUOUS
 62
     7
100
AcDbVertex
100
AcDb2dVertex
 10
-13.322067
 20
-22.76465
 30
0.0
 70
     8
  0
VERTEX
  5
3522E
330
1A26B
100
AcDbEntity
  8
TITLE_BLOCK
  6
CONTINUOUS
 62
     7
100
AcDbVertex
100
AcDb2dVertex
 10
-13.296713
 20
-22.76288
 30
0.0
 70
     8
  0
VERTEX
  5
3522F
330
1A26B
100
AcDbEntity
  8
TITLE_BLOCK
  6
CONTINUOUS
 62
     7
100
AcDbVertex
100
AcDb2dVertex
 10
-13.271296
 20
-22.762815
 30
0.0
 70
     8
  0
VERTEX
  5
35230
330
1A26B
100
AcDbEntity
  8
TITLE_BLOCK
  6
CONTINUOUS
 62
     7
100
AcDbVertex
100
AcDb2dVertex
 10
-13.245992
 20
-22.764458
 30
0.0
 70
     8
  0
VERTEX
  5
35231
330
1A26B
100
AcDbEntity
  8
TITLE_BLOCK
  6
CONTINUOUS
 62
     7
100
AcDbVertex
100
AcDb2dVertex
 10
-13.220977
 20
-22.767813
 30
0.0
 70
     8
  0
VERTEX
  5
35232
330
1A26B
100
AcDbEntity
  8
TITLE_BLOCK
  6
CONTINUOUS
 62
     7
100
AcDbVertex
100
AcDb2dVertex
 10
-13.196426
 20
-22.772887
 30
0.0
 70
     8
  0
VERTEX
  5
35233
330
1A26B
100
AcDbEntity
  8
TITLE_BLOCK
  6
CONTINUOUS
 62
     7
100
AcDbVertex
100
AcDb2dVertex
 10
-13.172513
 20
-22.779682
 30
0.0
 70
     8
  0
VERTEX
  5
35234
330
1A26B
100
AcDbEntity
  8
TITLE_BLOCK
  6
CONTINUOUS
 62
     7
100
AcDbVertex
100
AcDb2dVertex
 10
-13.149415
 20
-22.788204
 30
0.0
 70
     8
  0
VERTEX
  5
35235
330
1A26B
100
AcDbEntity
  8
TITLE_BLOCK
  6
CONTINUOUS
 62
     7
100
AcDbVertex
100
AcDb2dVertex
 10
-13.127307
 20
-22.798457
 30
0.0
 70
     8
  0
VERTEX
  5
35236
330
1A26B
100
AcDbEntity
  8
TITLE_BLOCK
  6
CONTINUOUS
 62
     7
100
AcDbVertex
100
AcDb2dVertex
 10
-13.106363
 20
-22.810446
 30
0.0
 70
     8
  0
VERTEX
  5
35237
330
1A26B
100
AcDbEntity
  8
TITLE_BLOCK
  6
CONTINUOUS
 62
     7
100
AcDbVertex
100
AcDb2dVertex
 10
-13.08676
 20
-22.824174
 30
0.0
 70
     8
  0
VERTEX
  5
35238
330
1A26B
100
AcDbEntity
  8
TITLE_BLOCK
  6
CONTINUOUS
 62
     7
100
AcDbVertex
100
AcDb2dVertex
 10
-13.068672
 20
-22.839648
 30
0.0
 70
     8
  0
VERTEX
  5
35239
330
1A26B
100
AcDbEntity
  8
TITLE_BLOCK
  6
CONTINUOUS
 62
     7
100
AcDbVertex
100
AcDb2dVertex
 10
-13.052274
 20
-22.85687
 30
0.0
 70
     8
  0
VERTEX
  5
3523A
330
1A26B
100
AcDbEntity
  8
TITLE_BLOCK
  6
CONTINUOUS
 62
     7
100
AcDbVertex
100
AcDb2dVertex
 10
-13.037743
 20
-22.875847
 30
0.0
 70
     8
  0
VERTEX
  5
3523B
330
1A26B
100
AcDbEntity
  8
TITLE_BLOCK
  6
CONTINUOUS
 62
     7
100
AcDbVertex
100
AcDb2dVertex
 10
-13.025252
 20
-22.896581
 30
0.0
 70
     8
  0
VERTEX
  5
3523C
330
1A26B
100
AcDbEntity
  8
TITLE_BLOCK
  6
CONTINUOUS
 62
     7
100
AcDbVertex
100
AcDb2dVertex
 10
-13.014978
 20
-22.919078
 30
0.0
 70
     8
  0
VERTEX
  5
3523D
330
1A26B
100
AcDbEntity
  8
TITLE_BLOCK
  6
CONTINUOUS
 62
     7
100
AcDbVertex
100
AcDb2dVertex
 10
-13.007096
 20
-22.943343
 30
0.0
 70
     8
  0
VERTEX
  5
3523E
330
1A26B
100
AcDbEntity
  8
TITLE_BLOCK
  6
CONTINUOUS
 62
     7
100
AcDbVertex
100
AcDb2dVertex
 10
-13.001781
 20
-22.969379
 30
0.0
 70
     8
  0
VERTEX
  5
3523F
330
1A26B
100
AcDbEntity
  8
TITLE_BLOCK
  6
CONTINUOUS
 62
     7
100
AcDbVertex
100
AcDb2dVertex
 10
-13.049149
 20
-22.969277
 30
0.0
 70
     8
  0
VERTEX
  5
35240
330
1A26B
100
AcDbEntity
  8
TITLE_BLOCK
  6
CONTINUOUS
 62
     7
100
AcDbVertex
100
AcDb2dVertex
 10
-13.095975
 20
-22.965026
 30
0.0
 70
     8
  0
VERTEX
  5
35241
330
1A26B
100
AcDbEntity
  8
TITLE_BLOCK
  6
CONTINUOUS
 62
     7
100
AcDbVertex
100
AcDb2dVertex
 10
-13.188671
 20
-22.949233
 30
0.0
 70
     8
  0
VERTEX
  5
35242
330
1A26B
100
AcDbEntity
  8
TITLE_BLOCK
  6
CONTINUOUS
 62
     7
100
AcDbVertex
100
AcDb2dVertex
 10
-13.281213
 20
-22.932311
 30
0.0
 70
     8
  0
VERTEX
  5
35243
330
1A26B
100
AcDbEntity
  8
TITLE_BLOCK
  6
CONTINUOUS
 62
     7
100
AcDbVertex
100
AcDb2dVertex
 10
-13.327846
 20
-22.92665
 30
0.0
 70
     8
  0
VERTEX
  5
35244
330
1A26B
100
AcDbEntity
  8
TITLE_BLOCK
  6
CONTINUOUS
 62
     7
100
AcDbVertex
100
AcDb2dVertex
 10
-13.374945
 20
-22.924575
 30
0.0
 70
     8
  0
VERTEX
  5
35245
330
1A26B
100
AcDbEntity
  8
TITLE_BLOCK
  6
CONTINUOUS
 62
     7
100
AcDbVertex
100
AcDb2dVertex
 10
-13.371645
 20
-22.945669
 30
0.0
 70
     8
  0
VERTEX
  5
35246
330
1A26B
100
AcDbEntity
  8
TITLE_BLOCK
  6
CONTINUOUS
 62
     7
100
AcDbVertex
100
AcDb2dVertex
 10
-13.365519
 20
-22.963558
 30
0.0
 70
     8
  0
VERTEX
  5
35247
330
1A26B
100
AcDbEntity
  8
TITLE_BLOCK
  6
CONTINUOUS
 62
     7
100
AcDbVertex
100
AcDb2dVertex
 10
-13.356847
 20
-22.978553
 30
0.0
 70
     8
  0
VERTEX
  5
35248
330
1A26B
100
AcDbEntity
  8
TITLE_BLOCK
  6
CONTINUOUS
 62
     7
100
AcDbVertex
100
AcDb2dVertex
 10
-13.345907
 20
-22.990963
 30
0.0
 70
     8
  0
VERTEX
  5
35249
330
1A26B
100
AcDbEntity
  8
TITLE_BLOCK
  6
CONTINUOUS
 62
     7
100
AcDbVertex
100
AcDb2dVertex
 10
-13.33298
 20
-23.0011
 30
0.0
 70
     8
  0
VERTEX
  5
3524A
330
1A26B
100
AcDbEntity
  8
TITLE_BLOCK
  6
CONTINUOUS
 62
     7
100
AcDbVertex
100
AcDb2dVertex
 10
-13.318343
 20
-23.009274
 30
0.0
 70
     8
  0
VERTEX
  5
3524B
330
1A26B
100
AcDbEntity
  8
TITLE_BLOCK
  6
CONTINUOUS
 62
     7
100
AcDbVertex
100
AcDb2dVertex
 10
-13.285057
 20
-23.020976
 30
0.0
 70
     8
  0
VERTEX
  5
3524C
330
1A26B
100
AcDbEntity
  8
TITLE_BLOCK
  6
CONTINUOUS
 62
     7
100
AcDbVertex
100
AcDb2dVertex
 10
-13.248284
 20
-23.028552
 30
0.0
 70
     8
  0
VERTEX
  5
3524D
330
1A26B
100
AcDbEntity
  8
TITLE_BLOCK
  6
CONTINUOUS
 62
     7
100
AcDbVertex
100
AcDb2dVertex
 10
-13.210254
 20
-23.034487
 30
0.0
 70
     8
  0
VERTEX
  5
3524E
330
1A26B
100
AcDbEntity
  8
TITLE_BLOCK
  6
CONTINUOUS
 62
     7
100
AcDbVertex
100
AcDb2dVertex
 10
-13.173202
 20
-23.041266
 30
0.0
 70
     8
  0
VERTEX
  5
3524F
330
1A26B
100
AcDbEntity
  8
TITLE_BLOCK
  6
CONTINUOUS
 62
     7
100
AcDbVertex
100
AcDb2dVertex
 10
-13.139359
 20
-23.051372
 30
0.0
 70
     8
  0
VERTEX
  5
35250
330
1A26B
100
AcDbEntity
  8
TITLE_BLOCK
  6
CONTINUOUS
 62
     7
100
AcDbVertex
100
AcDb2dVertex
 10
-13.104995
 20
-23.059394
 30
0.0
 70
     8
  0
VERTEX
  5
35251
330
1A26B
100
AcDbEntity
  8
TITLE_BLOCK
  6
CONTINUOUS
 62
     7
100
AcDbVertex
100
AcDb2dVertex
 10
-13.073872
 20
-23.072818
 30
0.0
 70
     8
  0
VERTEX
  5
35252
330
1A26B
100
AcDbEntity
  8
TITLE_BLOCK
  6
CONTINUOUS
 62
     7
100
AcDbVertex
100
AcDb2dVertex
 10
-13.04593
 20
-23.090968
 30
0.0
 70
     8
  0
VERTEX
  5
35253
330
1A26B
100
AcDbEntity
  8
TITLE_BLOCK
  6
CONTINUOUS
 62
     7
100
AcDbVertex
100
AcDb2dVertex
 10
-13.021107
 20
-23.113168
 30
0.0
 70
     8
  0
VERTEX
  5
35254
330
1A26B
100
AcDbEntity
  8
TITLE_BLOCK
  6
CONTINUOUS
 62
     7
100
AcDbVertex
100
AcDb2dVertex
 10
-12.999342
 20
-23.138746
 30
0.0
 70
     8
  0
VERTEX
  5
35255
330
1A26B
100
AcDbEntity
  8
TITLE_BLOCK
  6
CONTINUOUS
 62
     7
100
AcDbVertex
100
AcDb2dVertex
 10
-12.980574
 20
-23.167025
 30
0.0
 70
     8
  0
VERTEX
  5
35256
330
1A26B
100
AcDbEntity
  8
TITLE_BLOCK
  6
CONTINUOUS
 62
     7
100
AcDbVertex
100
AcDb2dVertex
 10
-12.96474
 20
-23.197331
 30
0.0
 70
     8
  0
VERTEX
  5
35257
330
1A26B
100
AcDbEntity
  8
TITLE_BLOCK
  6
CONTINUOUS
 62
     7
100
AcDbVertex
100
AcDb2dVertex
 10
-12.951781
 20
-23.228989
 30
0.0
 70
     8
  0
VERTEX
  5
35258
330
1A26B
100
AcDbEntity
  8
TITLE_BLOCK
  6
CONTINUOUS
 62
     7
100
AcDbVertex
100
AcDb2dVertex
 10
-12.965959
 20
-23.268379
 30
0.0
 70
     8
  0
VERTEX
  5
35259
330
1A26B
100
AcDbEntity
  8
TITLE_BLOCK
  6
CONTINUOUS
 62
     7
100
AcDbVertex
100
AcDb2dVertex
 10
-12.984529
 20
-23.30327
 30
0.0
 70
     8
  0
VERTEX
  5
3525A
330
1A26B
100
AcDbEntity
  8
TITLE_BLOCK
  6
CONTINUOUS
 62
     7
100
AcDbVertex
100
AcDb2dVertex
 10
-13.007071
 20
-23.333828
 30
0.0
 70
     8
  0
VERTEX
  5
3525B
330
1A26B
100
AcDbEntity
  8
TITLE_BLOCK
  6
CONTINUOUS
 62
     7
100
AcDbVertex
100
AcDb2dVertex
 10
-13.033166
 20
-23.360223
 30
0.0
 70
     8
  0
VERTEX
  5
3525C
330
1A26B
100
AcDbEntity
  8
TITLE_BLOCK
  6
CONTINUOUS
 62
     7
100
AcDbVertex
100
AcDb2dVertex
 10
-13.062396
 20
-23.382622
 30
0.0
 70
     8
  0
VERTEX
  5
3525D
330
1A26B
100
AcDbEntity
  8
TITLE_BLOCK
  6
CONTINUOUS
 62
     7
100
AcDbVertex
100
AcDb2dVertex
 10
-13.094341
 20
-23.401193
 30
0.0
 70
     8
  0
VERTEX
  5
3525E
330
1A26B
100
AcDbEntity
  8
TITLE_BLOCK
  6
CONTINUOUS
 62
     7
100
AcDbVertex
100
AcDb2dVertex
 10
-13.128582
 20
-23.416104
 30
0.0
 70
     8
  0
VERTEX
  5
3525F
330
1A26B
100
AcDbEntity
  8
TITLE_BLOCK
  6
CONTINUOUS
 62
     7
100
AcDbVertex
100
AcDb2dVertex
 10
-13.164701
 20
-23.427524
 30
0.0
 70
     8
  0
VERTEX
  5
35260
330
1A26B
100
AcDbEntity
  8
TITLE_BLOCK
  6
CONTINUOUS
 62
     7
100
AcDbVertex
100
AcDb2dVertex
 10
-13.202278
 20
-23.43562
 30
0.0
 70
     8
  0
VERTEX
  5
35261
330
1A26B
100
AcDbEntity
  8
TITLE_BLOCK
  6
CONTINUOUS
 62
     7
100
AcDbVertex
100
AcDb2dVertex
 10
-13.240895
 20
-23.440562
 30
0.0
 70
     8
  0
VERTEX
  5
35262
330
1A26B
100
AcDbEntity
  8
TITLE_BLOCK
  6
CONTINUOUS
 62
     7
100
AcDbVertex
100
AcDb2dVertex
 10
-13.280132
 20
-23.442516
 30
0.0
 70
     8
  0
VERTEX
  5
35263
330
1A26B
100
AcDbEntity
  8
TITLE_BLOCK
  6
CONTINUOUS
 62
     7
100
AcDbVertex
100
AcDb2dVertex
 10
-13.31957
 20
-23.441651
 30
0.0
 70
     8
  0
VERTEX
  5
35264
330
1A26B
100
AcDbEntity
  8
TITLE_BLOCK
  6
CONTINUOUS
 62
     7
100
AcDbVertex
100
AcDb2dVertex
 10
-13.358791
 20
-23.438135
 30
0.0
 70
     8
  0
VERTEX
  5
35265
330
1A26B
100
AcDbEntity
  8
TITLE_BLOCK
  6
CONTINUOUS
 62
     7
100
AcDbVertex
100
AcDb2dVertex
 10
-13.397376
 20
-23.432137
 30
0.0
 70
     8
  0
VERTEX
  5
35266
330
1A26B
100
AcDbEntity
  8
TITLE_BLOCK
  6
CONTINUOUS
 62
     7
100
AcDbVertex
100
AcDb2dVertex
 10
-13.434906
 20
-23.423824
 30
0.0
 70
     8
  0
VERTEX
  5
35267
330
1A26B
100
AcDbEntity
  8
TITLE_BLOCK
  6
CONTINUOUS
 62
     7
100
AcDbVertex
100
AcDb2dVertex
 10
-13.470961
 20
-23.413364
 30
0.0
 70
     8
  0
VERTEX
  5
35268
330
1A26B
100
AcDbEntity
  8
TITLE_BLOCK
  6
CONTINUOUS
 62
     7
100
AcDbVertex
100
AcDb2dVertex
 10
-13.492786
 20
-23.394401
 30
0.0
 70
     8
  0
VERTEX
  5
35269
330
1A26B
100
AcDbEntity
  8
TITLE_BLOCK
  6
CONTINUOUS
 62
     7
100
AcDbVertex
100
AcDb2dVertex
 10
-13.512775
 20
-23.373939
 30
0.0
 70
     8
  0
VERTEX
  5
3526A
330
1A26B
100
AcDbEntity
  8
TITLE_BLOCK
  6
CONTINUOUS
 62
     7
100
AcDbVertex
100
AcDb2dVertex
 10
-13.531121
 20
-23.352163
 30
0.0
 70
     8
  0
VERTEX
  5
3526B
330
1A26B
100
AcDbEntity
  8
TITLE_BLOCK
  6
CONTINUOUS
 62
     7
100
AcDbVertex
100
AcDb2dVertex
 10
-13.548016
 20
-23.329262
 30
0.0
 70
     8
  0
VERTEX
  5
3526C
330
1A26B
100
AcDbEntity
  8
TITLE_BLOCK
  6
CONTINUOUS
 62
     7
100
AcDbVertex
100
AcDb2dVertex
 10
-13.578226
 20
-23.280836
 30
0.0
 70
     8
  0
VERTEX
  5
3526D
330
1A26B
100
AcDbEntity
  8
TITLE_BLOCK
  6
CONTINUOUS
 62
     7
100
AcDbVertex
100
AcDb2dVertex
 10
-13.604945
 20
-23.230161
 30
0.0
 70
     8
  0
VERTEX
  5
3526E
330
1A26B
100
AcDbEntity
  8
TITLE_BLOCK
  6
CONTINUOUS
 62
     7
100
AcDbVertex
100
AcDb2dVertex
 10
-13.577959
 20
-23.228611
 30
0.0
 70
     8
  0
VERTEX
  5
3526F
330
1A26B
100
AcDbEntity
  8
TITLE_BLOCK
  6
CONTINUOUS
 62
     7
100
AcDbVertex
100
AcDb2dVertex
 10
-13.549648
 20
-23.223358
 30
0.0
 70
     8
  0
VERTEX
  5
35270
330
1A26B
100
AcDbEntity
  8
TITLE_BLOCK
  6
CONTINUOUS
 62
     7
100
AcDbVertex
100
AcDb2dVertex
 10
-13.491864
 20
-23.210781
 30
0.0
 70
     8
  0
VERTEX
  5
35271
330
1A26B
100
AcDbEntity
  8
TITLE_BLOCK
  6
CONTINUOUS
 62
     7
100
AcDbVertex
100
AcDb2dVertex
 10
-13.463798
 20
-23.207974
 30
0.0
 70
     8
  0
VERTEX
  5
35272
330
1A26B
100
AcDbEntity
  8
TITLE_BLOCK
  6
CONTINUOUS
 62
     7
100
AcDbVertex
100
AcDb2dVertex
 10
-13.437222
 20
-23.210501
 30
0.0
 70
     8
  0
VERTEX
  5
35273
330
1A26B
100
AcDbEntity
  8
TITLE_BLOCK
  6
CONTINUOUS
 62
     7
100
AcDbVertex
100
AcDb2dVertex
 10
-13.412839
 20
-23.22062
 30
0.0
 70
     8
  0
VERTEX
  5
35274
330
1A26B
100
AcDbEntity
  8
TITLE_BLOCK
  6
CONTINUOUS
 62
     7
100
AcDbVertex
100
AcDb2dVertex
 10
-13.401689
 20
-23.229232
 30
0.0
 70
     8
  0
VERTEX
  5
35275
330
1A26B
100
AcDbEntity
  8
TITLE_BLOCK
  6
CONTINUOUS
 62
     7
100
AcDbVertex
100
AcDb2dVertex
 10
-13.391351
 20
-23.24059
 30
0.0
 70
     8
  0
VERTEX
  5
35276
330
1A26B
100
AcDbEntity
  8
TITLE_BLOCK
  6
CONTINUOUS
 62
     7
100
AcDbVertex
100
AcDb2dVertex
 10
-13.377617
 20
-23.253459
 30
0.0
 70
     8
  0
VERTEX
  5
35277
330
1A26B
100
AcDbEntity
  8
TITLE_BLOCK
  6
CONTINUOUS
 62
     7
100
AcDbVertex
100
AcDb2dVertex
 10
-13.361867
 20
-23.264563
 30
0.0
 70
     8
  0
VERTEX
  5
35278
330
1A26B
100
AcDbEntity
  8
TITLE_BLOCK
  6
CONTINUOUS
 62
     7
100
AcDbVertex
100
AcDb2dVertex
 10
-13.344486
 20
-23.273825
 30
0.0
 70
     8
  0
VERTEX
  5
35279
330
1A26B
100
AcDbEntity
  8
TITLE_BLOCK
  6
CONTINUOUS
 62
     7
100
AcDbVertex
100
AcDb2dVertex
 10
-13.325857
 20
-23.281169
 30
0.0
 70
     8
  0
VERTEX
  5
3527A
330
1A26B
100
AcDbEntity
  8
TITLE_BLOCK
  6
CONTINUOUS
 62
     7
100
AcDbVertex
100
AcDb2dVertex
 10
-13.306365
 20
-23.286518
 30
0.0
 70
     8
  0
VERTEX
  5
3527B
330
1A26B
100
AcDbEntity
  8
TITLE_BLOCK
  6
CONTINUOUS
 62
     7
100
AcDbVertex
100
AcDb2dVertex
 10
-13.286395
 20
-23.289795
 30
0.0
 70
     8
  0
VERTEX
  5
3527C
330
1A26B
100
AcDbEntity
  8
TITLE_BLOCK
  6
CONTINUOUS
 62
     7
100
AcDbVertex
100
AcDb2dVertex
 10
-13.26633
 20
-23.290924
 30
0.0
 70
     8
  0
VERTEX
  5
3527D
330
1A26B
100
AcDbEntity
  8
TITLE_BLOCK
  6
CONTINUOUS
 62
     7
100
AcDbVertex
100
AcDb2dVertex
 10
-13.246556
 20
-23.289829
 30
0.0
 70
     8
  0
VERTEX
  5
3527E
330
1A26B
100
AcDbEntity
  8
TITLE_BLOCK
  6
CONTINUOUS
 62
     7
100
AcDbVertex
100
AcDb2dVertex
 10
-13.227457
 20
-23.286431
 30
0.0
 70
     8
  0
VERTEX
  5
3527F
330
1A26B
100
AcDbEntity
  8
TITLE_BLOCK
  6
CONTINUOUS
 62
     7
100
AcDbVertex
100
AcDb2dVertex
 10
-13.209417
 20
-23.280655
 30
0.0
 70
     8
  0
VERTEX
  5
35280
330
1A26B
100
AcDbEntity
  8
TITLE_BLOCK
  6
CONTINUOUS
 62
     7
100
AcDbVertex
100
AcDb2dVertex
 10
-13.19282
 20
-23.272425
 30
0.0
 70
     8
  0
VERTEX
  5
35281
330
1A26B
100
AcDbEntity
  8
TITLE_BLOCK
  6
CONTINUOUS
 62
     7
100
AcDbVertex
100
AcDb2dVertex
 10
-13.178052
 20
-23.261662
 30
0.0
 70
     8
  0
VERTEX
  5
35282
330
1A26B
100
AcDbEntity
  8
TITLE_BLOCK
  6
CONTINUOUS
 62
     7
100
AcDbVertex
100
AcDb2dVertex
 10
-13.165495
 20
-23.248291
 30
0.0
 70
     8
  0
VERTEX
  5
35283
330
1A26B
100
AcDbEntity
  8
TITLE_BLOCK
  6
CONTINUOUS
 62
     7
100
AcDbVertex
100
AcDb2dVertex
 10
-13.155536
 20
-23.232235
 30
0.0
 70
     8
  0
VERTEX
  5
35284
330
1A26B
100
AcDbEntity
  8
TITLE_BLOCK
  6
CONTINUOUS
 62
     7
100
AcDbVertex
100
AcDb2dVertex
 10
-13.148558
 20
-23.213418
 30
0.0
 70
     8
  0
VERTEX
  5
35285
330
1A26B
100
AcDbEntity
  8
TITLE_BLOCK
  6
CONTINUOUS
 62
     7
100
AcDbVertex
100
AcDb2dVertex
 10
-13.144945
 20
-23.191762
 30
0.0
 70
     8
  0
VERTEX
  5
35286
330
1A26B
100
AcDbEntity
  8
TITLE_BLOCK
  6
CONTINUOUS
 62
     7
100
AcDbVertex
100
AcDb2dVertex
 10
-13.253366
 20
-23.164574
 30
0.0
 70
     8
  0
VERTEX
  5
35287
330
1A26B
100
AcDbEntity
  8
TITLE_BLOCK
  6
CONTINUOUS
 62
     7
100
AcDbVertex
100
AcDb2dVertex
 10
-13.307855
 20
-23.151416
 30
0.0
 70
     8
  0
VERTEX
  5
35288
330
1A26B
100
AcDbEntity
  8
TITLE_BLOCK
  6
CONTINUOUS
 62
     7
100
AcDbVertex
100
AcDb2dVertex
 10
-13.361512
 20
-23.136474
 30
0.0
 70
     8
  0
VERTEX
  5
35289
330
1A26B
100
AcDbEntity
  8
TITLE_BLOCK
  6
CONTINUOUS
 62
     7
100
AcDbVertex
100
AcDb2dVertex
 10
-13.413575
 20
-23.118195
 30
0.0
 70
     8
  0
VERTEX
  5
3528A
330
1A26B
100
AcDbEntity
  8
TITLE_BLOCK
  6
CONTINUOUS
 62
     7
100
AcDbVertex
100
AcDb2dVertex
 10
-13.463279
 20
-23.095022
 30
0.0
 70
     8
  0
VERTEX
  5
3528B
330
1A26B
100
AcDbEntity
  8
TITLE_BLOCK
  6
CONTINUOUS
 62
     7
100
AcDbVertex
100
AcDb2dVertex
 10
-13.487009
 20
-23.081115
 30
0.0
 70
     8
  0
VERTEX
  5
3528C
330
1A26B
100
AcDbEntity
  8
TITLE_BLOCK
  6
CONTINUOUS
 62
     7
100
AcDbVertex
100
AcDb2dVertex
 10
-13.509863
 20
-23.065401
 30
0.0
 70
     8
  0
VERTEX
  5
3528D
330
1A26B
100
AcDbEntity
  8
TITLE_BLOCK
  6
CONTINUOUS
 62
     7
100
AcDbVertex
100
AcDb2dVertex
 10
-13.531746
 20
-23.047687
 30
0.0
 70
     8
  0
VERTEX
  5
3528E
330
1A26B
100
AcDbEntity
  8
TITLE_BLOCK
  6
CONTINUOUS
 62
     7
100
AcDbVertex
100
AcDb2dVertex
 10
-13.552562
 20
-23.027778
 30
0.0
 70
     8
  0
VERTEX
  5
3528F
330
1A26B
100
AcDbEntity
  8
TITLE_BLOCK
  6
CONTINUOUS
 62
     7
100
AcDbVertex
100
AcDb2dVertex
 10
-13.492172
 20
-22.992582
 30
0.0
 70
     8
  0
VERTEX
  5
35290
330
1A26B
100
AcDbEntity
  8
TITLE_BLOCK
  6
CONTINUOUS
 62
     7
100
AcDbVertex
100
AcDb2dVertex
 10
-13.575765
 20
-22.992582
 30
0.0
 70
     8
  0
VERTEX
  5
35291
330
1A26B
100
AcDbEntity
  8
TITLE_BLOCK
  6
CONTINUOUS
 62
     7
100
AcDbVertex
100
AcDb2dVertex
 10
-13.575765
 20
-22.992582
 30
0.0
 70
     8
  0
VERTEX
  5
35292
330
1A26B
100
AcDbEntity
  8
TITLE_BLOCK
  6
CONTINUOUS
 62
     7
100
AcDbVertex
100
AcDb2dVertex
 10
-13.575765
 20
-22.992582
 30
0.0
 70
    16
  0
VERTEX
  5
35293
330
1A26B
100
AcDbEntity
  8
TITLE_BLOCK
  6
CONTINUOUS
 62
     7
100
AcDbVertex
100
AcDb2dVertex
 10
-13.554554
 20
-22.698168
 30
0.0
 70
    16
  0
VERTEX
  5
35294
330
1A26B
100
AcDbEntity
  8
TITLE_BLOCK
  6
CONTINUOUS
 62
     7
100
AcDbVertex
100
AcDb2dVertex
 10
-13.044164
 20
-22.682192
 30
0.0
 70
    16
  0
VERTEX
  5
35295
330
1A26B
100
AcDbEntity
  8
TITLE_BLOCK
  6
CONTINUOUS
 62
     7
100
AcDbVertex
100
AcDb2dVertex
 10
-13.001781
 20
-22.969379
 30
0.0
 70
    16
  0
VERTEX
  5
35296
330
1A26B
100
AcDbEntity
  8
TITLE_BLOCK
  6
CONTINUOUS
 62
     7
100
AcDbVertex
100
AcDb2dVertex
 10
-13.128968
 20
-22.975786
 30
0.0
 70
    16
  0
VERTEX
  5
35297
330
1A26B
100
AcDbEntity
  8
TITLE_BLOCK
  6
CONTINUOUS
 62
     7
100
AcDbVertex
100
AcDb2dVertex
 10
-13.248578
 20
-22.924184
 30
0.0
 70
    16
  0
VERTEX
  5
35298
330
1A26B
100
AcDbEntity
  8
TITLE_BLOCK
  6
CONTINUOUS
 62
     7
100
AcDbVertex
100
AcDb2dVertex
 10
-13.374945
 20
-22.924575
 30
0.0
 70
    16
  0
VERTEX
  5
35299
330
1A26B
100
AcDbEntity
  8
TITLE_BLOCK
  6
CONTINUOUS
 62
     7
100
AcDbVertex
100
AcDb2dVertex
 10
-13.365375
 20
-23.046176
 30
0.0
 70
    16
  0
VERTEX
  5
3529A
330
1A26B
100
AcDbEntity
  8
TITLE_BLOCK
  6
CONTINUOUS
 62
     7
100
AcDbVertex
100
AcDb2dVertex
 10
-13.223343
 20
-23.017778
 30
0.0
 70
    16
  0
VERTEX
  5
3529B
330
1A26B
100
AcDbEntity
  8
TITLE_BLOCK
  6
CONTINUOUS
 62
     7
100
AcDbVertex
100
AcDb2dVertex
 10
-13.139359
 20
-23.051372
 30
0.0
 70
    16
  0
VERTEX
  5
3529C
330
1A26B
100
AcDbEntity
  8
TITLE_BLOCK
  6
CONTINUOUS
 62
     7
100
AcDbVertex
100
AcDb2dVertex
 10
-13.043343
 20
-23.064965
 30
0.0
 70
    16
  0
VERTEX
  5
3529D
330
1A26B
100
AcDbEntity
  8
TITLE_BLOCK
  6
CONTINUOUS
 62
     7
100
AcDbVertex
100
AcDb2dVertex
 10
-12.982562
 20
-23.143364
 30
0.0
 70
    16
  0
VERTEX
  5
3529E
330
1A26B
100
AcDbEntity
  8
TITLE_BLOCK
  6
CONTINUOUS
 62
     7
100
AcDbVertex
100
AcDb2dVertex
 10
-12.951781
 20
-23.228989
 30
0.0
 70
    16
  0
VERTEX
  5
3529F
330
1A26B
100
AcDbEntity
  8
TITLE_BLOCK
  6
CONTINUOUS
 62
     7
100
AcDbVertex
100
AcDb2dVertex
 10
-13.014945
 20
-23.451372
 30
0.0
 70
    16
  0
VERTEX
  5
352A0
330
1A26B
100
AcDbEntity
  8
TITLE_BLOCK
  6
CONTINUOUS
 62
     7
100
AcDbVertex
100
AcDb2dVertex
 10
-13.283343
 20
-23.474575
 30
0.0
 70
    16
  0
VERTEX
  5
352A1
330
1A26B
100
AcDbEntity
  8
TITLE_BLOCK
  6
CONTINUOUS
 62
     7
100
AcDbVertex
100
AcDb2dVertex
 10
-13.470961
 20
-23.413364
 30
0.0
 70
    16
  0
VERTEX
  5
352A2
330
1A26B
100
AcDbEntity
  8
TITLE_BLOCK
  6
CONTINUOUS
 62
     7
100
AcDbVertex
100
AcDb2dVertex
 10
-13.531781
 20
-23.364965
 30
0.0
 70
    16
  0
VERTEX
  5
352A3
330
1A26B
100
AcDbEntity
  8
TITLE_BLOCK
  6
CONTINUOUS
 62
     7
100
AcDbVertex
100
AcDb2dVertex
 10
-13.570961
 20
-23.298559
 30
0.0
 70
    16
  0
VERTEX
  5
352A4
330
1A26B
100
AcDbEntity
  8
TITLE_BLOCK
  6
CONTINUOUS
 62
     7
100
AcDbVertex
100
AcDb2dVertex
 10
-13.604945
 20
-23.230161
 30
0.0
 70
    16
  0
VERTEX
  5
352A5
330
1A26B
100
AcDbEntity
  8
TITLE_BLOCK
  6
CONTINUOUS
 62
     7
100
AcDbVertex
100
AcDb2dVertex
 10
-13.535375
 20
-23.232973
 30
0.0
 70
    16
  0
VERTEX
  5
352A6
330
1A26B
100
AcDbEntity
  8
TITLE_BLOCK
  6
CONTINUOUS
 62
     7
100
AcDbVertex
100
AcDb2dVertex
 10
-13.444164
 20
-23.172192
 30
0.0
 70
    16
  0
VERTEX
  5
352A7
330
1A26B
100
AcDbEntity
  8
TITLE_BLOCK
  6
CONTINUOUS
 62
     7
100
AcDbVertex
100
AcDb2dVertex
 10
-13.391351
 20
-23.24059
 30
0.0
 70
    16
  0
VERTEX
  5
352A8
330
1A26B
100
AcDbEntity
  8
TITLE_BLOCK
  6
CONTINUOUS
 62
     7
100
AcDbVertex
100
AcDb2dVertex
 10
-13.324164
 20
-23.313793
 30
0.0
 70
    16
  0
VERTEX
  5
352A9
330
1A26B
100
AcDbEntity
  8
TITLE_BLOCK
  6
CONTINUOUS
 62
     7
100
AcDbVertex
100
AcDb2dVertex
 10
-13.154554
 20
-23.314965
 30
0.0
 70
    16
  0
VERTEX
  5
352AA
330
1A26B
100
AcDbEntity
  8
TITLE_BLOCK
  6
CONTINUOUS
 62
     7
100
AcDbVertex
100
AcDb2dVertex
 10
-13.144945
 20
-23.191762
 30
0.0
 70
    16
  0
VERTEX
  5
352AB
330
1A26B
100
AcDbEntity
  8
TITLE_BLOCK
  6
CONTINUOUS
 62
     7
100
AcDbVertex
100
AcDb2dVertex
 10
-13.286976
 20
-23.15059
 30
0.0
 70
    16
  0
VERTEX
  5
352AC
330
1A26B
100
AcDbEntity
  8
TITLE_BLOCK
  6
CONTINUOUS
 62
     7
100
AcDbVertex
100
AcDb2dVertex
 10
-13.444554
 20
-23.140161
 30
0.0
 70
    16
  0
VERTEX
  5
352AD
330
1A26B
100
AcDbEntity
  8
TITLE_BLOCK
  6
CONTINUOUS
 62
     7
100
AcDbVertex
100
AcDb2dVertex
 10
-13.552562
 20
-23.027778
 30
0.0
 70
    16
  0
VERTEX
  5
352AE
330
1A26B
100
AcDbEntity
  8
TITLE_BLOCK
  6
CONTINUOUS
 62
     7
100
AcDbVertex
100
AcDb2dVertex
 10
-13.552562
 20
-23.027778
 30
0.0
 70
    16
  0
VERTEX
  5
352AF
330
1A26B
100
AcDbEntity
  8
TITLE_BLOCK
  6
CONTINUOUS
 62
     7
100
AcDbVertex
100
AcDb2dVertex
 10
-13.492172
 20
-22.992582
 30
0.0
 70
    16
  0
VERTEX
  5
352B0
330
1A26B
100
AcDbEntity
  8
TITLE_BLOCK
  6
CONTINUOUS
 62
     7
100
AcDbVertex
100
AcDb2dVertex
 10
-13.492172
 20
-22.992582
 30
0.0
 70
    16
  0
VERTEX
  5
352B1
330
1A26B
100
AcDbEntity
  8
TITLE_BLOCK
  6
CONTINUOUS
 62
     7
100
AcDbVertex
100
AcDb2dVertex
 10
-13.512953
 20
-22.992582
 30
0.0
 70
    16
  0
VERTEX
  5
352B2
330
1A26B
100
AcDbEntity
  8
TITLE_BLOCK
  6
CONTINUOUS
 62
     7
100
AcDbVertex
100
AcDb2dVertex
 10
-13.554945
 20
-22.992582
 30
0.0
 70
    16
  0
VERTEX
  5
352B3
330
1A26B
100
AcDbEntity
  8
TITLE_BLOCK
  6
CONTINUOUS
 62
     7
100
AcDbVertex
100
AcDb2dVertex
 10
-13.575765
 20
-22.992582
 30
0.0
 70
    16
  0
VERTEX
  5
352B4
330
1A26B
100
AcDbEntity
  8
TITLE_BLOCK
  6
CONTINUOUS
 62
     7
100
AcDbVertex
100
AcDb2dVertex
 10
-13.575765
 20
-22.992582
 30
0.0
 70
    16
  0
VERTEX
  5
352B5
330
1A26B
100
AcDbEntity
  8
TITLE_BLOCK
  6
CONTINUOUS
 62
     7
100
AcDbVertex
100
AcDb2dVertex
 10
-13.575765
 20
-22.992582
 30
0.0
 70
    16
  0
VERTEX
  5
352B6
330
1A26B
100
AcDbEntity
  8
TITLE_BLOCK
  6
CONTINUOUS
 62
     7
100
AcDbVertex
100
AcDb2dVertex
 10
-13.575765
 20
-22.992582
 30
0.0
 70
    16
  0
SEQEND
  5
352B7
330
1A26B
100
AcDbEntity
  8
TITLE_BLOCK
  6
CONTINUOUS
 62
     7
  0
POLYLINE
  5
1A305
330
34C93
100
AcDbEntity
  8
TITLE_BLOCK
  6
CONTINUOUS
 62
     7
100
AcDb2dPolyline
 66
     1
 10
0.0
 20
0.0
 30
0.0
 70
     5
 75
     5
  0
VERTEX
  5
352B8
330
1A305
100
AcDbEntity
  8
TITLE_BLOCK
  6
CONTINUOUS
 62
     7
100
AcDbVertex
100
AcDb2dVertex
 10
-20.961371
 20
-22.919379
 30
0.0
 70
     8
  0
VERTEX
  5
352B9
330
1A305
100
AcDbEntity
  8
TITLE_BLOCK
  6
CONTINUOUS
 62
     7
100
AcDbVertex
100
AcDb2dVertex
 10
-20.809769
 20
-22.93059
 30
0.0
 70
     8
  0
VERTEX
  5
352BA
330
1A305
100
AcDbEntity
  8
TITLE_BLOCK
  6
CONTINUOUS
 62
     7
100
AcDbVertex
100
AcDb2dVertex
 10
-20.806666
 20
-23.001621
 30
0.0
 70
     8
  0
VERTEX
  5
352BB
330
1A305
100
AcDbEntity
  8
TITLE_BLOCK
  6
CONTINUOUS
 62
     7
100
AcDbVertex
100
AcDb2dVertex
 10
-20.804164
 20
-23.072973
 30
0.0
 70
     8
  0
VERTEX
  5
352BC
330
1A305
100
AcDbEntity
  8
TITLE_BLOCK
  6
CONTINUOUS
 62
     7
100
AcDbVertex
100
AcDb2dVertex
 10
-20.964554
 20
-23.088168
 30
0.0
 70
     8
  0
VERTEX
  5
352BD
330
1A305
100
AcDbEntity
  8
TITLE_BLOCK
  6
CONTINUOUS
 62
     7
100
AcDbVertex
100
AcDb2dVertex
 10
-20.961371
 20
-22.919379
 30
0.0
 70
     8
  0
VERTEX
  5
352BE
330
1A305
100
AcDbEntity
  8
TITLE_BLOCK
  6
CONTINUOUS
 62
     7
100
AcDbVertex
100
AcDb2dVertex
 10
-20.961371
 20
-22.919379
 30
0.0
 70
     8
  0
VERTEX
  5
352BF
330
1A305
100
AcDbEntity
  8
TITLE_BLOCK
  6
CONTINUOUS
 62
     7
100
AcDbVertex
100
AcDb2dVertex
 10
-20.961371
 20
-22.919379
 30
0.0
 70
    16
  0
VERTEX
  5
352C0
330
1A305
100
AcDbEntity
  8
TITLE_BLOCK
  6
CONTINUOUS
 62
     7
100
AcDbVertex
100
AcDb2dVertex
 10
-20.910961
 20
-22.922973
 30
0.0
 70
    16
  0
VERTEX
  5
352C1
330
1A305
100
AcDbEntity
  8
TITLE_BLOCK
  6
CONTINUOUS
 62
     7
100
AcDbVertex
100
AcDb2dVertex
 10
-20.86016
 20
-22.926567
 30
0.0
 70
    16
  0
VERTEX
  5
352C2
330
1A305
100
AcDbEntity
  8
TITLE_BLOCK
  6
CONTINUOUS
 62
     7
100
AcDbVertex
100
AcDb2dVertex
 10
-20.809769
 20
-22.93059
 30
0.0
 70
    16
  0
VERTEX
  5
352C3
330
1A305
100
AcDbEntity
  8
TITLE_BLOCK
  6
CONTINUOUS
 62
     7
100
AcDbVertex
100
AcDb2dVertex
 10
-20.807367
 20
-22.977778
 30
0.0
 70
    16
  0
VERTEX
  5
352C4
330
1A305
100
AcDbEntity
  8
TITLE_BLOCK
  6
CONTINUOUS
 62
     7
100
AcDbVertex
100
AcDb2dVertex
 10
-20.805765
 20
-23.025356
 30
0.0
 70
    16
  0
VERTEX
  5
352C5
330
1A305
100
AcDbEntity
  8
TITLE_BLOCK
  6
CONTINUOUS
 62
     7
100
AcDbVertex
100
AcDb2dVertex
 10
-20.804164
 20
-23.072973
 30
0.0
 70
    16
  0
VERTEX
  5
352C6
330
1A305
100
AcDbEntity
  8
TITLE_BLOCK
  6
CONTINUOUS
 62
     7
100
AcDbVertex
100
AcDb2dVertex
 10
-20.857757
 20
-23.078168
 30
0.0
 70
    16
  0
VERTEX
  5
352C7
330
1A305
100
AcDbEntity
  8
TITLE_BLOCK
  6
CONTINUOUS
 62
     7
100
AcDbVertex
100
AcDb2dVertex
 10
-20.911371
 20
-23.083364
 30
0.0
 70
    16
  0
VERTEX
  5
352C8
330
1A305
100
AcDbEntity
  8
TITLE_BLOCK
  6
CONTINUOUS
 62
     7
100
AcDbVertex
100
AcDb2dVertex
 10
-20.964554
 20
-23.088168
 30
0.0
 70
    16
  0
VERTEX
  5
352C9
330
1A305
100
AcDbEntity
  8
TITLE_BLOCK
  6
CONTINUOUS
 62
     7
100
AcDbVertex
100
AcDb2dVertex
 10
-20.963754
 20
-23.031762
 30
0.0
 70
    16
  0
VERTEX
  5
352CA
330
1A305
100
AcDbEntity
  8
TITLE_BLOCK
  6
CONTINUOUS
 62
     7
100
AcDbVertex
100
AcDb2dVertex
 10
-20.962562
 20
-22.975356
 30
0.0
 70
    16
  0
VERTEX
  5
352CB
330
1A305
100
AcDbEntity
  8
TITLE_BLOCK
  6
CONTINUOUS
 62
     7
100
AcDbVertex
100
AcDb2dVertex
 10
-20.961371
 20
-22.919379
 30
0.0
 70
    16
  0
VERTEX
  5
352CC
330
1A305
100
AcDbEntity
  8
TITLE_BLOCK
  6
CONTINUOUS
 62
     7
100
AcDbVertex
100
AcDb2dVertex
 10
-20.961371
 20
-22.919379
 30
0.0
 70
    16
  0
VERTEX
  5
352CD
330
1A305
100
AcDbEntity
  8
TITLE_BLOCK
  6
CONTINUOUS
 62
     7
100
AcDbVertex
100
AcDb2dVertex
 10
-20.961371
 20
-22.919379
 30
0.0
 70
    16
  0
VERTEX
  5
352CE
330
1A305
100
AcDbEntity
  8
TITLE_BLOCK
  6
CONTINUOUS
 62
     7
100
AcDbVertex
100
AcDb2dVertex
 10
-20.961371
 20
-22.919379
 30
0.0
 70
    16
  0
SEQEND
  5
352CF
330
1A305
100
AcDbEntity
  8
TITLE_BLOCK
  6
CONTINUOUS
 62
     7
  0
POLYLINE
  5
1A31D
330
34C93
100
AcDbEntity
  8
TITLE_BLOCK
  6
CONTINUOUS
 62
     7
100
AcDb2dPolyline
 66
     1
 10
0.0
 20
0.0
 30
0.0
 70
     5
 75
     5
  0
VERTEX
  5
352D0
330
1A31D
100
AcDbEntity
  8
TITLE_BLOCK
  6
CONTINUOUS
 62
     7
100
AcDbVertex
100
AcDb2dVertex
 10
-17.232953
 20
-23.170161
 30
0.0
 70
     8
  0
VERTEX
  5
352D1
330
1A31D
100
AcDbEntity
  8
TITLE_BLOCK
  6
CONTINUOUS
 62
     7
100
AcDbVertex
100
AcDb2dVertex
 10
-17.187411
 20
-23.042665
 30
0.0
 70
     8
  0
VERTEX
  5
352D2
330
1A31D
100
AcDbEntity
  8
TITLE_BLOCK
  6
CONTINUOUS
 62
     7
100
AcDbVertex
100
AcDb2dVertex
 10
-17.140961
 20
-22.915786
 30
0.0
 70
     8
  0
VERTEX
  5
352D3
330
1A31D
100
AcDbEntity
  8
TITLE_BLOCK
  6
CONTINUOUS
 62
     7
100
AcDbVertex
100
AcDb2dVertex
 10
-17.096117
 20
-23.037924
 30
0.0
 70
     8
  0
VERTEX
  5
352D4
330
1A31D
100
AcDbEntity
  8
TITLE_BLOCK
  6
CONTINUOUS
 62
     7
100
AcDbVertex
100
AcDb2dVertex
 10
-17.04975
 20
-23.15977
 30
0.0
 70
     8
  0
VERTEX
  5
352D5
330
1A31D
100
AcDbEntity
  8
TITLE_BLOCK
  6
CONTINUOUS
 62
     7
100
AcDbVertex
100
AcDb2dVertex
 10
-17.232953
 20
-23.170161
 30
0.0
 70
     8
  0
VERTEX
  5
352D6
330
1A31D
100
AcDbEntity
  8
TITLE_BLOCK
  6
CONTINUOUS
 62
     7
100
AcDbVertex
100
AcDb2dVertex
 10
-17.232953
 20
-23.170161
 30
0.0
 70
     8
  0
VERTEX
  5
352D7
330
1A31D
100
AcDbEntity
  8
TITLE_BLOCK
  6
CONTINUOUS
 62
     7
100
AcDbVertex
100
AcDb2dVertex
 10
-17.232953
 20
-23.170161
 30
0.0
 70
    16
  0
VERTEX
  5
352D8
330
1A31D
100
AcDbEntity
  8
TITLE_BLOCK
  6
CONTINUOUS
 62
     7
100
AcDbVertex
100
AcDb2dVertex
 10
-17.202562
 20
-23.084965
 30
0.0
 70
    16
  0
VERTEX
  5
352D9
330
1A31D
100
AcDbEntity
  8
TITLE_BLOCK
  6
CONTINUOUS
 62
     7
100
AcDbVertex
100
AcDb2dVertex
 10
-17.172562
 20
-23.000161
 30
0.0
 70
    16
  0
VERTEX
  5
352DA
330
1A31D
100
AcDbEntity
  8
TITLE_BLOCK
  6
CONTINUOUS
 62
     7
100
AcDbVertex
100
AcDb2dVertex
 10
-17.140961
 20
-22.915786
 30
0.0
 70
    16
  0
VERTEX
  5
352DB
330
1A31D
100
AcDbEntity
  8
TITLE_BLOCK
  6
CONTINUOUS
 62
     7
100
AcDbVertex
100
AcDb2dVertex
 10
-17.111781
 20
-22.997387
 30
0.0
 70
    16
  0
VERTEX
  5
352DC
330
1A31D
100
AcDbEntity
  8
TITLE_BLOCK
  6
CONTINUOUS
 62
     7
100
AcDbVertex
100
AcDb2dVertex
 10
-17.080961
 20
-23.078559
 30
0.0
 70
    16
  0
VERTEX
  5
352DD
330
1A31D
100
AcDbEntity
  8
TITLE_BLOCK
  6
CONTINUOUS
 62
     7
100
AcDbVertex
100
AcDb2dVertex
 10
-17.04975
 20
-23.15977
 30
0.0
 70
    16
  0
VERTEX
  5
352DE
330
1A31D
100
AcDbEntity
  8
TITLE_BLOCK
  6
CONTINUOUS
 62
     7
100
AcDbVertex
100
AcDb2dVertex
 10
-17.110961
 20
-23.163364
 30
0.0
 70
    16
  0
VERTEX
  5
352DF
330
1A31D
100
AcDbEntity
  8
TITLE_BLOCK
  6
CONTINUOUS
 62
     7
100
AcDbVertex
100
AcDb2dVertex
 10
-17.172172
 20
-23.166567
 30
0.0
 70
    16
  0
VERTEX
  5
352E0
330
1A31D
100
AcDbEntity
  8
TITLE_BLOCK
  6
CONTINUOUS
 62
     7
100
AcDbVertex
100
AcDb2dVertex
 10
-17.232953
 20
-23.170161
 30
0.0
 70
    16
  0
VERTEX
  5
352E1
330
1A31D
100
AcDbEntity
  8
TITLE_BLOCK
  6
CONTINUOUS
 62
     7
100
AcDbVertex
100
AcDb2dVertex
 10
-17.232953
 20
-23.170161
 30
0.0
 70
    16
  0
VERTEX
  5
352E2
330
1A31D
100
AcDbEntity
  8
TITLE_BLOCK
  6
CONTINUOUS
 62
     7
100
AcDbVertex
100
AcDb2dVertex
 10
-17.232953
 20
-23.170161
 30
0.0
 70
    16
  0
VERTEX
  5
352E3
330
1A31D
100
AcDbEntity
  8
TITLE_BLOCK
  6
CONTINUOUS
 62
     7
100
AcDbVertex
100
AcDb2dVertex
 10
-17.232953
 20
-23.170161
 30
0.0
 70
    16
  0
SEQEND
  5
352E4
330
1A31D
100
AcDbEntity
  8
TITLE_BLOCK
  6
CONTINUOUS
 62
     7
  0
LINE
  5
1A332
330
34C93
100
AcDbEntity
  8
TITLE_BLOCK
  6
CONTINUOUS
 62
     7
100
AcDbLine
 10
-9.62
 20
-17.5
 30
0.0
 11
-9.62
 21
-25.0
 31
0.0
  0
LINE
  5
1A333
330
34C93
100
AcDbEntity
  8
TITLE_BLOCK
  6
CONTINUOUS
 62
     7
100
AcDbLine
 10
-9.12
 20
-17.5
 30
0.0
 11
-9.12
 21
-25.0
 31
0.0
  0
LINE
  5
1A334
330
34C93
100
AcDbEntity
  8
TITLE_BLOCK
  6
CONTINUOUS
 62
     7
100
AcDbLine
 10
-9.12
 20
-25.0
 30
0.0
 11
27.0
 21
-25.0
 31
0.0
  0
LINE
  5
1A335
330
34C93
100
AcDbEntity
  8
TITLE_BLOCK
  6
CONTINUOUS
 62
     7
100
AcDbLine
 10
-9.12
 20
-17.5
 30
0.0
 11
27.0
 21
-17.5
 31
0.0
  0
TEXT
  5
1A33B
330
34C93
100
AcDbEntity
  8
TITLE_BLOCK
100
AcDbText
 10
10.36
 20
-20.88
 30
0.0
 40
1.0
  1
ECLIPSE M601-18
 72
     4
 11
16.74
 21
-20.38
 31
0.0
100
AcDbText
  0
TEXT
  5
1A33C
330
34C93
100
AcDbEntity
  8
TITLE_BLOCK
100
AcDbText
 10
11.981967
 20
-22.558783
 30
0.0
 40
1.0
  1
1/8" REVEAL
 72
     4
 11
16.741967
 21
-22.058783
 31
0.0
100
AcDbText
  0
TEXT
  5
1AC46
330
34C93
100
AcDbEntity
  8
CUTOUT_TEMPLATE
100
AcDbText
 10
-8.325409
 20
-19.087531
 30
0.0
 40
0.38
  1
Eclipse provides DXF cutout templates for
100
AcDbText
  0
TEXT
  5
1AC47
330
34C93
100
AcDbEntity
  8
CUTOUT_TEMPLATE
100
AcDbText
 10
-8.325409
 20
-19.725931
 30
0.0
 40
0.38
  1
the convenience of the fabricator. Stainless
100
AcDbText
  0
TEXT
  5
1AC48
330
34C93
100
AcDbEntity
  8
CUTOUT_TEMPLATE
100
AcDbText
 10
-8.325409
 20
-20.364331
 30
0.0
 40
0.38
  1
sinks have 1/8" reveal, ceramic sinks have 
100
AcDbText
  0
TEXT
  5
1AC49
330
34C93
100
AcDbEntity
  8
CUTOUT_TEMPLATE
100
AcDbText
 10
-8.325409
 20
-21.002731
 30
0.0
 40
0.38
  1
1/2" overhang. Due to differences in
100
AcDbText
  0
TEXT
  5
1AC4A
330
34C93
100
AcDbEntity
  8
CUTOUT_TEMPLATE
100
AcDbText
 10
-8.325409
 20
-21.641131
 30
0.0
 40
0.38
  1
fabricator preference, Eclipse cannot accept 
100
AcDbText
  0
TEXT
  5
1AC4B
330
34C93
100
AcDbEntity
  8
CUTOUT_TEMPLATE
100
AcDbText
 10
-8.325409
 20
-22.279531
 30
0.0
 40
0.38
  1
responsibility for the finished cutout. Please 
100
AcDbText
  0
TEXT
  5
1AC4C
330
34C93
100
AcDbEntity
  8
CUTOUT_TEMPLATE
100
AcDbText
 10
-8.325409
 20
-22.917931
 30
0.0
 40
0.38
  1
check the files carefully to ensure that the 
100
AcDbText
  0
TEXT
  5
1AC4D
330
34C93
100
AcDbEntity
  8
CUTOUT_TEMPLATE
100
AcDbText
 10
-8.325409
 20
-23.556331
 30
0.0
 40
0.38
  1
cutout suits your needs before proceeding.
100
AcDbText
  0
ARC
  5
33F3C
330
34C93
100
AcDbEntity
  8
1
 62
     1
100
AcDbCircle
 10
-9.23962
 20
3.04248
 30
0.0
 40
6.245499499999996
100
AcDbArc
 50
102.182113
 51
178.826473
  0
ARC
  5
33F3D
330
34C93
100
AcDbEntity
  8
1
 62
     1
100
AcDbCircle
 10
-6.331875
 20
-10.426731
 30
0.0
 40
20.02499950000002
100
AcDbArc
 50
77.817887
 51
102.182113
  0
ARC
  5
33F3E
330
34C93
100
AcDbEntity
  8
1
 62
     1
100
AcDbCircle
 10
-3.42413
 20
3.04248
 30
0.0
 40
6.245499499999976
100
AcDbArc
 50
43.859958
 51
77.817887
  0
LINE
  5
33F3F
330
34C93
100
AcDbEntity
  8
1
 62
     1
100
AcDbLine
 10
9.494865
 20
6.448669
 30
0.0
 11
3.242204
 21
6.448669
 31
0.0
  0
ARC
  5
33F40
330
34C93
100
AcDbEntity
  8
1
 62
     1
100
AcDbCircle
 10
9.494865
 20
-18.300731
 30
0.0
 40
24.74939950000002
100
AcDbArc
 50
83.752647
 51
90.0
  0
ARC
  5
33F41
330
34C93
100
AcDbEntity
  8
1
 62
     1
100
AcDbCircle
 10
11.799808
 20
2.754543
 30
0.0
 40
3.568339499999981
100
AcDbArc
 50
4.624912
 51
83.752647
  0
ARC
  5
33F42
330
34C93
100
AcDbEntity
  8
1
 62
     1
100
AcDbCircle
 10
-41.882985
 20
-1.588166
 30
0.0
 40
57.42649950000002
100
AcDbArc
 50
355.375088
 51
4.624912
  0
ARC
  5
33F43
330
34C93
100
AcDbEntity
  8
1
 62
     1
100
AcDbCircle
 10
11.799808
 20
-5.930874
 30
0.0
 40
3.568339500000002
100
AcDbArc
 50
276.247353
 51
355.375088
  0
ARC
  5
33F44
330
34C93
100
AcDbEntity
  8
1
 62
     1
100
AcDbCircle
 10
9.494865
 20
15.124399
 30
0.0
 40
24.74939950000001
100
AcDbArc
 50
270.0
 51
276.247353
  0
LINE
  5
33F45
330
34C93
100
AcDbEntity
  8
1
 62
     1
100
AcDbLine
 10
-6.331875
 20
-9.625
 30
0.0
 11
9.494865
 21
-9.625
 31
0.0
  0
ARC
  5
33F46
330
34C93
100
AcDbEntity
  8
1
 62
     1
100
AcDbCircle
 10
-6.331875
 20
100.950999
 30
0.0
 40
110.5759995
100
AcDbArc
 50
267.325487
 51
270.0
  0
ARC
  5
33F47
330
34C93
100
AcDbEntity
  8
1
 62
     1
100
AcDbCircle
 10
-11.295685
 20
-5.310866
 30
0.0
 40
4.198259499999975
100
AcDbArc
 50
181.047219
 51
267.325487
  0
ARC
  5
33F48
330
34C93
100
AcDbEntity
  8
1
 62
     1
100
AcDbCircle
 10
205.281875
 20
-1.351946
 30
0.0
 40
220.8119994999999
100
AcDbArc
 50
178.826473
 51
181.047219
  0
LINE
  5
33F4A
330
34C93
100
AcDbEntity
  8
1
 62
     1
100
AcDbLine
 10
-3.0
 20
0.0
 30
0.0
 11
3.0
 21
0.0
 31
0.0
  0
LINE
  5
33F4B
330
34C93
100
AcDbEntity
  8
1
 62
     1
100
AcDbLine
 10
0.0
 20
-3.0
 30
0.0
 11
0.0
 21
3.0
 31
0.0
  0
TEXT
  5
33F4C
330
34C93
100
AcDbEntity
  8
1
 62
     7
100
AcDbText
 10
5.293479
 20
2.745607
 30
0.0
 40
1.0
  1
ECLIPSE
 72
     4
 11
8.163479
 21
3.245607
 31
0.0
100
AcDbText
  0
TEXT
  5
33F4D
330
34C93
100
AcDbEntity
  8
1
 62
     7
100
AcDbText
 10
5.13
 20
1.09
 30
0.0
 40
1.0
  1
M601-18
 72
     4
 11
8.17
 21
1.59
 31
0.0
100
AcDbText
  0
ARC
  5
345E2
330
34C93
100
AcDbEntity
  8
1
 62
     1
100
AcDbCircle
 10
3.242204
 20
9.448669
 30
0.0
 40
3.0
100
AcDbArc
 50
223.859958
 51
270.0
  0
ENDSEC
  0
SECTION
  2
OBJECTS
  0
DICTIONARY
  5
34C81
330
0
100
AcDbDictionary
  3
ACAD_COLOR
350
1A5E1
  3
ACAD_GROUP
350
34C82
  3
ACAD_LAYOUT
350
34C8E
  3
ACAD_MATERIAL
350
1A5E2
  3
ACAD_MLINESTYLE
350
34C8B
  3
ACAD_PLOTSETTINGS
350
19
  3
ACDBHEADERROUNDTRIPXREC
350
352E5
  0
DICTIONARY
  5
1A5E1
102
{ACAD_REACTORS
330
34C81
102
}
330
34C81
100
AcDbDictionary
  0
DICTIONARY
  5
34C82
102
{ACAD_REACTORS
330
34C81
102
}
330
34C81
100
AcDbDictionary
  0
DICTIONARY
  5
34C8E
102
{ACAD_REACTORS
330
34C81
102
}
330
34C81
100
AcDbDictionary
  0
DICTIONARY
  5
1A5E2
102
{ACAD_REACTORS
330
34C81
102
}
330
34C81
100
AcDbDictionary
  0
DICTIONARY
  5
34C8B
102
{ACAD_REACTORS
330
34C81
102
}
330
34C81
100
AcDbDictionary
  3
STANDARD
350
34C8C
  0
DICTIONARY
  5
19
102
{ACAD_REACTORS
330
34C81
102
}
330
34C81
100
AcDbDictionary
  0
DICTIONARY
  5
352E5
102
{ACAD_REACTORS
330
34C81
102
}
330
34C81
100
AcDbDictionary
  3
CEPSNTYPE
350
352EE
  3
COLORDICT
350
35305
  3
DIMSTYLEDATA
350
35304
  3
FINGERPRINTGUID
350
352EF
  3
HYPERLINKBASE
350
352E8
  3
INSUNITS
350
352ED
  3
LAYOUTDICT
350
352EA
  3
LWETCUNION
350
352EC
  3
MATERIALDICT
350
35306
  3
PLOTSETDICT
350
352EB
  3
PSVPSCALE
350
352F1
  3
PUCSBASE
350
352F4
  3
PUCSORGBACK
350
352FA
  3
PUCSORGBOTTOM
350
352F6
  3
PUCSORGFRONT
350
352F9
  3
PUCSORGLEFT
350
352F7
  3
PUCSORGRIGHT
350
352F8
  3
PUCSORGTOP
350
352F5
  3
PUCSORTHOREF
350
352F2
  3
PUCSORTHOVIEW
350
352F3
  3
STYLESHEET
350
352E9
  3
TSTACKALIGN
350
352E6
  3
TSTACKSIZE
350
352E7
  3
UCSBASE
350
352FD
  3
UCSORGBACK
350
35303
  3
UCSORGBOTTOM
350
352FF
  3
UCSORGFRONT
350
35302
  3
UCSORGLEFT
350
35300
  3
UCSORGRIGHT
350
35301
  3
UCSORGTOP
350
352FE
  3
UCSORTHOREF
350
352FB
  3
UCSORTHOVIEW
350
352FC
  3
VERSIONGUID
350
352F0
  0
MLINESTYLE
  5
34C8C
102
{ACAD_REACTORS
330
34C8B
102
}
330
34C8B
100
AcDbMlineStyle
  2
Standard
 70
     0
  3

 62
   256
 51
90.0
 52
90.0
 71
     2
 49
0.5
 62
   256
  6
BYLAYER
 49
-0.5
 62
   256
  6
BYLAYER
  0
XRECORD
  5
352EE
102
{ACAD_REACTORS
330
352E5
102
}
330
352E5
100
AcDbXrecord
 90
        0
  0
XRECORD
  5
35305
102
{ACAD_REACTORS
330
352E5
102
}
330
352E5
100
AcDbXrecord
340
1A5E1
  0
XRECORD
  5
35304
102
{ACAD_REACTORS
330
352E5
102
}
330
352E5
100
AcDbXrecord
1000
DSTYLE
1002
{
1070
   278
 70
     0
1070
   371
 70
     0
1070
   372
 70
     0
1070
    40
 40
10.0
1070
   340
340
34C86
1002
}
  0
XRECORD
  5
352EF
102
{ACAD_REACTORS
330
352E5
102
}
330
352E5
100
AcDbXrecord
  1

  0
XRECORD
  5
352E8
102
{ACAD_REACTORS
330
352E5
102
}
330
352E5
100
AcDbXrecord
  1

  0
XRECORD
  5
352ED
102
{ACAD_REACTORS
330
352E5
102
}
330
352E5
100
AcDbXrecord
 90
        0
  0
XRECORD
  5
352EA
102
{ACAD_REACTORS
330
352E5
102
}
330
352E5
100
AcDbXrecord
340
34C8E
  0
XRECORD
  5
352EC
102
{ACAD_REACTORS
330
352E5
102
}
330
352E5
100
AcDbXrecord
 90
    10781
  0
XRECORD
  5
35306
102
{ACAD_REACTORS
330
352E5
102
}
330
352E5
100
AcDbXrecord
340
1A5E2
  0
XRECORD
  5
352EB
102
{ACAD_REACTORS
330
352E5
102
}
330
352E5
100
AcDbXrecord
340
19
  0
XRECORD
  5
352F1
102
{ACAD_REACTORS
330
352E5
102
}
330
352E5
100
AcDbXrecord
 40
0.0
  0
XRECORD
  5
352F4
102
{ACAD_REACTORS
330
352E5
102
}
330
352E5
100
AcDbXrecord
340
0
  0
XRECORD
  5
352FA
102
{ACAD_REACTORS
330
352E5
102
}
330
352E5
100
AcDbXrecord
 10
0.0
 20
0.0
 30
0.0
  0
XRECORD
  5
352F6
102
{ACAD_REACTORS
330
352E5
102
}
330
352E5
100
AcDbXrecord
 10
0.0
 20
0.0
 30
0.0
  0
XRECORD
  5
352F9
102
{ACAD_REACTORS
330
352E5
102
}
330
352E5
100
AcDbXrecord
 10
0.0
 20
0.0
 30
0.0
  0
XRECORD
  5
352F7
102
{ACAD_REACTORS
330
352E5
102
}
330
352E5
100
AcDbXrecord
 10
0.0
 20
0.0
 30
0.0
  0
XRECORD
  5
352F8
102
{ACAD_REACTORS
330
352E5
102
}
330
352E5
100
AcDbXrecord
 10
0.0
 20
0.0
 30
0.0
  0
XRECORD
  5
352F5
102
{ACAD_REACTORS
330
352E5
102
}
330
352E5
100
AcDbXrecord
 10
0.0
 20
0.0
 30
0.0
  0
XRECORD
  5
352F2
102
{ACAD_REACTORS
330
352E5
102
}
330
352E5
100
AcDbXrecord
340
0
  0
XRECORD
  5
352F3
102
{ACAD_REACTORS
330
352E5
102
}
330
352E5
100
AcDbXrecord
 70
     0
  0
XRECORD
  5
352E9
102
{ACAD_REACTORS
330
352E5
102
}
330
352E5
100
AcDbXrecord
  1

  0
XRECORD
  5
352E6
102
{ACAD_REACTORS
330
352E5
102
}
330
352E5
100
AcDbXrecord
 90
        1
  0
XRECORD
  5
352E7
102
{ACAD_REACTORS
330
352E5
102
}
330
352E5
100
AcDbXrecord
 90
       70
  0
XRECORD
  5
352FD
102
{ACAD_REACTORS
330
352E5
102
}
330
352E5
100
AcDbXrecord
340
0
  0
XRECORD
  5
35303
102
{ACAD_REACTORS
330
352E5
102
}
330
352E5
100
AcDbXrecord
 10
0.0
 20
0.0
 30
0.0
  0
XRECORD
  5
352FF
102
{ACAD_REACTORS
330
352E5
102
}
330
352E5
100
AcDbXrecord
 10
0.0
 20
0.0
 30
0.0
  0
XRECORD
  5
35302
102
{ACAD_REACTORS
330
352E5
102
}
330
352E5
100
AcDbXrecord
 10
0.0
 20
0.0
 30
0.0
  0
XRECORD
  5
35300
102
{ACAD_REACTORS
330
352E5
102
}
330
352E5
100
AcDbXrecord
 10
0.0
 20
0.0
 30
0.0
  0
XRECORD
  5
35301
102
{ACAD_REACTORS
330
352E5
102
}
330
352E5
100
AcDbXrecord
 10
0.0
 20
0.0
 30
0.0
  0
XRECORD
  5
352FE
102
{ACAD_REACTORS
330
352E5
102
}
330
352E5
100
AcDbXrecord
 10
0.0
 20
0.0
 30
0.0
  0
XRECORD
  5
352FB
102
{ACAD_REACTORS
330
352E5
102
}
330
352E5
100
AcDbXrecord
340
0
  0
XRECORD
  5
352FC
102
{ACAD_REACTORS
330
352E5
102
}
330
352E5
100
AcDbXrecord
 70
     0
  0
XRECORD
  5
352F0
102
{ACAD_REACTORS
330
352E5
102
}
330
352E5
100
AcDbXrecord
  1

  0
ENDSEC
  0
EOF
