  0
SECTION
  2
HEADER
  9
$ACADVER
  1
AC1014
  9
$ACADMAINTVER
 70
     9
  9
$DWGCODEPAGE
  3
ANSI_1252
  9
$INSBASE
 10
0.0
 20
0.0
 30
0.0
  9
$EXTMIN
 10
-27.5
 20
-25.5
 30
0.0
  9
$EXTMAX
 10
27.5
 20
17.0
 30
0.0
  9
$LIMMIN
 10
0.0
 20
0.0
  9
$LIMMAX
 10
12.0
 20
9.0
  9
$ORTHOMODE
 70
     1
  9
$REGENMODE
 70
     1
  9
$FILLMODE
 70
     1
  9
$QTEXTMODE
 70
     0
  9
$MIRRTEXT
 70
     0
  9
$DRAGMODE
 70
     2
  9
$LTSCALE
 40
1.0
  9
$OSMODE
 70
    37
  9
$ATTMODE
 70
     1
  9
$TEXTSIZE
 40
0.25
  9
$TRACEWID
 40
0.05
  9
$TEXTSTYLE
  7
STANDARD
  9
$CLAYER
  8
CUTOUT_TEMPLATE
  9
$CELTYPE
  6
BYLAYER
  9
$CECOLOR
 62
   256
  9
$CELTSCALE
 40
1.0
  9
$DELOBJ
 70
     1
  9
$DISPSILH
 70
     0
  9
$DIMSCALE
 40
10.0
  9
$DIMASZ
 40
0.18
  9
$DIMEXO
 40
0.0625
  9
$DIMDLI
 40
0.38
  9
$DIMRND
 40
0.0
  9
$DIMDLE
 40
0.0
  9
$DIMEXE
 40
0.18
  9
$DIMTP
 40
0.0
  9
$DIMTM
 40
0.0
  9
$DIMTXT
 40
0.18
  9
$DIMCEN
 40
0.09
  9
$DIMTSZ
 40
0.0
  9
$DIMTOL
 70
     0
  9
$DIMLIM
 70
     0
  9
$DIMTIH
 70
     1
  9
$DIMTOH
 70
     1
  9
$DIMSE1
 70
     0
  9
$DIMSE2
 70
     0
  9
$DIMTAD
 70
     0
  9
$DIMZIN
 70
     0
  9
$DIMBLK
  1

  9
$DIMASO
 70
     1
  9
$DIMSHO
 70
     1
  9
$DIMPOST
  1

  9
$DIMAPOST
  1

  9
$DIMALT
 70
     0
  9
$DIMALTD
 70
     2
  9
$DIMALTF
 40
25.4
  9
$DIMLFAC
 40
1.0
  9
$DIMTOFL
 70
     0
  9
$DIMTVP
 40
0.0
  9
$DIMTIX
 70
     0
  9
$DIMSOXD
 70
     0
  9
$DIMSAH
 70
     0
  9
$DIMBLK1
  1

  9
$DIMBLK2
  1

  9
$DIMSTYLE
  2
STANDARD
  9
$DIMCLRD
 70
     0
  9
$DIMCLRE
 70
     0
  9
$DIMCLRT
 70
     0
  9
$DIMTFAC
 40
1.0
  9
$DIMGAP
 40
0.09
  9
$DIMJUST
 70
     0
  9
$DIMSD1
 70
     0
  9
$DIMSD2
 70
     0
  9
$DIMTOLJ
 70
     1
  9
$DIMTZIN
 70
     0
  9
$DIMALTZ
 70
     0
  9
$DIMALTTZ
 70
     0
  9
$DIMFIT
 70
     3
  9
$DIMUPT
 70
     0
  9
$DIMUNIT
 70
     2
  9
$DIMDEC
 70
     4
  9
$DIMTDEC
 70
     4
  9
$DIMALTU
 70
     2
  9
$DIMALTTD
 70
     2
  9
$DIMTXSTY
  7
STANDARD
  9
$DIMAUNIT
 70
     0
  9
$LUNITS
 70
     2
  9
$LUPREC
 70
     2
  9
$SKETCHINC
 40
0.1
  9
$FILLETRAD
 40
0.0
  9
$AUNITS
 70
     0
  9
$AUPREC
 70
     0
  9
$MENU
  1
acad
  9
$ELEVATION
 40
0.0
  9
$PELEVATION
 40
0.0
  9
$THICKNESS
 40
0.0
  9
$LIMCHECK
 70
     0
  9
$CHAMFERA
 40
0.0
  9
$CHAMFERB
 40
0.0
  9
$CHAMFERC
 40
1.0
  9
$CHAMFERD
 40
0.0
  9
$SKPOLY
 70
     0
  9
$TDCREATE
 40
2447892.791666667
  9
$TDUPDATE
 40
2447892.791666667
  9
$TDINDWG
 40
0.0
  9
$TDUSRTIMER
 40
0.0
  9
$USRTIMER
 70
     1
  9
$ANGBASE
 50
0.0
  9
$ANGDIR
 70
     0
  9
$PDMODE
 70
    34
  9
$PDSIZE
 40
0.0
  9
$PLINEWID
 40
0.0
  9
$COORDS
 70
     1
  9
$SPLFRAME
 70
     0
  9
$SPLINETYPE
 70
     6
  9
$SPLINESEGS
 70
     8
  9
$ATTDIA
 70
     0
  9
$ATTREQ
 70
     1
  9
$HANDLING
 70
     1
  9
$HANDSEED
  5
3387C
  9
$SURFTAB1
 70
     6
  9
$SURFTAB2
 70
     6
  9
$SURFTYPE
 70
     6
  9
$SURFU
 70
     6
  9
$SURFV
 70
     6
  9
$UCSNAME
  2

  9
$UCSORG
 10
0.0
 20
0.0
 30
0.0
  9
$UCSXDIR
 10
1.0
 20
0.0
 30
0.0
  9
$UCSYDIR
 10
0.0
 20
1.0
 30
0.0
  9
$PUCSNAME
  2

  9
$PUCSORG
 10
0.0
 20
0.0
 30
0.0
  9
$PUCSXDIR
 10
1.0
 20
0.0
 30
0.0
  9
$PUCSYDIR
 10
0.0
 20
1.0
 30
0.0
  9
$USERI1
 70
     0
  9
$USERI2
 70
     0
  9
$USERI3
 70
     0
  9
$USERI4
 70
     0
  9
$USERI5
 70
     0
  9
$USERR1
 40
0.0
  9
$USERR2
 40
0.0
  9
$USERR3
 40
0.0
  9
$USERR4
 40
0.0
  9
$USERR5
 40
0.0
  9
$WORLDVIEW
 70
     1
  9
$SHADEDGE
 70
     1
  9
$SHADEDIF
 70
    70
  9
$TILEMODE
 70
     1
  9
$MAXACTVP
 70
    16
  9
$PINSBASE
 10
0.0
 20
0.0
 30
0.0
  9
$PLIMCHECK
 70
     0
  9
$PEXTMIN
 10
1.000000E+20
 20
1.000000E+20
 30
1.000000E+20
  9
$PEXTMAX
 10
-1.000000E+20
 20
-1.000000E+20
 30
-1.000000E+20
  9
$PLIMMIN
 10
0.0
 20
0.0
  9
$PLIMMAX
 10
12.0
 20
9.0
  9
$UNITMODE
 70
     0
  9
$VISRETAIN
 70
     0
  9
$PLINEGEN
 70
     0
  9
$PSLTSCALE
 70
     0
  9
$TREEDEPTH
 70
  3020
  9
$PICKSTYLE
 70
     1
  9
$CMLSTYLE
  2
STANDARD
  9
$CMLJUST
 70
     0
  9
$CMLSCALE
 40
1.0
  9
$PROXYGRAPHICS
 70
     1
  9
$MEASUREMENT
 70
     0
  0
ENDSEC
  0
SECTION
  2
CLASSES
  0
CLASS
  1
ACDBDICTIONARYWDFLT
  2
AcDbDictionaryWithDefault
  3
ObjectDBX Classes
 90
        0
280
     0
281
     0
  0
CLASS
  1
XRECORD
  2
AcDbXrecord
  3
AutoCAD 2000
 90
        0
280
     0
281
     0
  0
CLASS
  1
LWPOLYLINE
  2
AcDbPolyline
  3
AutoCAD 2000
 90
        0
280
     0
281
     1
  0
CLASS
  1
HATCH
  2
AcDbHatch
  3
AutoCAD 2000
 90
        0
280
     0
281
     1
  0
CLASS
  1
ACDBPLACEHOLDER
  2
AcDbPlaceHolder
  3
ObjectDBX Classes
 90
        0
280
     0
281
     0
  0
CLASS
  1
LAYOUT
  2
AcDbLayout
  3
ObjectDBX Classes
 90
        0
280
     0
281
     0
  0
ENDSEC
  0
SECTION
  2
TABLES
  0
TABLE
  2
VPORT
  5
33203
330
0
100
AcDbSymbolTable
 70
     2
  0
VPORT
  5
33232
330
33203
100
AcDbSymbolTableRecord
100
AcDbViewportTableRecord
  2
*ACTIVE
 70
     0
 10
0.0
 20
0.0
 11
1.0
 21
1.0
 12
-26.261651
 22
-4.25
 13
0.0
 23
0.0
 14
1.0
 24
1.0
 15
1.0
 25
1.0
 16
0.0
 26
0.0
 36
1.0
 17
0.0
 27
0.0
 37
0.0
 40
44.625
 41
1.294118
 42
50.0
 43
0.0
 44
0.0
 50
0.0
 51
0.0
 71
     0
 72
   100
 73
     1
 74
     1
 75
     0
 76
     0
 77
     0
 78
     0
  0
ENDTAB
  0
TABLE
  2
LTYPE
  5
33200
330
0
100
AcDbSymbolTable
 70
     4
  0
LTYPE
  5
3320E
330
33200
100
AcDbSymbolTableRecord
100
AcDbLinetypeTableRecord
  2
BYBLOCK
 70
     0
  3

 72
    65
 73
     0
 40
0.0
  0
LTYPE
  5
3320F
330
33200
100
AcDbSymbolTableRecord
100
AcDbLinetypeTableRecord
  2
BYLAYER
 70
     0
  3

 72
    65
 73
     0
 40
0.0
  0
LTYPE
  5
33210
330
33200
100
AcDbSymbolTableRecord
100
AcDbLinetypeTableRecord
  2
CONTINUOUS
 70
     0
  3
Solid Line
 72
    65
 73
     0
 40
0.0
  0
LTYPE
  5
33229
330
33200
100
AcDbSymbolTableRecord
100
AcDbLinetypeTableRecord
  2
DASHDOT
 70
     0
  3
DashDot __ . __ . __ . __ . __ . __ . __ . __ . __ . __ . __
 72
    65
 73
     4
 40
1.0
 49
0.5
 74
     0
 49
-0.25
 74
     0
 49
0.0
 74
     0
 49
-0.25
 74
     0
  0
LTYPE
  5
3322A
330
33200
100
AcDbSymbolTableRecord
100
AcDbLinetypeTableRecord
  2
DRAW
 70
     0
  3
 on template _________________________________
 72
    65
 73
     2
 40
1.25
 49
1.25
 74
     0
 49
0.0
 74
     0
  0
LTYPE
  5
3322B
330
33200
100
AcDbSymbolTableRecord
100
AcDbLinetypeTableRecord
  2
EUROPEANCUT
 70
     0
  3
 on template _________________________________
 72
    65
 73
     2
 40
1.25
 49
1.25
 74
     0
 49
0.0
 74
     0
  0
ENDTAB
  0
TABLE
  2
LAYER
  5
331FD
330
0
100
AcDbSymbolTable
 70
     5
  0
LAYER
  5
3320B
330
331FD
100
AcDbSymbolTableRecord
100
AcDbLayerTableRecord
  2
0
 70
     0
 62
     7
  6
CONTINUOUS
  0
LAYER
  5
3322C
330
331FD
100
AcDbSymbolTableRecord
100
AcDbLayerTableRecord
  2
1
 70
     0
 62
     7
  6
CONTINUOUS
  0
LAYER
  5
3322D
330
331FD
100
AcDbSymbolTableRecord
100
AcDbLayerTableRecord
  2
CUTOUT_TEMPLATE
 70
     0
 62
     7
  6
CONTINUOUS
  0
LAYER
  5
3322E
330
331FD
100
AcDbSymbolTableRecord
100
AcDbLayerTableRecord
  2
DEFPOINTS
 70
     0
 62
     7
  6
CONTINUOUS
  0
LAYER
  5
3322F
330
331FD
100
AcDbSymbolTableRecord
100
AcDbLayerTableRecord
  2
TITLE_BLOCK
 70
     0
 62
     7
  6
CONTINUOUS
  0
ENDTAB
  0
TABLE
  2
STYLE
  5
331FE
330
0
100
AcDbSymbolTable
 70
     1
  0
STYLE
  5
3320C
330
331FE
100
AcDbSymbolTableRecord
100
AcDbTextStyleTableRecord
  2
STANDARD
 70
     0
 40
0.0
 41
1.0
 50
0.0
 71
     0
 42
0.25
  3
TXT.SHX
  4

  0
ENDTAB
  0
TABLE
  2
VIEW
  5
33201
330
0
100
AcDbSymbolTable
 70
     0
  0
ENDTAB
  0
TABLE
  2
UCS
  5
33202
330
0
100
AcDbSymbolTable
 70
     0
  0
ENDTAB
  0
TABLE
  2
APPID
  5
33204
330
0
100
AcDbSymbolTable
 70
     3
  0
APPID
  5
3320D
330
33204
100
AcDbSymbolTableRecord
100
AcDbRegAppTableRecord
  2
ACAD
 70
     0
  0
APPID
  5
33230
330
33204
100
AcDbSymbolTableRecord
100
AcDbRegAppTableRecord
  2
ARROW_TEXT
 70
     0
  0
APPID
  5
33231
330
33204
100
AcDbSymbolTableRecord
100
AcDbRegAppTableRecord
  2
TCAD
 70
     0
  0
ENDTAB
  0
TABLE
  2
DIMSTYLE
  5
33205
330
0
100
AcDbSymbolTable
 70
     1
  0
DIMSTYLE
105
33221
330
33205
100
AcDbSymbolTableRecord
100
AcDbDimStyleTableRecord
  2
STANDARD
 70
     0
  3

  4

  5

  6

  7

 40
1.0
 41
0.18
 42
0.0625
 43
0.38
 44
0.18
 45
0.0
 46
0.0
 47
0.0
 48
0.0
140
0.18
141
0.09
142
0.0
143
25.4
144
1.0
145
0.0
146
1.0
147
0.09
 71
     0
 72
     0
 73
     1
 74
     1
 75
     0
 76
     0
 77
     0
 78
     0
170
     0
171
     2
172
     0
173
     0
174
     0
175
     0
176
     0
177
     0
178
     0
270
     2
271
     4
272
     4
273
     2
274
     2
340
3320C
275
     0
280
     0
281
     0
282
     0
283
     1
284
     0
285
     0
286
     0
287
     3
288
     0
  0
ENDTAB
  0
TABLE
  2
BLOCK_RECORD
  5
331FC
330
0
100
AcDbSymbolTable
 70
     2
  0
BLOCK_RECORD
  5
33219
330
331FC
100
AcDbSymbolTableRecord
100
AcDbBlockTableRecord
  2
*MODEL_SPACE
  0
BLOCK_RECORD
  5
33215
330
331FC
100
AcDbSymbolTableRecord
100
AcDbBlockTableRecord
  2
*PAPER_SPACE
  0
BLOCK_RECORD
  5
33226
330
331FC
100
AcDbSymbolTableRecord
100
AcDbBlockTableRecord
  2
ARROW
  0
ENDTAB
  0
ENDSEC
  0
SECTION
  2
BLOCKS
  0
BLOCK
  5
3321A
330
33219
100
AcDbEntity
  8
0
100
AcDbBlockBegin
  2
*MODEL_SPACE
 70
     0
 71
     0
 10
0.0
 20
0.0
 30
0.0
  3
*MODEL_SPACE
  1

  0
ENDBLK
  5
3321B
330
33219
100
AcDbEntity
  8
0
100
AcDbBlockEnd
  0
BLOCK
  5
33216
330
33215
100
AcDbEntity
 67
     1
  8
0
100
AcDbBlockBegin
  2
*PAPER_SPACE
 70
     0
 71
     0
 10
0.0
 20
0.0
 30
0.0
  3
*PAPER_SPACE
  1

  0
ENDBLK
  5
33217
330
33215
100
AcDbEntity
 67
     1
  8
0
100
AcDbBlockEnd
  0
BLOCK
  5
33227
330
33226
100
AcDbEntity
  8
0
100
AcDbBlockBegin
  2
ARROW
 70
     0
 71
     0
 10
0.0
 20
0.0
 30
0.0
  3
ARROW
  1

  0
SOLID
  5
1A33D
330
33226
100
AcDbEntity
  8
0
  6
CONTINUOUS
 62
     0
100
AcDbTrace
 10
-1.0
 20
0.176
 30
0.0
 11
-1.0
 21
-0.176
 31
0.0
 12
0.0
 22
0.0
 32
0.0
 13
0.0
 23
0.0
 33
0.0
  0
ENDBLK
  5
33228
330
33226
100
AcDbEntity
  8
0
100
AcDbBlockEnd
  0
ENDSEC
  0
SECTION
  2
ENTITIES
  0
LINE
  5
19CFE
330
33219
100
AcDbEntity
  8
TITLE_BLOCK
  6
CONTINUOUS
 62
     7
100
AcDbLine
 10
-27.5
 20
17.0
 30
0.0
 11
-27.5
 21
-25.5
 31
0.0
  0
LINE
  5
19CFF
330
33219
100
AcDbEntity
  8
TITLE_BLOCK
  6
CONTINUOUS
 62
     7
100
AcDbLine
 10
-27.5
 20
-25.5
 30
0.0
 11
27.5
 21
-25.5
 31
0.0
  0
LINE
  5
19D00
330
33219
100
AcDbEntity
  8
TITLE_BLOCK
  6
CONTINUOUS
 62
     7
100
AcDbLine
 10
27.5
 20
-25.5
 30
0.0
 11
27.5
 21
17.0
 31
0.0
  0
LINE
  5
19D01
330
33219
100
AcDbEntity
  8
TITLE_BLOCK
  6
CONTINUOUS
 62
     7
100
AcDbLine
 10
27.5
 20
17.0
 30
0.0
 11
-27.5
 21
17.0
 31
0.0
  0
LINE
  5
19D02
330
33219
100
AcDbEntity
  8
TITLE_BLOCK
  6
CONTINUOUS
 62
     7
100
AcDbLine
 10
-27.5
 20
-17.0
 30
0.0
 11
27.5
 21
-17.0
 31
0.0
  0
LINE
  5
19D03
330
33219
100
AcDbEntity
  8
TITLE_BLOCK
  6
CONTINUOUS
 62
     7
100
AcDbLine
 10
-27.0
 20
16.5
 30
0.0
 11
-27.0
 21
-16.5
 31
0.0
  0
LINE
  5
19D04
330
33219
100
AcDbEntity
  8
TITLE_BLOCK
  6
CONTINUOUS
 62
     7
100
AcDbLine
 10
27.0
 20
16.5
 30
0.0
 11
-27.0
 21
16.5
 31
0.0
  0
LINE
  5
19D05
330
33219
100
AcDbEntity
  8
TITLE_BLOCK
  6
CONTINUOUS
 62
     7
100
AcDbLine
 10
-27.0
 20
-16.5
 30
0.0
 11
27.0
 21
-16.5
 31
0.0
  0
LINE
  5
19D06
330
33219
100
AcDbEntity
  8
TITLE_BLOCK
  6
CONTINUOUS
 62
     7
100
AcDbLine
 10
-27.0
 20
-17.5
 30
0.0
 11
-9.62
 21
-17.5
 31
0.0
  0
LINE
  5
19D07
330
33219
100
AcDbEntity
  8
TITLE_BLOCK
  6
CONTINUOUS
 62
     7
100
AcDbLine
 10
-27.0
 20
-25.0
 30
0.0
 11
-9.62
 21
-25.0
 31
0.0
  0
LINE
  5
19D08
330
33219
100
AcDbEntity
  8
TITLE_BLOCK
  6
CONTINUOUS
 62
     7
100
AcDbLine
 10
27.0
 20
-16.5
 30
0.0
 11
27.0
 21
16.5
 31
0.0
  0
LINE
  5
19D09
330
33219
100
AcDbEntity
  8
TITLE_BLOCK
  6
CONTINUOUS
 62
     7
100
AcDbLine
 10
-27.0
 20
-17.5
 30
0.0
 11
-27.0
 21
-25.0
 31
0.0
  0
LINE
  5
19D0A
330
33219
100
AcDbEntity
  8
TITLE_BLOCK
  6
CONTINUOUS
 62
     7
100
AcDbLine
 10
27.0
 20
-25.0
 30
0.0
 11
27.0
 21
-17.5
 31
0.0
  0
POLYLINE
  5
19D0B
330
33219
100
AcDbEntity
  8
TITLE_BLOCK
  6
CONTINUOUS
 62
     7
100
AcDb2dPolyline
 66
     1
 10
0.0
 20
0.0
 30
0.0
 70
     5
 75
     5
  0
VERTEX
  5
33233
330
19D0B
100
AcDbEntity
  8
TITLE_BLOCK
  6
CONTINUOUS
 62
     7
100
AcDbVertex
100
AcDb2dVertex
 10
-22.714945
 20
-19.623364
 30
0.0
 70
     8
  0
VERTEX
  5
33234
330
19D0B
100
AcDbEntity
  8
TITLE_BLOCK
  6
CONTINUOUS
 62
     7
100
AcDbVertex
100
AcDb2dVertex
 10
-22.12179
 20
-19.286717
 30
0.0
 70
     8
  0
VERTEX
  5
33235
330
19D0B
100
AcDbEntity
  8
TITLE_BLOCK
  6
CONTINUOUS
 62
     7
100
AcDbVertex
100
AcDb2dVertex
 10
-21.502943
 20
-19.000248
 30
0.0
 70
     8
  0
VERTEX
  5
33236
330
19D0B
100
AcDbEntity
  8
TITLE_BLOCK
  6
CONTINUOUS
 62
     7
100
AcDbVertex
100
AcDb2dVertex
 10
-20.862787
 20
-18.765127
 30
0.0
 70
     8
  0
VERTEX
  5
33237
330
19D0B
100
AcDbEntity
  8
TITLE_BLOCK
  6
CONTINUOUS
 62
     7
100
AcDbVertex
100
AcDb2dVertex
 10
-20.205704
 20
-18.582519
 30
0.0
 70
     8
  0
VERTEX
  5
33238
330
19D0B
100
AcDbEntity
  8
TITLE_BLOCK
  6
CONTINUOUS
 62
     7
100
AcDbVertex
100
AcDb2dVertex
 10
-19.536078
 20
-18.453592
 30
0.0
 70
     8
  0
VERTEX
  5
33239
330
19D0B
100
AcDbEntity
  8
TITLE_BLOCK
  6
CONTINUOUS
 62
     7
100
AcDbVertex
100
AcDb2dVertex
 10
-18.858291
 20
-18.379514
 30
0.0
 70
     8
  0
VERTEX
  5
3323A
330
19D0B
100
AcDbEntity
  8
TITLE_BLOCK
  6
CONTINUOUS
 62
     7
100
AcDbVertex
100
AcDb2dVertex
 10
-18.176725
 20
-18.361451
 30
0.0
 70
     8
  0
VERTEX
  5
3323B
330
19D0B
100
AcDbEntity
  8
TITLE_BLOCK
  6
CONTINUOUS
 62
     7
100
AcDbVertex
100
AcDb2dVertex
 10
-17.495765
 20
-18.400571
 30
0.0
 70
     8
  0
VERTEX
  5
3323C
330
19D0B
100
AcDbEntity
  8
TITLE_BLOCK
  6
CONTINUOUS
 62
     7
100
AcDbVertex
100
AcDb2dVertex
 10
-16.724623
 20
-18.508402
 30
0.0
 70
     8
  0
VERTEX
  5
3323D
330
19D0B
100
AcDbEntity
  8
TITLE_BLOCK
  6
CONTINUOUS
 62
     7
100
AcDbVertex
100
AcDb2dVertex
 10
-15.968325
 20
-18.68976
 30
0.0
 70
     8
  0
VERTEX
  5
3323E
330
19D0B
100
AcDbEntity
  8
TITLE_BLOCK
  6
CONTINUOUS
 62
     7
100
AcDbVertex
100
AcDb2dVertex
 10
-15.232405
 20
-18.941149
 30
0.0
 70
     8
  0
VERTEX
  5
3323F
330
19D0B
100
AcDbEntity
  8
TITLE_BLOCK
  6
CONTINUOUS
 62
     7
100
AcDbVertex
100
AcDb2dVertex
 10
-14.522396
 20
-19.259072
 30
0.0
 70
     8
  0
VERTEX
  5
33240
330
19D0B
100
AcDbEntity
  8
TITLE_BLOCK
  6
CONTINUOUS
 62
     7
100
AcDbVertex
100
AcDb2dVertex
 10
-13.843834
 20
-19.640032
 30
0.0
 70
     8
  0
VERTEX
  5
33241
330
19D0B
100
AcDbEntity
  8
TITLE_BLOCK
  6
CONTINUOUS
 62
     7
100
AcDbVertex
100
AcDb2dVertex
 10
-13.202253
 20
-20.080534
 30
0.0
 70
     8
  0
VERTEX
  5
33242
330
19D0B
100
AcDbEntity
  8
TITLE_BLOCK
  6
CONTINUOUS
 62
     7
100
AcDbVertex
100
AcDb2dVertex
 10
-12.603188
 20
-20.577081
 30
0.0
 70
     8
  0
VERTEX
  5
33243
330
19D0B
100
AcDbEntity
  8
TITLE_BLOCK
  6
CONTINUOUS
 62
     7
100
AcDbVertex
100
AcDb2dVertex
 10
-12.052172
 20
-21.126176
 30
0.0
 70
     8
  0
VERTEX
  5
33244
330
19D0B
100
AcDbEntity
  8
TITLE_BLOCK
  6
CONTINUOUS
 62
     7
100
AcDbVertex
100
AcDb2dVertex
 10
-11.525129
 20
-21.755985
 30
0.0
 70
     8
  0
VERTEX
  5
33245
330
19D0B
100
AcDbEntity
  8
TITLE_BLOCK
  6
CONTINUOUS
 62
     7
100
AcDbVertex
100
AcDb2dVertex
 10
-11.060013
 20
-22.432932
 30
0.0
 70
     8
  0
VERTEX
  5
33246
330
19D0B
100
AcDbEntity
  8
TITLE_BLOCK
  6
CONTINUOUS
 62
     7
100
AcDbVertex
100
AcDb2dVertex
 10
-10.661269
 20
-23.150904
 30
0.0
 70
     8
  0
VERTEX
  5
33247
330
19D0B
100
AcDbEntity
  8
TITLE_BLOCK
  6
CONTINUOUS
 62
     7
100
AcDbVertex
100
AcDb2dVertex
 10
-10.333343
 20
-23.903793
 30
0.0
 70
     8
  0
VERTEX
  5
33248
330
19D0B
100
AcDbEntity
  8
TITLE_BLOCK
  6
CONTINUOUS
 62
     7
100
AcDbVertex
100
AcDb2dVertex
 10
-10.360531
 20
-23.906957
 30
0.0
 70
     8
  0
VERTEX
  5
33249
330
19D0B
100
AcDbEntity
  8
TITLE_BLOCK
  6
CONTINUOUS
 62
     7
100
AcDbVertex
100
AcDb2dVertex
 10
-10.756699
 20
-23.069782
 30
0.0
 70
     8
  0
VERTEX
  5
3324A
330
19D0B
100
AcDbEntity
  8
TITLE_BLOCK
  6
CONTINUOUS
 62
     7
100
AcDbVertex
100
AcDb2dVertex
 10
-11.235404
 20
-22.276818
 30
0.0
 70
     8
  0
VERTEX
  5
3324B
330
19D0B
100
AcDbEntity
  8
TITLE_BLOCK
  6
CONTINUOUS
 62
     7
100
AcDbVertex
100
AcDb2dVertex
 10
-11.795774
 20
-21.540027
 30
0.0
 70
     8
  0
VERTEX
  5
3324C
330
19D0B
100
AcDbEntity
  8
TITLE_BLOCK
  6
CONTINUOUS
 62
     7
100
AcDbVertex
100
AcDb2dVertex
 10
-12.436937
 20
-20.871372
 30
0.0
 70
     8
  0
VERTEX
  5
3324D
330
19D0B
100
AcDbEntity
  8
TITLE_BLOCK
  6
CONTINUOUS
 62
     7
100
AcDbVertex
100
AcDb2dVertex
 10
-13.035497
 20
-20.352562
 30
0.0
 70
     8
  0
VERTEX
  5
3324E
330
19D0B
100
AcDbEntity
  8
TITLE_BLOCK
  6
CONTINUOUS
 62
     7
100
AcDbVertex
100
AcDb2dVertex
 10
-13.68061
 20
-19.893471
 30
0.0
 70
     8
  0
VERTEX
  5
3324F
330
19D0B
100
AcDbEntity
  8
TITLE_BLOCK
  6
CONTINUOUS
 62
     7
100
AcDbVertex
100
AcDb2dVertex
 10
-14.365921
 20
-19.496705
 30
0.0
 70
     8
  0
VERTEX
  5
33250
330
19D0B
100
AcDbEntity
  8
TITLE_BLOCK
  6
CONTINUOUS
 62
     7
100
AcDbVertex
100
AcDb2dVertex
 10
-15.085072
 20
-19.16487
 30
0.0
 70
     8
  0
VERTEX
  5
33251
330
19D0B
100
AcDbEntity
  8
TITLE_BLOCK
  6
CONTINUOUS
 62
     7
100
AcDbVertex
100
AcDb2dVertex
 10
-15.831707
 20
-18.900573
 30
0.0
 70
     8
  0
VERTEX
  5
33252
330
19D0B
100
AcDbEntity
  8
TITLE_BLOCK
  6
CONTINUOUS
 62
     7
100
AcDbVertex
100
AcDb2dVertex
 10
-16.59947
 20
-18.706419
 30
0.0
 70
     8
  0
VERTEX
  5
33253
330
19D0B
100
AcDbEntity
  8
TITLE_BLOCK
  6
CONTINUOUS
 62
     7
100
AcDbVertex
100
AcDb2dVertex
 10
-17.382004
 20
-18.585016
 30
0.0
 70
     8
  0
VERTEX
  5
33254
330
19D0B
100
AcDbEntity
  8
TITLE_BLOCK
  6
CONTINUOUS
 62
     7
100
AcDbVertex
100
AcDb2dVertex
 10
-18.172953
 20
-18.538969
 30
0.0
 70
     8
  0
VERTEX
  5
33255
330
19D0B
100
AcDbEntity
  8
TITLE_BLOCK
  6
CONTINUOUS
 62
     7
100
AcDbVertex
100
AcDb2dVertex
 10
-19.010169
 20
-18.567702
 30
0.0
 70
     8
  0
VERTEX
  5
33256
330
19D0B
100
AcDbEntity
  8
TITLE_BLOCK
  6
CONTINUOUS
 62
     7
100
AcDbVertex
100
AcDb2dVertex
 10
-19.840558
 20
-18.67852
 30
0.0
 70
     8
  0
VERTEX
  5
33257
330
19D0B
100
AcDbEntity
  8
TITLE_BLOCK
  6
CONTINUOUS
 62
     7
100
AcDbVertex
100
AcDb2dVertex
 10
-20.655943
 20
-18.870564
 30
0.0
 70
     8
  0
VERTEX
  5
33258
330
19D0B
100
AcDbEntity
  8
TITLE_BLOCK
  6
CONTINUOUS
 62
     7
100
AcDbVertex
100
AcDb2dVertex
 10
-21.448148
 20
-19.142973
 30
0.0
 70
     8
  0
VERTEX
  5
33259
330
19D0B
100
AcDbEntity
  8
TITLE_BLOCK
  6
CONTINUOUS
 62
     7
100
AcDbVertex
100
AcDb2dVertex
 10
-22.132945
 20
-19.450879
 30
0.0
 70
     8
  0
VERTEX
  5
3325A
330
19D0B
100
AcDbEntity
  8
TITLE_BLOCK
  6
CONTINUOUS
 62
     7
100
AcDbVertex
100
AcDb2dVertex
 10
-22.787328
 20
-19.818583
 30
0.0
 70
     8
  0
VERTEX
  5
3325B
330
19D0B
100
AcDbEntity
  8
TITLE_BLOCK
  6
CONTINUOUS
 62
     7
100
AcDbVertex
100
AcDb2dVertex
 10
-23.406947
 20
-20.24232
 30
0.0
 70
     8
  0
VERTEX
  5
3325C
330
19D0B
100
AcDbEntity
  8
TITLE_BLOCK
  6
CONTINUOUS
 62
     7
100
AcDbVertex
100
AcDb2dVertex
 10
-23.987452
 20
-20.718327
 30
0.0
 70
     8
  0
VERTEX
  5
3325D
330
19D0B
100
AcDbEntity
  8
TITLE_BLOCK
  6
CONTINUOUS
 62
     7
100
AcDbVertex
100
AcDb2dVertex
 10
-24.524495
 20
-21.242839
 30
0.0
 70
     8
  0
VERTEX
  5
3325E
330
19D0B
100
AcDbEntity
  8
TITLE_BLOCK
  6
CONTINUOUS
 62
     7
100
AcDbVertex
100
AcDb2dVertex
 10
-25.013725
 20
-21.812093
 30
0.0
 70
     8
  0
VERTEX
  5
3325F
330
19D0B
100
AcDbEntity
  8
TITLE_BLOCK
  6
CONTINUOUS
 62
     7
100
AcDbVertex
100
AcDb2dVertex
 10
-25.450794
 20
-22.422325
 30
0.0
 70
     8
  0
VERTEX
  5
33260
330
19D0B
100
AcDbEntity
  8
TITLE_BLOCK
  6
CONTINUOUS
 62
     7
100
AcDbVertex
100
AcDb2dVertex
 10
-25.831351
 20
-23.06977
 30
0.0
 70
     8
  0
VERTEX
  5
33261
330
19D0B
100
AcDbEntity
  8
TITLE_BLOCK
  6
CONTINUOUS
 62
     7
100
AcDbVertex
100
AcDb2dVertex
 10
-26.218558
 20
-23.893364
 30
0.0
 70
     8
  0
VERTEX
  5
33262
330
19D0B
100
AcDbEntity
  8
TITLE_BLOCK
  6
CONTINUOUS
 62
     7
100
AcDbVertex
100
AcDb2dVertex
 10
-26.2043
 20
-23.767163
 30
0.0
 70
     8
  0
VERTEX
  5
33263
330
19D0B
100
AcDbEntity
  8
TITLE_BLOCK
  6
CONTINUOUS
 62
     7
100
AcDbVertex
100
AcDb2dVertex
 10
-26.154945
 20
-23.648168
 30
0.0
 70
     8
  0
VERTEX
  5
33264
330
19D0B
100
AcDbEntity
  8
TITLE_BLOCK
  6
CONTINUOUS
 62
     7
100
AcDbVertex
100
AcDb2dVertex
 10
-25.870867
 20
-23.038607
 30
0.0
 70
     8
  0
VERTEX
  5
33265
330
19D0B
100
AcDbEntity
  8
TITLE_BLOCK
  6
CONTINUOUS
 62
     7
100
AcDbVertex
100
AcDb2dVertex
 10
-25.540164
 20
-22.453137
 30
0.0
 70
     8
  0
VERTEX
  5
33266
330
19D0B
100
AcDbEntity
  8
TITLE_BLOCK
  6
CONTINUOUS
 62
     7
100
AcDbVertex
100
AcDb2dVertex
 10
-25.165304
 20
-21.89492
 30
0.0
 70
     8
  0
VERTEX
  5
33267
330
19D0B
100
AcDbEntity
  8
TITLE_BLOCK
  6
CONTINUOUS
 62
     7
100
AcDbVertex
100
AcDb2dVertex
 10
-24.748751
 20
-21.367121
 30
0.0
 70
     8
  0
VERTEX
  5
33268
330
19D0B
100
AcDbEntity
  8
TITLE_BLOCK
  6
CONTINUOUS
 62
     7
100
AcDbVertex
100
AcDb2dVertex
 10
-24.292973
 20
-20.872902
 30
0.0
 70
     8
  0
VERTEX
  5
33269
330
19D0B
100
AcDbEntity
  8
TITLE_BLOCK
  6
CONTINUOUS
 62
     7
100
AcDbVertex
100
AcDb2dVertex
 10
-23.800435
 20
-20.415428
 30
0.0
 70
     8
  0
VERTEX
  5
3326A
330
19D0B
100
AcDbEntity
  8
TITLE_BLOCK
  6
CONTINUOUS
 62
     7
100
AcDbVertex
100
AcDb2dVertex
 10
-23.273603
 20
-19.99786
 30
0.0
 70
     8
  0
VERTEX
  5
3326B
330
19D0B
100
AcDbEntity
  8
TITLE_BLOCK
  6
CONTINUOUS
 62
     7
100
AcDbVertex
100
AcDb2dVertex
 10
-22.714945
 20
-19.623364
 30
0.0
 70
     8
  0
VERTEX
  5
3326C
330
19D0B
100
AcDbEntity
  8
TITLE_BLOCK
  6
CONTINUOUS
 62
     7
100
AcDbVertex
100
AcDb2dVertex
 10
-22.714945
 20
-19.623364
 30
0.0
 70
     8
  0
VERTEX
  5
3326D
330
19D0B
100
AcDbEntity
  8
TITLE_BLOCK
  6
CONTINUOUS
 62
     7
100
AcDbVertex
100
AcDb2dVertex
 10
-22.714945
 20
-19.623364
 30
0.0
 70
    16
  0
VERTEX
  5
3326E
330
19D0B
100
AcDbEntity
  8
TITLE_BLOCK
  6
CONTINUOUS
 62
     7
100
AcDbVertex
100
AcDb2dVertex
 10
-21.171351
 20
-18.65977
 30
0.0
 70
    16
  0
VERTEX
  5
3326F
330
19D0B
100
AcDbEntity
  8
TITLE_BLOCK
  6
CONTINUOUS
 62
     7
100
AcDbVertex
100
AcDb2dVertex
 10
-19.306957
 20
-18.218969
 30
0.0
 70
    16
  0
VERTEX
  5
33270
330
19D0B
100
AcDbEntity
  8
TITLE_BLOCK
  6
CONTINUOUS
 62
     7
100
AcDbVertex
100
AcDb2dVertex
 10
-17.495765
 20
-18.400571
 30
0.0
 70
    16
  0
VERTEX
  5
33271
330
19D0B
100
AcDbEntity
  8
TITLE_BLOCK
  6
CONTINUOUS
 62
     7
100
AcDbVertex
100
AcDb2dVertex
 10
-15.424515
 20
-18.586977
 30
0.0
 70
    16
  0
VERTEX
  5
33272
330
19D0B
100
AcDbEntity
  8
TITLE_BLOCK
  6
CONTINUOUS
 62
     7
100
AcDbVertex
100
AcDb2dVertex
 10
-13.452562
 20
-19.594965
 30
0.0
 70
    16
  0
VERTEX
  5
33273
330
19D0B
100
AcDbEntity
  8
TITLE_BLOCK
  6
CONTINUOUS
 62
     7
100
AcDbVertex
100
AcDb2dVertex
 10
-12.052172
 20
-21.126176
 30
0.0
 70
    16
  0
VERTEX
  5
33274
330
19D0B
100
AcDbEntity
  8
TITLE_BLOCK
  6
CONTINUOUS
 62
     7
100
AcDbVertex
100
AcDb2dVertex
 10
-11.31014
 20
-21.931782
 30
0.0
 70
    16
  0
VERTEX
  5
33275
330
19D0B
100
AcDbEntity
  8
TITLE_BLOCK
  6
CONTINUOUS
 62
     7
100
AcDbVertex
100
AcDb2dVertex
 10
-10.72139
 20
-22.879379
 30
0.0
 70
    16
  0
VERTEX
  5
33276
330
19D0B
100
AcDbEntity
  8
TITLE_BLOCK
  6
CONTINUOUS
 62
     7
100
AcDbVertex
100
AcDb2dVertex
 10
-10.333343
 20
-23.903793
 30
0.0
 70
    16
  0
VERTEX
  5
33277
330
19D0B
100
AcDbEntity
  8
TITLE_BLOCK
  6
CONTINUOUS
 62
     7
100
AcDbVertex
100
AcDb2dVertex
 10
-10.34014
 20
-23.904575
 30
0.0
 70
    16
  0
VERTEX
  5
33278
330
19D0B
100
AcDbEntity
  8
TITLE_BLOCK
  6
CONTINUOUS
 62
     7
100
AcDbVertex
100
AcDb2dVertex
 10
-10.353734
 20
-23.906176
 30
0.0
 70
    16
  0
VERTEX
  5
33279
330
19D0B
100
AcDbEntity
  8
TITLE_BLOCK
  6
CONTINUOUS
 62
     7
100
AcDbVertex
100
AcDb2dVertex
 10
-10.360531
 20
-23.906957
 30
0.0
 70
    16
  0
VERTEX
  5
3327A
330
19D0B
100
AcDbEntity
  8
TITLE_BLOCK
  6
CONTINUOUS
 62
     7
100
AcDbVertex
100
AcDb2dVertex
 10
-10.833343
 20
-22.766567
 30
0.0
 70
    16
  0
VERTEX
  5
3327B
330
19D0B
100
AcDbEntity
  8
TITLE_BLOCK
  6
CONTINUOUS
 62
     7
100
AcDbVertex
100
AcDb2dVertex
 10
-11.528578
 20
-21.712172
 30
0.0
 70
    16
  0
VERTEX
  5
3327C
330
19D0B
100
AcDbEntity
  8
TITLE_BLOCK
  6
CONTINUOUS
 62
     7
100
AcDbVertex
100
AcDb2dVertex
 10
-12.436937
 20
-20.871372
 30
0.0
 70
    16
  0
VERTEX
  5
3327D
330
19D0B
100
AcDbEntity
  8
TITLE_BLOCK
  6
CONTINUOUS
 62
     7
100
AcDbVertex
100
AcDb2dVertex
 10
-13.965375
 20
-19.410571
 30
0.0
 70
    16
  0
VERTEX
  5
3327E
330
19D0B
100
AcDbEntity
  8
TITLE_BLOCK
  6
CONTINUOUS
 62
     7
100
AcDbVertex
100
AcDb2dVertex
 10
-16.058187
 20
-18.558969
 30
0.0
 70
    16
  0
VERTEX
  5
3327F
330
19D0B
100
AcDbEntity
  8
TITLE_BLOCK
  6
CONTINUOUS
 62
     7
100
AcDbVertex
100
AcDb2dVertex
 10
-18.172953
 20
-18.538969
 30
0.0
 70
    16
  0
VERTEX
  5
33280
330
19D0B
100
AcDbEntity
  8
TITLE_BLOCK
  6
CONTINUOUS
 62
     7
100
AcDbVertex
100
AcDb2dVertex
 10
-19.29016
 20
-18.522172
 30
0.0
 70
    16
  0
VERTEX
  5
33281
330
19D0B
100
AcDbEntity
  8
TITLE_BLOCK
  6
CONTINUOUS
 62
     7
100
AcDbVertex
100
AcDb2dVertex
 10
-20.410961
 20
-18.726567
 30
0.0
 70
    16
  0
VERTEX
  5
33282
330
19D0B
100
AcDbEntity
  8
TITLE_BLOCK
  6
CONTINUOUS
 62
     7
100
AcDbVertex
100
AcDb2dVertex
 10
-21.448148
 20
-19.142973
 30
0.0
 70
    16
  0
VERTEX
  5
33283
330
19D0B
100
AcDbEntity
  8
TITLE_BLOCK
  6
CONTINUOUS
 62
     7
100
AcDbVertex
100
AcDb2dVertex
 10
-23.310961
 20
-19.880981
 30
0.0
 70
    16
  0
VERTEX
  5
33284
330
19D0B
100
AcDbEntity
  8
TITLE_BLOCK
  6
CONTINUOUS
 62
     7
100
AcDbVertex
100
AcDb2dVertex
 10
-24.895746
 20
-21.296977
 30
0.0
 70
    16
  0
VERTEX
  5
33285
330
19D0B
100
AcDbEntity
  8
TITLE_BLOCK
  6
CONTINUOUS
 62
     7
100
AcDbVertex
100
AcDb2dVertex
 10
-25.831351
 20
-23.06977
 30
0.0
 70
    16
  0
VERTEX
  5
33286
330
19D0B
100
AcDbEntity
  8
TITLE_BLOCK
  6
CONTINUOUS
 62
     7
100
AcDbVertex
100
AcDb2dVertex
 10
-25.978949
 20
-23.335356
 30
0.0
 70
    16
  0
VERTEX
  5
33287
330
19D0B
100
AcDbEntity
  8
TITLE_BLOCK
  6
CONTINUOUS
 62
     7
100
AcDbVertex
100
AcDb2dVertex
 10
-26.091761
 20
-23.617778
 30
0.0
 70
    16
  0
VERTEX
  5
33288
330
19D0B
100
AcDbEntity
  8
TITLE_BLOCK
  6
CONTINUOUS
 62
     7
100
AcDbVertex
100
AcDb2dVertex
 10
-26.218558
 20
-23.893364
 30
0.0
 70
    16
  0
VERTEX
  5
33289
330
19D0B
100
AcDbEntity
  8
TITLE_BLOCK
  6
CONTINUOUS
 62
     7
100
AcDbVertex
100
AcDb2dVertex
 10
-26.236547
 20
-23.805356
 30
0.0
 70
    16
  0
VERTEX
  5
3328A
330
19D0B
100
AcDbEntity
  8
TITLE_BLOCK
  6
CONTINUOUS
 62
     7
100
AcDbVertex
100
AcDb2dVertex
 10
-26.183754
 20
-23.726567
 30
0.0
 70
    16
  0
VERTEX
  5
3328B
330
19D0B
100
AcDbEntity
  8
TITLE_BLOCK
  6
CONTINUOUS
 62
     7
100
AcDbVertex
100
AcDb2dVertex
 10
-26.154945
 20
-23.648168
 30
0.0
 70
    16
  0
VERTEX
  5
3328C
330
19D0B
100
AcDbEntity
  8
TITLE_BLOCK
  6
CONTINUOUS
 62
     7
100
AcDbVertex
100
AcDb2dVertex
 10
-25.461761
 20
-21.993364
 30
0.0
 70
    16
  0
VERTEX
  5
3328D
330
19D0B
100
AcDbEntity
  8
TITLE_BLOCK
  6
CONTINUOUS
 62
     7
100
AcDbVertex
100
AcDb2dVertex
 10
-24.244945
 20
-20.561782
 30
0.0
 70
    16
  0
VERTEX
  5
3328E
330
19D0B
100
AcDbEntity
  8
TITLE_BLOCK
  6
CONTINUOUS
 62
     7
100
AcDbVertex
100
AcDb2dVertex
 10
-22.714945
 20
-19.623364
 30
0.0
 70
    16
  0
VERTEX
  5
3328F
330
19D0B
100
AcDbEntity
  8
TITLE_BLOCK
  6
CONTINUOUS
 62
     7
100
AcDbVertex
100
AcDb2dVertex
 10
-22.714945
 20
-19.623364
 30
0.0
 70
    16
  0
VERTEX
  5
33290
330
19D0B
100
AcDbEntity
  8
TITLE_BLOCK
  6
CONTINUOUS
 62
     7
100
AcDbVertex
100
AcDb2dVertex
 10
-22.714945
 20
-19.623364
 30
0.0
 70
    16
  0
VERTEX
  5
33291
330
19D0B
100
AcDbEntity
  8
TITLE_BLOCK
  6
CONTINUOUS
 62
     7
100
AcDbVertex
100
AcDb2dVertex
 10
-22.714945
 20
-19.623364
 30
0.0
 70
    16
  0
SEQEND
  5
33292
330
19D0B
100
AcDbEntity
  8
TITLE_BLOCK
  6
CONTINUOUS
 62
     7
  0
POLYLINE
  5
19D6B
330
33219
100
AcDbEntity
  8
TITLE_BLOCK
  6
CONTINUOUS
 62
     7
100
AcDb2dPolyline
 66
     1
 10
0.0
 20
0.0
 30
0.0
 70
     5
 75
     5
  0
VERTEX
  5
33293
330
19D6B
100
AcDbEntity
  8
TITLE_BLOCK
  6
CONTINUOUS
 62
     7
100
AcDbVertex
100
AcDb2dVertex
 10
-19.223617
 20
-19.314575
 30
0.0
 70
     8
  0
VERTEX
  5
33294
330
19D6B
100
AcDbEntity
  8
TITLE_BLOCK
  6
CONTINUOUS
 62
     7
100
AcDbVertex
100
AcDb2dVertex
 10
-18.929533
 20
-19.115321
 30
0.0
 70
     8
  0
VERTEX
  5
33295
330
19D6B
100
AcDbEntity
  8
TITLE_BLOCK
  6
CONTINUOUS
 62
     7
100
AcDbVertex
100
AcDb2dVertex
 10
-18.776685
 20
-19.023096
 30
0.0
 70
     8
  0
VERTEX
  5
33296
330
19D6B
100
AcDbEntity
  8
TITLE_BLOCK
  6
CONTINUOUS
 62
     7
100
AcDbVertex
100
AcDb2dVertex
 10
-18.619662
 20
-18.938825
 30
0.0
 70
     8
  0
VERTEX
  5
33297
330
19D6B
100
AcDbEntity
  8
TITLE_BLOCK
  6
CONTINUOUS
 62
     7
100
AcDbVertex
100
AcDb2dVertex
 10
-18.458233
 20
-18.864772
 30
0.0
 70
     8
  0
VERTEX
  5
33298
330
19D6B
100
AcDbEntity
  8
TITLE_BLOCK
  6
CONTINUOUS
 62
     7
100
AcDbVertex
100
AcDb2dVertex
 10
-18.292168
 20
-18.803202
 30
0.0
 70
     8
  0
VERTEX
  5
33299
330
19D6B
100
AcDbEntity
  8
TITLE_BLOCK
  6
CONTINUOUS
 62
     7
100
AcDbVertex
100
AcDb2dVertex
 10
-18.12124
 20
-18.756379
 30
0.0
 70
     8
  0
VERTEX
  5
3329A
330
19D6B
100
AcDbEntity
  8
TITLE_BLOCK
  6
CONTINUOUS
 62
     7
100
AcDbVertex
100
AcDb2dVertex
 10
-17.945218
 20
-18.726567
 30
0.0
 70
     8
  0
VERTEX
  5
3329B
330
19D6B
100
AcDbEntity
  8
TITLE_BLOCK
  6
CONTINUOUS
 62
     7
100
AcDbVertex
100
AcDb2dVertex
 10
-17.66328
 20
-18.703474
 30
0.0
 70
     8
  0
VERTEX
  5
3329C
330
19D6B
100
AcDbEntity
  8
TITLE_BLOCK
  6
CONTINUOUS
 62
     7
100
AcDbVertex
100
AcDb2dVertex
 10
-17.522173
 20
-18.70497
 30
0.0
 70
     8
  0
VERTEX
  5
3329D
330
19D6B
100
AcDbEntity
  8
TITLE_BLOCK
  6
CONTINUOUS
 62
     7
100
AcDbVertex
100
AcDb2dVertex
 10
-17.382836
 20
-18.726567
 30
0.0
 70
     8
  0
VERTEX
  5
3329E
330
19D6B
100
AcDbEntity
  8
TITLE_BLOCK
  6
CONTINUOUS
 62
     7
100
AcDbVertex
100
AcDb2dVertex
 10
-17.327466
 20
-18.753977
 30
0.0
 70
     8
  0
VERTEX
  5
3329F
330
19D6B
100
AcDbEntity
  8
TITLE_BLOCK
  6
CONTINUOUS
 62
     7
100
AcDbVertex
100
AcDb2dVertex
 10
-17.279115
 20
-18.791033
 30
0.0
 70
     8
  0
VERTEX
  5
332A0
330
19D6B
100
AcDbEntity
  8
TITLE_BLOCK
  6
CONTINUOUS
 62
     7
100
AcDbVertex
100
AcDb2dVertex
 10
-17.238461
 20
-18.836131
 30
0.0
 70
     8
  0
VERTEX
  5
332A1
330
19D6B
100
AcDbEntity
  8
TITLE_BLOCK
  6
CONTINUOUS
 62
     7
100
AcDbVertex
100
AcDb2dVertex
 10
-17.206185
 20
-18.88767
 30
0.0
 70
     8
  0
VERTEX
  5
332A2
330
19D6B
100
AcDbEntity
  8
TITLE_BLOCK
  6
CONTINUOUS
 62
     7
100
AcDbVertex
100
AcDb2dVertex
 10
-17.182965
 20
-18.944047
 30
0.0
 70
     8
  0
VERTEX
  5
332A3
330
19D6B
100
AcDbEntity
  8
TITLE_BLOCK
  6
CONTINUOUS
 62
     7
100
AcDbVertex
100
AcDb2dVertex
 10
-17.169481
 20
-19.003659
 30
0.0
 70
     8
  0
VERTEX
  5
332A4
330
19D6B
100
AcDbEntity
  8
TITLE_BLOCK
  6
CONTINUOUS
 62
     7
100
AcDbVertex
100
AcDb2dVertex
 10
-17.166412
 20
-19.064903
 30
0.0
 70
     8
  0
VERTEX
  5
332A5
330
19D6B
100
AcDbEntity
  8
TITLE_BLOCK
  6
CONTINUOUS
 62
     7
100
AcDbVertex
100
AcDb2dVertex
 10
-17.174437
 20
-19.126176
 30
0.0
 70
     8
  0
VERTEX
  5
332A6
330
19D6B
100
AcDbEntity
  8
TITLE_BLOCK
  6
CONTINUOUS
 62
     7
100
AcDbVertex
100
AcDb2dVertex
 10
-17.206035
 20
-19.231586
 30
0.0
 70
     8
  0
VERTEX
  5
332A7
330
19D6B
100
AcDbEntity
  8
TITLE_BLOCK
  6
CONTINUOUS
 62
     7
100
AcDbVertex
100
AcDb2dVertex
 10
-17.25237
 20
-19.329566
 30
0.0
 70
     8
  0
VERTEX
  5
332A8
330
19D6B
100
AcDbEntity
  8
TITLE_BLOCK
  6
CONTINUOUS
 62
     7
100
AcDbVertex
100
AcDb2dVertex
 10
-17.311375
 20
-19.420339
 30
0.0
 70
     8
  0
VERTEX
  5
332A9
330
19D6B
100
AcDbEntity
  8
TITLE_BLOCK
  6
CONTINUOUS
 62
     7
100
AcDbVertex
100
AcDb2dVertex
 10
-17.38098
 20
-19.504123
 30
0.0
 70
     8
  0
VERTEX
  5
332AA
330
19D6B
100
AcDbEntity
  8
TITLE_BLOCK
  6
CONTINUOUS
 62
     7
100
AcDbVertex
100
AcDb2dVertex
 10
-17.459118
 20
-19.581139
 30
0.0
 70
     8
  0
VERTEX
  5
332AB
330
19D6B
100
AcDbEntity
  8
TITLE_BLOCK
  6
CONTINUOUS
 62
     7
100
AcDbVertex
100
AcDb2dVertex
 10
-17.543721
 20
-19.651606
 30
0.0
 70
     8
  0
VERTEX
  5
332AC
330
19D6B
100
AcDbEntity
  8
TITLE_BLOCK
  6
CONTINUOUS
 62
     7
100
AcDbVertex
100
AcDb2dVertex
 10
-17.724047
 20
-19.773774
 30
0.0
 70
     8
  0
VERTEX
  5
332AD
330
19D6B
100
AcDbEntity
  8
TITLE_BLOCK
  6
CONTINUOUS
 62
     7
100
AcDbVertex
100
AcDb2dVertex
 10
-17.910427
 20
-19.878335
 30
0.0
 70
     8
  0
VERTEX
  5
332AE
330
19D6B
100
AcDbEntity
  8
TITLE_BLOCK
  6
CONTINUOUS
 62
     7
100
AcDbVertex
100
AcDb2dVertex
 10
-18.102341
 20
-19.970876
 30
0.0
 70
     8
  0
VERTEX
  5
332AF
330
19D6B
100
AcDbEntity
  8
TITLE_BLOCK
  6
CONTINUOUS
 62
     7
100
AcDbVertex
100
AcDb2dVertex
 10
-18.29884
 20
-20.053141
 30
0.0
 70
     8
  0
VERTEX
  5
332B0
330
19D6B
100
AcDbEntity
  8
TITLE_BLOCK
  6
CONTINUOUS
 62
     7
100
AcDbVertex
100
AcDb2dVertex
 10
-18.498971
 20
-20.126874
 30
0.0
 70
     8
  0
VERTEX
  5
332B1
330
19D6B
100
AcDbEntity
  8
TITLE_BLOCK
  6
CONTINUOUS
 62
     7
100
AcDbVertex
100
AcDb2dVertex
 10
-18.906326
 20
-20.255722
 30
0.0
 70
     8
  0
VERTEX
  5
332B2
330
19D6B
100
AcDbEntity
  8
TITLE_BLOCK
  6
CONTINUOUS
 62
     7
100
AcDbVertex
100
AcDb2dVertex
 10
-19.3168
 20
-20.371372
 30
0.0
 70
     8
  0
VERTEX
  5
332B3
330
19D6B
100
AcDbEntity
  8
TITLE_BLOCK
  6
CONTINUOUS
 62
     7
100
AcDbVertex
100
AcDb2dVertex
 10
-19.408935
 20
-20.540126
 30
0.0
 70
     8
  0
VERTEX
  5
332B4
330
19D6B
100
AcDbEntity
  8
TITLE_BLOCK
  6
CONTINUOUS
 62
     7
100
AcDbVertex
100
AcDb2dVertex
 10
-19.490414
 20
-20.714575
 30
0.0
 70
     8
  0
VERTEX
  5
332B5
330
19D6B
100
AcDbEntity
  8
TITLE_BLOCK
  6
CONTINUOUS
 62
     7
100
AcDbVertex
100
AcDb2dVertex
 10
-19.557786
 20
-20.894722
 30
0.0
 70
     8
  0
VERTEX
  5
332B6
330
19D6B
100
AcDbEntity
  8
TITLE_BLOCK
  6
CONTINUOUS
 62
     7
100
AcDbVertex
100
AcDb2dVertex
 10
-19.607601
 20
-21.080571
 30
0.0
 70
     8
  0
VERTEX
  5
332B7
330
19D6B
100
AcDbEntity
  8
TITLE_BLOCK
  6
CONTINUOUS
 62
     7
100
AcDbVertex
100
AcDb2dVertex
 10
-19.608533
 20
-21.15793
 30
0.0
 70
     8
  0
VERTEX
  5
332B8
330
19D6B
100
AcDbEntity
  8
TITLE_BLOCK
  6
CONTINUOUS
 62
     7
100
AcDbVertex
100
AcDb2dVertex
 10
-19.595103
 20
-21.237506
 30
0.0
 70
     8
  0
VERTEX
  5
332B9
330
19D6B
100
AcDbEntity
  8
TITLE_BLOCK
  6
CONTINUOUS
 62
     7
100
AcDbVertex
100
AcDb2dVertex
 10
-19.568172
 20
-21.315101
 30
0.0
 70
     8
  0
VERTEX
  5
332BA
330
19D6B
100
AcDbEntity
  8
TITLE_BLOCK
  6
CONTINUOUS
 62
     7
100
AcDbVertex
100
AcDb2dVertex
 10
-19.528605
 20
-21.386523
 30
0.0
 70
     8
  0
VERTEX
  5
332BB
330
19D6B
100
AcDbEntity
  8
TITLE_BLOCK
  6
CONTINUOUS
 62
     7
100
AcDbVertex
100
AcDb2dVertex
 10
-19.477262
 20
-21.447575
 30
0.0
 70
     8
  0
VERTEX
  5
332BC
330
19D6B
100
AcDbEntity
  8
TITLE_BLOCK
  6
CONTINUOUS
 62
     7
100
AcDbVertex
100
AcDb2dVertex
 10
-19.415008
 20
-21.494063
 30
0.0
 70
     8
  0
VERTEX
  5
332BD
330
19D6B
100
AcDbEntity
  8
TITLE_BLOCK
  6
CONTINUOUS
 62
     7
100
AcDbVertex
100
AcDb2dVertex
 10
-19.342705
 20
-21.521792
 30
0.0
 70
     8
  0
VERTEX
  5
332BE
330
19D6B
100
AcDbEntity
  8
TITLE_BLOCK
  6
CONTINUOUS
 62
     7
100
AcDbVertex
100
AcDb2dVertex
 10
-19.261214
 20
-21.526567
 30
0.0
 70
     8
  0
VERTEX
  5
332BF
330
19D6B
100
AcDbEntity
  8
TITLE_BLOCK
  6
CONTINUOUS
 62
     7
100
AcDbVertex
100
AcDb2dVertex
 10
-19.140443
 20
-21.52087
 30
0.0
 70
     8
  0
VERTEX
  5
332C0
330
19D6B
100
AcDbEntity
  8
TITLE_BLOCK
  6
CONTINUOUS
 62
     7
100
AcDbVertex
100
AcDb2dVertex
 10
-19.022154
 20
-21.502041
 30
0.0
 70
     8
  0
VERTEX
  5
332C1
330
19D6B
100
AcDbEntity
  8
TITLE_BLOCK
  6
CONTINUOUS
 62
     7
100
AcDbVertex
100
AcDb2dVertex
 10
-18.906547
 20
-21.471539
 30
0.0
 70
     8
  0
VERTEX
  5
332C2
330
19D6B
100
AcDbEntity
  8
TITLE_BLOCK
  6
CONTINUOUS
 62
     7
100
AcDbVertex
100
AcDb2dVertex
 10
-18.793817
 20
-21.430822
 30
0.0
 70
     8
  0
VERTEX
  5
332C3
330
19D6B
100
AcDbEntity
  8
TITLE_BLOCK
  6
CONTINUOUS
 62
     7
100
AcDbVertex
100
AcDb2dVertex
 10
-18.684161
 20
-21.381348
 30
0.0
 70
     8
  0
VERTEX
  5
332C4
330
19D6B
100
AcDbEntity
  8
TITLE_BLOCK
  6
CONTINUOUS
 62
     7
100
AcDbVertex
100
AcDb2dVertex
 10
-18.577777
 20
-21.324575
 30
0.0
 70
     8
  0
VERTEX
  5
332C5
330
19D6B
100
AcDbEntity
  8
TITLE_BLOCK
  6
CONTINUOUS
 62
     7
100
AcDbVertex
100
AcDb2dVertex
 10
-18.375609
 20
-21.194965
 30
0.0
 70
     8
  0
VERTEX
  5
332C6
330
19D6B
100
AcDbEntity
  8
TITLE_BLOCK
  6
CONTINUOUS
 62
     7
100
AcDbVertex
100
AcDb2dVertex
 10
-18.143262
 20
-21.021166
 30
0.0
 70
     8
  0
VERTEX
  5
332C7
330
19D6B
100
AcDbEntity
  8
TITLE_BLOCK
  6
CONTINUOUS
 62
     7
100
AcDbVertex
100
AcDb2dVertex
 10
-17.921909
 20
-20.834892
 30
0.0
 70
     8
  0
VERTEX
  5
332C8
330
19D6B
100
AcDbEntity
  8
TITLE_BLOCK
  6
CONTINUOUS
 62
     7
100
AcDbVertex
100
AcDb2dVertex
 10
-17.709611
 20
-20.638446
 30
0.0
 70
     8
  0
VERTEX
  5
332C9
330
19D6B
100
AcDbEntity
  8
TITLE_BLOCK
  6
CONTINUOUS
 62
     7
100
AcDbVertex
100
AcDb2dVertex
 10
-17.504427
 20
-20.434128
 30
0.0
 70
     8
  0
VERTEX
  5
332CA
330
19D6B
100
AcDbEntity
  8
TITLE_BLOCK
  6
CONTINUOUS
 62
     7
100
AcDbVertex
100
AcDb2dVertex
 10
-17.107644
 20
-20.011087
 30
0.0
 70
     8
  0
VERTEX
  5
332CB
330
19D6B
100
AcDbEntity
  8
TITLE_BLOCK
  6
CONTINUOUS
 62
     7
100
AcDbVertex
100
AcDb2dVertex
 10
-16.716039
 20
-19.584184
 30
0.0
 70
     8
  0
VERTEX
  5
332CC
330
19D6B
100
AcDbEntity
  8
TITLE_BLOCK
  6
CONTINUOUS
 62
     7
100
AcDbVertex
100
AcDb2dVertex
 10
-16.558968
 20
-19.408181
 30
0.0
 70
     8
  0
VERTEX
  5
332CD
330
19D6B
100
AcDbEntity
  8
TITLE_BLOCK
  6
CONTINUOUS
 62
     7
100
AcDbVertex
100
AcDb2dVertex
 10
-16.473417
 20
-19.328238
 30
0.0
 70
     8
  0
VERTEX
  5
332CE
330
19D6B
100
AcDbEntity
  8
TITLE_BLOCK
  6
CONTINUOUS
 62
     7
100
AcDbVertex
100
AcDb2dVertex
 10
-16.42549
 20
-19.29504
 30
0.0
 70
     8
  0
VERTEX
  5
332CF
330
19D6B
100
AcDbEntity
  8
TITLE_BLOCK
  6
CONTINUOUS
 62
     7
100
AcDbVertex
100
AcDb2dVertex
 10
-16.372836
 20
-19.268168
 30
0.0
 70
     8
  0
VERTEX
  5
332D0
330
19D6B
100
AcDbEntity
  8
TITLE_BLOCK
  6
CONTINUOUS
 62
     7
100
AcDbVertex
100
AcDb2dVertex
 10
-16.457629
 20
-19.406504
 30
0.0
 70
     8
  0
VERTEX
  5
332D1
330
19D6B
100
AcDbEntity
  8
TITLE_BLOCK
  6
CONTINUOUS
 62
     7
100
AcDbVertex
100
AcDb2dVertex
 10
-16.550362
 20
-19.539132
 30
0.0
 70
     8
  0
VERTEX
  5
332D2
330
19D6B
100
AcDbEntity
  8
TITLE_BLOCK
  6
CONTINUOUS
 62
     7
100
AcDbVertex
100
AcDb2dVertex
 10
-16.752684
 20
-19.792172
 30
0.0
 70
     8
  0
VERTEX
  5
332D3
330
19D6B
100
AcDbEntity
  8
TITLE_BLOCK
  6
CONTINUOUS
 62
     7
100
AcDbVertex
100
AcDb2dVertex
 10
-17.176039
 20
-20.283774
 30
0.0
 70
     8
  0
VERTEX
  5
332D4
330
19D6B
100
AcDbEntity
  8
TITLE_BLOCK
  6
CONTINUOUS
 62
     7
100
AcDbVertex
100
AcDb2dVertex
 10
-17.501809
 20
-20.65216
 30
0.0
 70
     8
  0
VERTEX
  5
332D5
330
19D6B
100
AcDbEntity
  8
TITLE_BLOCK
  6
CONTINUOUS
 62
     7
100
AcDbVertex
100
AcDb2dVertex
 10
-17.839469
 20
-21.011774
 30
0.0
 70
     8
  0
VERTEX
  5
332D6
330
19D6B
100
AcDbEntity
  8
TITLE_BLOCK
  6
CONTINUOUS
 62
     7
100
AcDbVertex
100
AcDb2dVertex
 10
-18.018065
 20
-21.180533
 30
0.0
 70
     8
  0
VERTEX
  5
332D7
330
19D6B
100
AcDbEntity
  8
TITLE_BLOCK
  6
CONTINUOUS
 62
     7
100
AcDbVertex
100
AcDb2dVertex
 10
-18.206004
 20
-21.337788
 30
0.0
 70
     8
  0
VERTEX
  5
332D8
330
19D6B
100
AcDbEntity
  8
TITLE_BLOCK
  6
CONTINUOUS
 62
     7
100
AcDbVertex
100
AcDb2dVertex
 10
-18.405409
 20
-21.480437
 30
0.0
 70
     8
  0
VERTEX
  5
332D9
330
19D6B
100
AcDbEntity
  8
TITLE_BLOCK
  6
CONTINUOUS
 62
     7
100
AcDbVertex
100
AcDb2dVertex
 10
-18.618402
 20
-21.605375
 30
0.0
 70
     8
  0
VERTEX
  5
332DA
330
19D6B
100
AcDbEntity
  8
TITLE_BLOCK
  6
CONTINUOUS
 62
     7
100
AcDbVertex
100
AcDb2dVertex
 10
-18.752947
 20
-21.667499
 30
0.0
 70
     8
  0
VERTEX
  5
332DB
330
19D6B
100
AcDbEntity
  8
TITLE_BLOCK
  6
CONTINUOUS
 62
     7
100
AcDbVertex
100
AcDb2dVertex
 10
-18.893915
 20
-21.713042
 30
0.0
 70
     8
  0
VERTEX
  5
332DC
330
19D6B
100
AcDbEntity
  8
TITLE_BLOCK
  6
CONTINUOUS
 62
     7
100
AcDbVertex
100
AcDb2dVertex
 10
-19.039252
 20
-21.741813
 30
0.0
 70
     8
  0
VERTEX
  5
332DD
330
19D6B
100
AcDbEntity
  8
TITLE_BLOCK
  6
CONTINUOUS
 62
     7
100
AcDbVertex
100
AcDb2dVertex
 10
-19.186905
 20
-21.75362
 30
0.0
 70
     8
  0
VERTEX
  5
332DE
330
19D6B
100
AcDbEntity
  8
TITLE_BLOCK
  6
CONTINUOUS
 62
     7
100
AcDbVertex
100
AcDb2dVertex
 10
-19.334821
 20
-21.748271
 30
0.0
 70
     8
  0
VERTEX
  5
332DF
330
19D6B
100
AcDbEntity
  8
TITLE_BLOCK
  6
CONTINUOUS
 62
     7
100
AcDbVertex
100
AcDb2dVertex
 10
-19.480947
 20
-21.725574
 30
0.0
 70
     8
  0
VERTEX
  5
332E0
330
19D6B
100
AcDbEntity
  8
TITLE_BLOCK
  6
CONTINUOUS
 62
     7
100
AcDbVertex
100
AcDb2dVertex
 10
-19.623228
 20
-21.685337
 30
0.0
 70
     8
  0
VERTEX
  5
332E1
330
19D6B
100
AcDbEntity
  8
TITLE_BLOCK
  6
CONTINUOUS
 62
     7
100
AcDbVertex
100
AcDb2dVertex
 10
-19.759613
 20
-21.627368
 30
0.0
 70
     8
  0
VERTEX
  5
332E2
330
19D6B
100
AcDbEntity
  8
TITLE_BLOCK
  6
CONTINUOUS
 62
     7
100
AcDbVertex
100
AcDb2dVertex
 10
-19.824761
 20
-21.589695
 30
0.0
 70
     8
  0
VERTEX
  5
332E3
330
19D6B
100
AcDbEntity
  8
TITLE_BLOCK
  6
CONTINUOUS
 62
     7
100
AcDbVertex
100
AcDb2dVertex
 10
-19.884709
 20
-21.545897
 30
0.0
 70
     8
  0
VERTEX
  5
332E4
330
19D6B
100
AcDbEntity
  8
TITLE_BLOCK
  6
CONTINUOUS
 62
     7
100
AcDbVertex
100
AcDb2dVertex
 10
-19.988727
 20
-21.44217
 30
0.0
 70
     8
  0
VERTEX
  5
332E5
330
19D6B
100
AcDbEntity
  8
TITLE_BLOCK
  6
CONTINUOUS
 62
     7
100
AcDbVertex
100
AcDb2dVertex
 10
-20.071098
 20
-21.320666
 30
0.0
 70
     8
  0
VERTEX
  5
332E6
330
19D6B
100
AcDbEntity
  8
TITLE_BLOCK
  6
CONTINUOUS
 62
     7
100
AcDbVertex
100
AcDb2dVertex
 10
-20.131256
 20
-21.185869
 30
0.0
 70
     8
  0
VERTEX
  5
332E7
330
19D6B
100
AcDbEntity
  8
TITLE_BLOCK
  6
CONTINUOUS
 62
     7
100
AcDbVertex
100
AcDb2dVertex
 10
-20.168633
 20
-21.042258
 30
0.0
 70
     8
  0
VERTEX
  5
332E8
330
19D6B
100
AcDbEntity
  8
TITLE_BLOCK
  6
CONTINUOUS
 62
     7
100
AcDbVertex
100
AcDb2dVertex
 10
-20.182661
 20
-20.894316
 30
0.0
 70
     8
  0
VERTEX
  5
332E9
330
19D6B
100
AcDbEntity
  8
TITLE_BLOCK
  6
CONTINUOUS
 62
     7
100
AcDbVertex
100
AcDb2dVertex
 10
-20.172773
 20
-20.746524
 30
0.0
 70
     8
  0
VERTEX
  5
332EA
330
19D6B
100
AcDbEntity
  8
TITLE_BLOCK
  6
CONTINUOUS
 62
     7
100
AcDbVertex
100
AcDb2dVertex
 10
-20.138402
 20
-20.603364
 30
0.0
 70
     8
  0
VERTEX
  5
332EB
330
19D6B
100
AcDbEntity
  8
TITLE_BLOCK
  6
CONTINUOUS
 62
     7
100
AcDbVertex
100
AcDb2dVertex
 10
-20.078049
 20
-20.410307
 30
0.0
 70
     8
  0
VERTEX
  5
332EC
330
19D6B
100
AcDbEntity
  8
TITLE_BLOCK
  6
CONTINUOUS
 62
     7
100
AcDbVertex
100
AcDb2dVertex
 10
-19.999578
 20
-20.224918
 30
0.0
 70
     8
  0
VERTEX
  5
332ED
330
19D6B
100
AcDbEntity
  8
TITLE_BLOCK
  6
CONTINUOUS
 62
     7
100
AcDbVertex
100
AcDb2dVertex
 10
-19.904334
 20
-20.04793
 30
0.0
 70
     8
  0
VERTEX
  5
332EE
330
19D6B
100
AcDbEntity
  8
TITLE_BLOCK
  6
CONTINUOUS
 62
     7
100
AcDbVertex
100
AcDb2dVertex
 10
-19.793663
 20
-19.880073
 30
0.0
 70
     8
  0
VERTEX
  5
332EF
330
19D6B
100
AcDbEntity
  8
TITLE_BLOCK
  6
CONTINUOUS
 62
     7
100
AcDbVertex
100
AcDb2dVertex
 10
-19.66891
 20
-19.722077
 30
0.0
 70
     8
  0
VERTEX
  5
332F0
330
19D6B
100
AcDbEntity
  8
TITLE_BLOCK
  6
CONTINUOUS
 62
     7
100
AcDbVertex
100
AcDb2dVertex
 10
-19.531421
 20
-19.574675
 30
0.0
 70
     8
  0
VERTEX
  5
332F1
330
19D6B
100
AcDbEntity
  8
TITLE_BLOCK
  6
CONTINUOUS
 62
     7
100
AcDbVertex
100
AcDb2dVertex
 10
-19.382541
 20
-19.438597
 30
0.0
 70
     8
  0
VERTEX
  5
332F2
330
19D6B
100
AcDbEntity
  8
TITLE_BLOCK
  6
CONTINUOUS
 62
     7
100
AcDbVertex
100
AcDb2dVertex
 10
-19.223617
 20
-19.314575
 30
0.0
 70
     8
  0
VERTEX
  5
332F3
330
19D6B
100
AcDbEntity
  8
TITLE_BLOCK
  6
CONTINUOUS
 62
     7
100
AcDbVertex
100
AcDb2dVertex
 10
-19.223617
 20
-19.314575
 30
0.0
 70
     8
  0
VERTEX
  5
332F4
330
19D6B
100
AcDbEntity
  8
TITLE_BLOCK
  6
CONTINUOUS
 62
     7
100
AcDbVertex
100
AcDb2dVertex
 10
-19.223617
 20
-19.314575
 30
0.0
 70
    16
  0
VERTEX
  5
332F5
330
19D6B
100
AcDbEntity
  8
TITLE_BLOCK
  6
CONTINUOUS
 62
     7
100
AcDbVertex
100
AcDb2dVertex
 10
-18.841214
 20
-19.041782
 30
0.0
 70
    16
  0
VERTEX
  5
332F6
330
19D6B
100
AcDbEntity
  8
TITLE_BLOCK
  6
CONTINUOUS
 62
     7
100
AcDbVertex
100
AcDb2dVertex
 10
-18.421605
 20
-18.781372
 30
0.0
 70
    16
  0
VERTEX
  5
332F7
330
19D6B
100
AcDbEntity
  8
TITLE_BLOCK
  6
CONTINUOUS
 62
     7
100
AcDbVertex
100
AcDb2dVertex
 10
-17.945218
 20
-18.726567
 30
0.0
 70
    16
  0
VERTEX
  5
332F8
330
19D6B
100
AcDbEntity
  8
TITLE_BLOCK
  6
CONTINUOUS
 62
     7
100
AcDbVertex
100
AcDb2dVertex
 10
-17.759242
 20
-18.710981
 30
0.0
 70
    16
  0
VERTEX
  5
332F9
330
19D6B
100
AcDbEntity
  8
TITLE_BLOCK
  6
CONTINUOUS
 62
     7
100
AcDbVertex
100
AcDb2dVertex
 10
-17.56682
 20
-18.680571
 30
0.0
 70
    16
  0
VERTEX
  5
332FA
330
19D6B
100
AcDbEntity
  8
TITLE_BLOCK
  6
CONTINUOUS
 62
     7
100
AcDbVertex
100
AcDb2dVertex
 10
-17.382836
 20
-18.726567
 30
0.0
 70
    16
  0
VERTEX
  5
332FB
330
19D6B
100
AcDbEntity
  8
TITLE_BLOCK
  6
CONTINUOUS
 62
     7
100
AcDbVertex
100
AcDb2dVertex
 10
-17.226429
 20
-18.785375
 30
0.0
 70
    16
  0
VERTEX
  5
332FC
330
19D6B
100
AcDbEntity
  8
TITLE_BLOCK
  6
CONTINUOUS
 62
     7
100
AcDbVertex
100
AcDb2dVertex
 10
-17.13764
 20
-18.964165
 30
0.0
 70
    16
  0
VERTEX
  5
332FD
330
19D6B
100
AcDbEntity
  8
TITLE_BLOCK
  6
CONTINUOUS
 62
     7
100
AcDbVertex
100
AcDb2dVertex
 10
-17.174437
 20
-19.126176
 30
0.0
 70
    16
  0
VERTEX
  5
332FE
330
19D6B
100
AcDbEntity
  8
TITLE_BLOCK
  6
CONTINUOUS
 62
     7
100
AcDbVertex
100
AcDb2dVertex
 10
-17.237211
 20
-19.417368
 30
0.0
 70
    16
  0
VERTEX
  5
332FF
330
19D6B
100
AcDbEntity
  8
TITLE_BLOCK
  6
CONTINUOUS
 62
     7
100
AcDbVertex
100
AcDb2dVertex
 10
-17.479242
 20
-19.626977
 30
0.0
 70
    16
  0
VERTEX
  5
33300
330
19D6B
100
AcDbEntity
  8
TITLE_BLOCK
  6
CONTINUOUS
 62
     7
100
AcDbVertex
100
AcDb2dVertex
 10
-17.724047
 20
-19.773774
 30
0.0
 70
    16
  0
VERTEX
  5
33301
330
19D6B
100
AcDbEntity
  8
TITLE_BLOCK
  6
CONTINUOUS
 62
     7
100
AcDbVertex
100
AcDb2dVertex
 10
-18.212836
 20
-20.07018
 30
0.0
 70
    16
  0
VERTEX
  5
33302
330
19D6B
100
AcDbEntity
  8
TITLE_BLOCK
  6
CONTINUOUS
 62
     7
100
AcDbVertex
100
AcDb2dVertex
 10
-18.770804
 20
-20.21977
 30
0.0
 70
    16
  0
VERTEX
  5
33303
330
19D6B
100
AcDbEntity
  8
TITLE_BLOCK
  6
CONTINUOUS
 62
     7
100
AcDbVertex
100
AcDb2dVertex
 10
-19.3168
 20
-20.371372
 30
0.0
 70
    16
  0
VERTEX
  5
33304
330
19D6B
100
AcDbEntity
  8
TITLE_BLOCK
  6
CONTINUOUS
 62
     7
100
AcDbVertex
100
AcDb2dVertex
 10
-19.445218
 20
-20.592582
 30
0.0
 70
    16
  0
VERTEX
  5
33305
330
19D6B
100
AcDbEntity
  8
TITLE_BLOCK
  6
CONTINUOUS
 62
     7
100
AcDbVertex
100
AcDb2dVertex
 10
-19.554418
 20
-20.828969
 30
0.0
 70
    16
  0
VERTEX
  5
33306
330
19D6B
100
AcDbEntity
  8
TITLE_BLOCK
  6
CONTINUOUS
 62
     7
100
AcDbVertex
100
AcDb2dVertex
 10
-19.607601
 20
-21.080571
 30
0.0
 70
    16
  0
VERTEX
  5
33307
330
19D6B
100
AcDbEntity
  8
TITLE_BLOCK
  6
CONTINUOUS
 62
     7
100
AcDbVertex
100
AcDb2dVertex
 10
-19.630004
 20
-21.28018
 30
0.0
 70
    16
  0
VERTEX
  5
33308
330
19D6B
100
AcDbEntity
  8
TITLE_BLOCK
  6
CONTINUOUS
 62
     7
100
AcDbVertex
100
AcDb2dVertex
 10
-19.490004
 20
-21.548168
 30
0.0
 70
    16
  0
VERTEX
  5
33309
330
19D6B
100
AcDbEntity
  8
TITLE_BLOCK
  6
CONTINUOUS
 62
     7
100
AcDbVertex
100
AcDb2dVertex
 10
-19.261214
 20
-21.526567
 30
0.0
 70
    16
  0
VERTEX
  5
3330A
330
19D6B
100
AcDbEntity
  8
TITLE_BLOCK
  6
CONTINUOUS
 62
     7
100
AcDbVertex
100
AcDb2dVertex
 10
-18.936019
 20
-21.53018
 30
0.0
 70
    16
  0
VERTEX
  5
3330B
330
19D6B
100
AcDbEntity
  8
TITLE_BLOCK
  6
CONTINUOUS
 62
     7
100
AcDbVertex
100
AcDb2dVertex
 10
-18.635218
 20
-21.378168
 30
0.0
 70
    16
  0
VERTEX
  5
3330C
330
19D6B
100
AcDbEntity
  8
TITLE_BLOCK
  6
CONTINUOUS
 62
     7
100
AcDbVertex
100
AcDb2dVertex
 10
-18.375609
 20
-21.194965
 30
0.0
 70
    16
  0
VERTEX
  5
3330D
330
19D6B
100
AcDbEntity
  8
TITLE_BLOCK
  6
CONTINUOUS
 62
     7
100
AcDbVertex
100
AcDb2dVertex
 10
-17.739632
 20
-20.75018
 30
0.0
 70
    16
  0
VERTEX
  5
3330E
330
19D6B
100
AcDbEntity
  8
TITLE_BLOCK
  6
CONTINUOUS
 62
     7
100
AcDbVertex
100
AcDb2dVertex
 10
-17.241625
 20
-20.147778
 30
0.0
 70
    16
  0
VERTEX
  5
3330F
330
19D6B
100
AcDbEntity
  8
TITLE_BLOCK
  6
CONTINUOUS
 62
     7
100
AcDbVertex
100
AcDb2dVertex
 10
-16.716039
 20
-19.584184
 30
0.0
 70
    16
  0
VERTEX
  5
33310
330
19D6B
100
AcDbEntity
  8
TITLE_BLOCK
  6
CONTINUOUS
 62
     7
100
AcDbVertex
100
AcDb2dVertex
 10
-16.607211
 20
-19.474184
 30
0.0
 70
    16
  0
VERTEX
  5
33311
330
19D6B
100
AcDbEntity
  8
TITLE_BLOCK
  6
CONTINUOUS
 62
     7
100
AcDbVertex
100
AcDb2dVertex
 10
-16.520414
 20
-19.33018
 30
0.0
 70
    16
  0
VERTEX
  5
33312
330
19D6B
100
AcDbEntity
  8
TITLE_BLOCK
  6
CONTINUOUS
 62
     7
100
AcDbVertex
100
AcDb2dVertex
 10
-16.372836
 20
-19.268168
 30
0.0
 70
    16
  0
VERTEX
  5
33313
330
19D6B
100
AcDbEntity
  8
TITLE_BLOCK
  6
CONTINUOUS
 62
     7
100
AcDbVertex
100
AcDb2dVertex
 10
-16.58682
 20
-19.645766
 30
0.0
 70
    16
  0
VERTEX
  5
33314
330
19D6B
100
AcDbEntity
  8
TITLE_BLOCK
  6
CONTINUOUS
 62
     7
100
AcDbVertex
100
AcDb2dVertex
 10
-16.904047
 20
-19.949379
 30
0.0
 70
    16
  0
VERTEX
  5
33315
330
19D6B
100
AcDbEntity
  8
TITLE_BLOCK
  6
CONTINUOUS
 62
     7
100
AcDbVertex
100
AcDb2dVertex
 10
-17.176039
 20
-20.283774
 30
0.0
 70
    16
  0
VERTEX
  5
33316
330
19D6B
100
AcDbEntity
  8
TITLE_BLOCK
  6
CONTINUOUS
 62
     7
100
AcDbVertex
100
AcDb2dVertex
 10
-17.610023
 20
-20.76977
 30
0.0
 70
    16
  0
VERTEX
  5
33317
330
19D6B
100
AcDbEntity
  8
TITLE_BLOCK
  6
CONTINUOUS
 62
     7
100
AcDbVertex
100
AcDb2dVertex
 10
-18.030414
 20
-21.298579
 30
0.0
 70
    16
  0
VERTEX
  5
33318
330
19D6B
100
AcDbEntity
  8
TITLE_BLOCK
  6
CONTINUOUS
 62
     7
100
AcDbVertex
100
AcDb2dVertex
 10
-18.618402
 20
-21.605375
 30
0.0
 70
    16
  0
VERTEX
  5
33319
330
19D6B
100
AcDbEntity
  8
TITLE_BLOCK
  6
CONTINUOUS
 62
     7
100
AcDbVertex
100
AcDb2dVertex
 10
-18.9668
 20
-21.792973
 30
0.0
 70
    16
  0
VERTEX
  5
3331A
330
19D6B
100
AcDbEntity
  8
TITLE_BLOCK
  6
CONTINUOUS
 62
     7
100
AcDbVertex
100
AcDb2dVertex
 10
-19.405609
 20
-21.805766
 30
0.0
 70
    16
  0
VERTEX
  5
3331B
330
19D6B
100
AcDbEntity
  8
TITLE_BLOCK
  6
CONTINUOUS
 62
     7
100
AcDbVertex
100
AcDb2dVertex
 10
-19.759613
 20
-21.627368
 30
0.0
 70
    16
  0
VERTEX
  5
3331C
330
19D6B
100
AcDbEntity
  8
TITLE_BLOCK
  6
CONTINUOUS
 62
     7
100
AcDbVertex
100
AcDb2dVertex
 10
-20.120804
 20
-21.443774
 30
0.0
 70
    16
  0
VERTEX
  5
3331D
330
19D6B
100
AcDbEntity
  8
TITLE_BLOCK
  6
CONTINUOUS
 62
     7
100
AcDbVertex
100
AcDb2dVertex
 10
-20.263207
 20
-20.974965
 30
0.0
 70
    16
  0
VERTEX
  5
3331E
330
19D6B
100
AcDbEntity
  8
TITLE_BLOCK
  6
CONTINUOUS
 62
     7
100
AcDbVertex
100
AcDb2dVertex
 10
-20.138402
 20
-20.603364
 30
0.0
 70
    16
  0
VERTEX
  5
3331F
330
19D6B
100
AcDbEntity
  8
TITLE_BLOCK
  6
CONTINUOUS
 62
     7
100
AcDbVertex
100
AcDb2dVertex
 10
-20.002816
 20
-20.078969
 30
0.0
 70
    16
  0
VERTEX
  5
33320
330
19D6B
100
AcDbEntity
  8
TITLE_BLOCK
  6
CONTINUOUS
 62
     7
100
AcDbVertex
100
AcDb2dVertex
 10
-19.659613
 20
-19.628579
 30
0.0
 70
    16
  0
VERTEX
  5
33321
330
19D6B
100
AcDbEntity
  8
TITLE_BLOCK
  6
CONTINUOUS
 62
     7
100
AcDbVertex
100
AcDb2dVertex
 10
-19.223617
 20
-19.314575
 30
0.0
 70
    16
  0
VERTEX
  5
33322
330
19D6B
100
AcDbEntity
  8
TITLE_BLOCK
  6
CONTINUOUS
 62
     7
100
AcDbVertex
100
AcDb2dVertex
 10
-19.223617
 20
-19.314575
 30
0.0
 70
    16
  0
VERTEX
  5
33323
330
19D6B
100
AcDbEntity
  8
TITLE_BLOCK
  6
CONTINUOUS
 62
     7
100
AcDbVertex
100
AcDb2dVertex
 10
-19.223617
 20
-19.314575
 30
0.0
 70
    16
  0
VERTEX
  5
33324
330
19D6B
100
AcDbEntity
  8
TITLE_BLOCK
  6
CONTINUOUS
 62
     7
100
AcDbVertex
100
AcDb2dVertex
 10
-19.223617
 20
-19.314575
 30
0.0
 70
    16
  0
SEQEND
  5
33325
330
19D6B
100
AcDbEntity
  8
TITLE_BLOCK
  6
CONTINUOUS
 62
     7
  0
POLYLINE
  5
19DFE
330
33219
100
AcDbEntity
  8
TITLE_BLOCK
  6
CONTINUOUS
 62
     7
100
AcDb2dPolyline
 66
     1
 10
0.0
 20
0.0
 30
0.0
 70
     5
 75
     5
  0
VERTEX
  5
33326
330
19DFE
100
AcDbEntity
  8
TITLE_BLOCK
  6
CONTINUOUS
 62
     7
100
AcDbVertex
100
AcDb2dVertex
 10
-18.366214
 20
-19.303774
 30
0.0
 70
     8
  0
VERTEX
  5
33327
330
19DFE
100
AcDbEntity
  8
TITLE_BLOCK
  6
CONTINUOUS
 62
     7
100
AcDbVertex
100
AcDb2dVertex
 10
-18.179884
 20
-19.152389
 30
0.0
 70
     8
  0
VERTEX
  5
33328
330
19DFE
100
AcDbEntity
  8
TITLE_BLOCK
  6
CONTINUOUS
 62
     7
100
AcDbVertex
100
AcDb2dVertex
 10
-18.08244
 20
-19.081139
 30
0.0
 70
     8
  0
VERTEX
  5
33329
330
19DFE
100
AcDbEntity
  8
TITLE_BLOCK
  6
CONTINUOUS
 62
     7
100
AcDbVertex
100
AcDb2dVertex
 10
-17.981749
 20
-19.014919
 30
0.0
 70
     8
  0
VERTEX
  5
3332A
330
19DFE
100
AcDbEntity
  8
TITLE_BLOCK
  6
CONTINUOUS
 62
     7
100
AcDbVertex
100
AcDb2dVertex
 10
-17.877516
 20
-18.955281
 30
0.0
 70
     8
  0
VERTEX
  5
3332B
330
19DFE
100
AcDbEntity
  8
TITLE_BLOCK
  6
CONTINUOUS
 62
     7
100
AcDbVertex
100
AcDb2dVertex
 10
-17.769445
 20
-18.903775
 30
0.0
 70
     8
  0
VERTEX
  5
3332C
330
19DFE
100
AcDbEntity
  8
TITLE_BLOCK
  6
CONTINUOUS
 62
     7
100
AcDbVertex
100
AcDb2dVertex
 10
-17.657242
 20
-18.861955
 30
0.0
 70
     8
  0
VERTEX
  5
3332D
330
19DFE
100
AcDbEntity
  8
TITLE_BLOCK
  6
CONTINUOUS
 62
     7
100
AcDbVertex
100
AcDb2dVertex
 10
-17.540609
 20
-18.831372
 30
0.0
 70
     8
  0
VERTEX
  5
3332E
330
19DFE
100
AcDbEntity
  8
TITLE_BLOCK
  6
CONTINUOUS
 62
     7
100
AcDbVertex
100
AcDb2dVertex
 10
-17.518005
 20
-18.867081
 30
0.0
 70
     8
  0
VERTEX
  5
3332F
330
19DFE
100
AcDbEntity
  8
TITLE_BLOCK
  6
CONTINUOUS
 62
     7
100
AcDbVertex
100
AcDb2dVertex
 10
-17.501508
 20
-18.903448
 30
0.0
 70
     8
  0
VERTEX
  5
33330
330
19DFE
100
AcDbEntity
  8
TITLE_BLOCK
  6
CONTINUOUS
 62
     7
100
AcDbVertex
100
AcDb2dVertex
 10
-17.490697
 20
-18.940306
 30
0.0
 70
     8
  0
VERTEX
  5
33331
330
19DFE
100
AcDbEntity
  8
TITLE_BLOCK
  6
CONTINUOUS
 62
     7
100
AcDbVertex
100
AcDb2dVertex
 10
-17.485156
 20
-18.977488
 30
0.0
 70
     8
  0
VERTEX
  5
33332
330
19DFE
100
AcDbEntity
  8
TITLE_BLOCK
  6
CONTINUOUS
 62
     7
100
AcDbVertex
100
AcDb2dVertex
 10
-17.484466
 20
-19.014828
 30
0.0
 70
     8
  0
VERTEX
  5
33333
330
19DFE
100
AcDbEntity
  8
TITLE_BLOCK
  6
CONTINUOUS
 62
     7
100
AcDbVertex
100
AcDb2dVertex
 10
-17.488208
 20
-19.052157
 30
0.0
 70
     8
  0
VERTEX
  5
33334
330
19DFE
100
AcDbEntity
  8
TITLE_BLOCK
  6
CONTINUOUS
 62
     7
100
AcDbVertex
100
AcDb2dVertex
 10
-17.495965
 20
-19.089309
 30
0.0
 70
     8
  0
VERTEX
  5
33335
330
19DFE
100
AcDbEntity
  8
TITLE_BLOCK
  6
CONTINUOUS
 62
     7
100
AcDbVertex
100
AcDb2dVertex
 10
-17.507318
 20
-19.126118
 30
0.0
 70
     8
  0
VERTEX
  5
33336
330
19DFE
100
AcDbEntity
  8
TITLE_BLOCK
  6
CONTINUOUS
 62
     7
100
AcDbVertex
100
AcDb2dVertex
 10
-17.539139
 20
-19.198035
 30
0.0
 70
     8
  0
VERTEX
  5
33337
330
19DFE
100
AcDbEntity
  8
TITLE_BLOCK
  6
CONTINUOUS
 62
     7
100
AcDbVertex
100
AcDb2dVertex
 10
-17.580325
 20
-19.266573
 30
0.0
 70
     8
  0
VERTEX
  5
33338
330
19DFE
100
AcDbEntity
  8
TITLE_BLOCK
  6
CONTINUOUS
 62
     7
100
AcDbVertex
100
AcDb2dVertex
 10
-17.627529
 20
-19.330396
 30
0.0
 70
     8
  0
VERTEX
  5
33339
330
19DFE
100
AcDbEntity
  8
TITLE_BLOCK
  6
CONTINUOUS
 62
     7
100
AcDbVertex
100
AcDb2dVertex
 10
-17.677406
 20
-19.388168
 30
0.0
 70
     8
  0
VERTEX
  5
3333A
330
19DFE
100
AcDbEntity
  8
TITLE_BLOCK
  6
CONTINUOUS
 62
     7
100
AcDbVertex
100
AcDb2dVertex
 10
-17.749249
 20
-19.45931
 30
0.0
 70
     8
  0
VERTEX
  5
3333B
330
19DFE
100
AcDbEntity
  8
TITLE_BLOCK
  6
CONTINUOUS
 62
     7
100
AcDbVertex
100
AcDb2dVertex
 10
-17.823961
 20
-19.526855
 30
0.0
 70
     8
  0
VERTEX
  5
3333C
330
19DFE
100
AcDbEntity
  8
TITLE_BLOCK
  6
CONTINUOUS
 62
     7
100
AcDbVertex
100
AcDb2dVertex
 10
-17.901364
 20
-19.59091
 30
0.0
 70
     8
  0
VERTEX
  5
3333D
330
19DFE
100
AcDbEntity
  8
TITLE_BLOCK
  6
CONTINUOUS
 62
     7
100
AcDbVertex
100
AcDb2dVertex
 10
-17.98128
 20
-19.651582
 30
0.0
 70
     8
  0
VERTEX
  5
3333E
330
19DFE
100
AcDbEntity
  8
TITLE_BLOCK
  6
CONTINUOUS
 62
     7
100
AcDbVertex
100
AcDb2dVertex
 10
-18.063531
 20
-19.708978
 30
0.0
 70
     8
  0
VERTEX
  5
3333F
330
19DFE
100
AcDbEntity
  8
TITLE_BLOCK
  6
CONTINUOUS
 62
     7
100
AcDbVertex
100
AcDb2dVertex
 10
-18.147938
 20
-19.763204
 30
0.0
 70
     8
  0
VERTEX
  5
33340
330
19DFE
100
AcDbEntity
  8
TITLE_BLOCK
  6
CONTINUOUS
 62
     7
100
AcDbVertex
100
AcDb2dVertex
 10
-18.234323
 20
-19.814367
 30
0.0
 70
     8
  0
VERTEX
  5
33341
330
19DFE
100
AcDbEntity
  8
TITLE_BLOCK
  6
CONTINUOUS
 62
     7
100
AcDbVertex
100
AcDb2dVertex
 10
-18.322508
 20
-19.862573
 30
0.0
 70
     8
  0
VERTEX
  5
33342
330
19DFE
100
AcDbEntity
  8
TITLE_BLOCK
  6
CONTINUOUS
 62
     7
100
AcDbVertex
100
AcDb2dVertex
 10
-18.503566
 20
-19.950541
 30
0.0
 70
     8
  0
VERTEX
  5
33343
330
19DFE
100
AcDbEntity
  8
TITLE_BLOCK
  6
CONTINUOUS
 62
     7
100
AcDbVertex
100
AcDb2dVertex
 10
-18.689686
 20
-20.027963
 30
0.0
 70
     8
  0
VERTEX
  5
33344
330
19DFE
100
AcDbEntity
  8
TITLE_BLOCK
  6
CONTINUOUS
 62
     7
100
AcDbVertex
100
AcDb2dVertex
 10
-18.879442
 20
-20.09569
 30
0.0
 70
     8
  0
VERTEX
  5
33345
330
19DFE
100
AcDbEntity
  8
TITLE_BLOCK
  6
CONTINUOUS
 62
     7
100
AcDbVertex
100
AcDb2dVertex
 10
-19.07141
 20
-20.154575
 30
0.0
 70
     8
  0
VERTEX
  5
33346
330
19DFE
100
AcDbEntity
  8
TITLE_BLOCK
  6
CONTINUOUS
 62
     7
100
AcDbVertex
100
AcDb2dVertex
 10
-18.741158
 20
-19.70997
 30
0.0
 70
     8
  0
VERTEX
  5
33347
330
19DFE
100
AcDbEntity
  8
TITLE_BLOCK
  6
CONTINUOUS
 62
     7
100
AcDbVertex
100
AcDb2dVertex
 10
-18.654624
 20
-19.602007
 30
0.0
 70
     8
  0
VERTEX
  5
33348
330
19DFE
100
AcDbEntity
  8
TITLE_BLOCK
  6
CONTINUOUS
 62
     7
100
AcDbVertex
100
AcDb2dVertex
 10
-18.564091
 20
-19.49757
 30
0.0
 70
     8
  0
VERTEX
  5
33349
330
19DFE
100
AcDbEntity
  8
TITLE_BLOCK
  6
CONTINUOUS
 62
     7
100
AcDbVertex
100
AcDb2dVertex
 10
-18.468356
 20
-19.397784
 30
0.0
 70
     8
  0
VERTEX
  5
3334A
330
19DFE
100
AcDbEntity
  8
TITLE_BLOCK
  6
CONTINUOUS
 62
     7
100
AcDbVertex
100
AcDb2dVertex
 10
-18.366214
 20
-19.303774
 30
0.0
 70
     8
  0
VERTEX
  5
3334B
330
19DFE
100
AcDbEntity
  8
TITLE_BLOCK
  6
CONTINUOUS
 62
     7
100
AcDbVertex
100
AcDb2dVertex
 10
-18.366214
 20
-19.303774
 30
0.0
 70
     8
  0
VERTEX
  5
3334C
330
19DFE
100
AcDbEntity
  8
TITLE_BLOCK
  6
CONTINUOUS
 62
     7
100
AcDbVertex
100
AcDb2dVertex
 10
-18.366214
 20
-19.303774
 30
0.0
 70
    16
  0
VERTEX
  5
3334D
330
19DFE
100
AcDbEntity
  8
TITLE_BLOCK
  6
CONTINUOUS
 62
     7
100
AcDbVertex
100
AcDb2dVertex
 10
-18.124593
 20
-19.098168
 30
0.0
 70
    16
  0
VERTEX
  5
3334E
330
19DFE
100
AcDbEntity
  8
TITLE_BLOCK
  6
CONTINUOUS
 62
     7
100
AcDbVertex
100
AcDb2dVertex
 10
-17.857797
 20
-18.896567
 30
0.0
 70
    16
  0
VERTEX
  5
3334F
330
19DFE
100
AcDbEntity
  8
TITLE_BLOCK
  6
CONTINUOUS
 62
     7
100
AcDbVertex
100
AcDb2dVertex
 10
-17.540609
 20
-18.831372
 30
0.0
 70
    16
  0
VERTEX
  5
33350
330
19DFE
100
AcDbEntity
  8
TITLE_BLOCK
  6
CONTINUOUS
 62
     7
100
AcDbVertex
100
AcDb2dVertex
 10
-17.403031
 20
-19.01977
 30
0.0
 70
    16
  0
VERTEX
  5
33351
330
19DFE
100
AcDbEntity
  8
TITLE_BLOCK
  6
CONTINUOUS
 62
     7
100
AcDbVertex
100
AcDb2dVertex
 10
-17.543812
 20
-19.243364
 30
0.0
 70
    16
  0
VERTEX
  5
33352
330
19DFE
100
AcDbEntity
  8
TITLE_BLOCK
  6
CONTINUOUS
 62
     7
100
AcDbVertex
100
AcDb2dVertex
 10
-17.677406
 20
-19.388168
 30
0.0
 70
    16
  0
VERTEX
  5
33353
330
19DFE
100
AcDbEntity
  8
TITLE_BLOCK
  6
CONTINUOUS
 62
     7
100
AcDbVertex
100
AcDb2dVertex
 10
-18.052601
 20
-19.777368
 30
0.0
 70
    16
  0
VERTEX
  5
33354
330
19DFE
100
AcDbEntity
  8
TITLE_BLOCK
  6
CONTINUOUS
 62
     7
100
AcDbVertex
100
AcDb2dVertex
 10
-18.557816
 20
-20.008579
 30
0.0
 70
    16
  0
VERTEX
  5
33355
330
19DFE
100
AcDbEntity
  8
TITLE_BLOCK
  6
CONTINUOUS
 62
     7
100
AcDbVertex
100
AcDb2dVertex
 10
-19.07141
 20
-20.154575
 30
0.0
 70
    16
  0
VERTEX
  5
33356
330
19DFE
100
AcDbEntity
  8
TITLE_BLOCK
  6
CONTINUOUS
 62
     7
100
AcDbVertex
100
AcDb2dVertex
 10
-18.849007
 20
-19.861372
 30
0.0
 70
    16
  0
VERTEX
  5
33357
330
19DFE
100
AcDbEntity
  8
TITLE_BLOCK
  6
CONTINUOUS
 62
     7
100
AcDbVertex
100
AcDb2dVertex
 10
-18.648207
 20
-19.545766
 30
0.0
 70
    16
  0
VERTEX
  5
33358
330
19DFE
100
AcDbEntity
  8
TITLE_BLOCK
  6
CONTINUOUS
 62
     7
100
AcDbVertex
100
AcDb2dVertex
 10
-18.366214
 20
-19.303774
 30
0.0
 70
    16
  0
VERTEX
  5
33359
330
19DFE
100
AcDbEntity
  8
TITLE_BLOCK
  6
CONTINUOUS
 62
     7
100
AcDbVertex
100
AcDb2dVertex
 10
-18.366214
 20
-19.303774
 30
0.0
 70
    16
  0
VERTEX
  5
3335A
330
19DFE
100
AcDbEntity
  8
TITLE_BLOCK
  6
CONTINUOUS
 62
     7
100
AcDbVertex
100
AcDb2dVertex
 10
-18.366214
 20
-19.303774
 30
0.0
 70
    16
  0
VERTEX
  5
3335B
330
19DFE
100
AcDbEntity
  8
TITLE_BLOCK
  6
CONTINUOUS
 62
     7
100
AcDbVertex
100
AcDb2dVertex
 10
-18.366214
 20
-19.303774
 30
0.0
 70
    16
  0
SEQEND
  5
3335C
330
19DFE
100
AcDbEntity
  8
TITLE_BLOCK
  6
CONTINUOUS
 62
     7
  0
POLYLINE
  5
19E35
330
33219
100
AcDbEntity
  8
TITLE_BLOCK
  6
CONTINUOUS
 62
     7
100
AcDb2dPolyline
 66
     1
 10
0.0
 20
0.0
 30
0.0
 70
     5
 75
     5
  0
VERTEX
  5
3335D
330
19E35
100
AcDbEntity
  8
TITLE_BLOCK
  6
CONTINUOUS
 62
     7
100
AcDbVertex
100
AcDb2dVertex
 10
-23.601371
 20
-22.763793
 30
0.0
 70
     8
  0
VERTEX
  5
3335E
330
19E35
100
AcDbEntity
  8
TITLE_BLOCK
  6
CONTINUOUS
 62
     7
100
AcDbVertex
100
AcDb2dVertex
 10
-23.04057
 20
-22.765356
 30
0.0
 70
     8
  0
VERTEX
  5
3335F
330
19E35
100
AcDbEntity
  8
TITLE_BLOCK
  6
CONTINUOUS
 62
     7
100
AcDbVertex
100
AcDb2dVertex
 10
-23.041761
 20
-22.927387
 30
0.0
 70
     8
  0
VERTEX
  5
33360
330
19E35
100
AcDbEntity
  8
TITLE_BLOCK
  6
CONTINUOUS
 62
     7
100
AcDbVertex
100
AcDb2dVertex
 10
-23.221761
 20
-22.924575
 30
0.0
 70
     8
  0
VERTEX
  5
33361
330
19E35
100
AcDbEntity
  8
TITLE_BLOCK
  6
CONTINUOUS
 62
     7
100
AcDbVertex
100
AcDb2dVertex
 10
-23.401761
 20
-22.92059
 30
0.0
 70
     8
  0
VERTEX
  5
33362
330
19E35
100
AcDbEntity
  8
TITLE_BLOCK
  6
CONTINUOUS
 62
     7
100
AcDbVertex
100
AcDb2dVertex
 10
-23.404554
 20
-23.004184
 30
0.0
 70
     8
  0
VERTEX
  5
33363
330
19E35
100
AcDbEntity
  8
TITLE_BLOCK
  6
CONTINUOUS
 62
     7
100
AcDbVertex
100
AcDb2dVertex
 10
-23.242364
 20
-23.004824
 30
0.0
 70
     8
  0
VERTEX
  5
33364
330
19E35
100
AcDbEntity
  8
TITLE_BLOCK
  6
CONTINUOUS
 62
     7
100
AcDbVertex
100
AcDb2dVertex
 10
-23.08016
 20
-23.006957
 30
0.0
 70
     8
  0
VERTEX
  5
33365
330
19E35
100
AcDbEntity
  8
TITLE_BLOCK
  6
CONTINUOUS
 62
     7
100
AcDbVertex
100
AcDb2dVertex
 10
-23.084554
 20
-23.164965
 30
0.0
 70
     8
  0
VERTEX
  5
33366
330
19E35
100
AcDbEntity
  8
TITLE_BLOCK
  6
CONTINUOUS
 62
     7
100
AcDbVertex
100
AcDb2dVertex
 10
-23.244767
 20
-23.166123
 30
0.0
 70
     8
  0
VERTEX
  5
33367
330
19E35
100
AcDbEntity
  8
TITLE_BLOCK
  6
CONTINUOUS
 62
     7
100
AcDbVertex
100
AcDb2dVertex
 10
-23.404964
 20
-23.165786
 30
0.0
 70
     8
  0
VERTEX
  5
33368
330
19E35
100
AcDbEntity
  8
TITLE_BLOCK
  6
CONTINUOUS
 62
     7
100
AcDbVertex
100
AcDb2dVertex
 10
-23.401761
 20
-23.287387
 30
0.0
 70
     8
  0
VERTEX
  5
33369
330
19E35
100
AcDbEntity
  8
TITLE_BLOCK
  6
CONTINUOUS
 62
     7
100
AcDbVertex
100
AcDb2dVertex
 10
-23.310624
 20
-23.285281
 30
0.0
 70
     8
  0
VERTEX
  5
3336A
330
19E35
100
AcDbEntity
  8
TITLE_BLOCK
  6
CONTINUOUS
 62
     7
100
AcDbVertex
100
AcDb2dVertex
 10
-23.219564
 20
-23.284721
 30
0.0
 70
     8
  0
VERTEX
  5
3336B
330
19E35
100
AcDbEntity
  8
TITLE_BLOCK
  6
CONTINUOUS
 62
     7
100
AcDbVertex
100
AcDb2dVertex
 10
-23.037367
 20
-23.286567
 30
0.0
 70
     8
  0
VERTEX
  5
3336C
330
19E35
100
AcDbEntity
  8
TITLE_BLOCK
  6
CONTINUOUS
 62
     7
100
AcDbVertex
100
AcDb2dVertex
 10
-23.048558
 20
-23.447387
 30
0.0
 70
     8
  0
VERTEX
  5
3336D
330
19E35
100
AcDbEntity
  8
TITLE_BLOCK
  6
CONTINUOUS
 62
     7
100
AcDbVertex
100
AcDb2dVertex
 10
-23.186201
 20
-23.445124
 30
0.0
 70
     8
  0
VERTEX
  5
3336E
330
19E35
100
AcDbEntity
  8
TITLE_BLOCK
  6
CONTINUOUS
 62
     7
100
AcDbVertex
100
AcDb2dVertex
 10
-23.323763
 20
-23.44437
 30
0.0
 70
     8
  0
VERTEX
  5
3336F
330
19E35
100
AcDbEntity
  8
TITLE_BLOCK
  6
CONTINUOUS
 62
     7
100
AcDbVertex
100
AcDb2dVertex
 10
-23.461326
 20
-23.445124
 30
0.0
 70
     8
  0
VERTEX
  5
33370
330
19E35
100
AcDbEntity
  8
TITLE_BLOCK
  6
CONTINUOUS
 62
     7
100
AcDbVertex
100
AcDb2dVertex
 10
-23.598968
 20
-23.447387
 30
0.0
 70
     8
  0
VERTEX
  5
33371
330
19E35
100
AcDbEntity
  8
TITLE_BLOCK
  6
CONTINUOUS
 62
     7
100
AcDbVertex
100
AcDb2dVertex
 10
-23.602939
 20
-23.276388
 30
0.0
 70
     8
  0
VERTEX
  5
33372
330
19E35
100
AcDbEntity
  8
TITLE_BLOCK
  6
CONTINUOUS
 62
     7
100
AcDbVertex
100
AcDb2dVertex
 10
-23.603766
 20
-23.105429
 30
0.0
 70
     8
  0
VERTEX
  5
33373
330
19E35
100
AcDbEntity
  8
TITLE_BLOCK
  6
CONTINUOUS
 62
     7
100
AcDbVertex
100
AcDb2dVertex
 10
-23.601371
 20
-22.763793
 30
0.0
 70
     8
  0
VERTEX
  5
33374
330
19E35
100
AcDbEntity
  8
TITLE_BLOCK
  6
CONTINUOUS
 62
     7
100
AcDbVertex
100
AcDb2dVertex
 10
-23.601371
 20
-22.763793
 30
0.0
 70
     8
  0
VERTEX
  5
33375
330
19E35
100
AcDbEntity
  8
TITLE_BLOCK
  6
CONTINUOUS
 62
     7
100
AcDbVertex
100
AcDb2dVertex
 10
-23.601371
 20
-22.763793
 30
0.0
 70
    16
  0
VERTEX
  5
33376
330
19E35
100
AcDbEntity
  8
TITLE_BLOCK
  6
CONTINUOUS
 62
     7
100
AcDbVertex
100
AcDb2dVertex
 10
-23.414164
 20
-22.762973
 30
0.0
 70
    16
  0
VERTEX
  5
33377
330
19E35
100
AcDbEntity
  8
TITLE_BLOCK
  6
CONTINUOUS
 62
     7
100
AcDbVertex
100
AcDb2dVertex
 10
-23.227367
 20
-22.765786
 30
0.0
 70
    16
  0
VERTEX
  5
33378
330
19E35
100
AcDbEntity
  8
TITLE_BLOCK
  6
CONTINUOUS
 62
     7
100
AcDbVertex
100
AcDb2dVertex
 10
-23.04057
 20
-22.765356
 30
0.0
 70
    16
  0
VERTEX
  5
33379
330
19E35
100
AcDbEntity
  8
TITLE_BLOCK
  6
CONTINUOUS
 62
     7
100
AcDbVertex
100
AcDb2dVertex
 10
-23.041371
 20
-22.819379
 30
0.0
 70
    16
  0
VERTEX
  5
3337A
330
19E35
100
AcDbEntity
  8
TITLE_BLOCK
  6
CONTINUOUS
 62
     7
100
AcDbVertex
100
AcDb2dVertex
 10
-23.041761
 20
-22.873364
 30
0.0
 70
    16
  0
VERTEX
  5
3337B
330
19E35
100
AcDbEntity
  8
TITLE_BLOCK
  6
CONTINUOUS
 62
     7
100
AcDbVertex
100
AcDb2dVertex
 10
-23.041761
 20
-22.927387
 30
0.0
 70
    16
  0
VERTEX
  5
3337C
330
19E35
100
AcDbEntity
  8
TITLE_BLOCK
  6
CONTINUOUS
 62
     7
100
AcDbVertex
100
AcDb2dVertex
 10
-23.161761
 20
-22.924965
 30
0.0
 70
    16
  0
VERTEX
  5
3337D
330
19E35
100
AcDbEntity
  8
TITLE_BLOCK
  6
CONTINUOUS
 62
     7
100
AcDbVertex
100
AcDb2dVertex
 10
-23.281761
 20
-22.924575
 30
0.0
 70
    16
  0
VERTEX
  5
3337E
330
19E35
100
AcDbEntity
  8
TITLE_BLOCK
  6
CONTINUOUS
 62
     7
100
AcDbVertex
100
AcDb2dVertex
 10
-23.401761
 20
-22.92059
 30
0.0
 70
    16
  0
VERTEX
  5
3337F
330
19E35
100
AcDbEntity
  8
TITLE_BLOCK
  6
CONTINUOUS
 62
     7
100
AcDbVertex
100
AcDb2dVertex
 10
-23.402562
 20
-22.941372
 30
0.0
 70
    16
  0
VERTEX
  5
33380
330
19E35
100
AcDbEntity
  8
TITLE_BLOCK
  6
CONTINUOUS
 62
     7
100
AcDbVertex
100
AcDb2dVertex
 10
-23.403754
 20
-22.983364
 30
0.0
 70
    16
  0
VERTEX
  5
33381
330
19E35
100
AcDbEntity
  8
TITLE_BLOCK
  6
CONTINUOUS
 62
     7
100
AcDbVertex
100
AcDb2dVertex
 10
-23.404554
 20
-23.004184
 30
0.0
 70
    16
  0
VERTEX
  5
33382
330
19E35
100
AcDbEntity
  8
TITLE_BLOCK
  6
CONTINUOUS
 62
     7
100
AcDbVertex
100
AcDb2dVertex
 10
-23.296566
 20
-23.004575
 30
0.0
 70
    16
  0
VERTEX
  5
33383
330
19E35
100
AcDbEntity
  8
TITLE_BLOCK
  6
CONTINUOUS
 62
     7
100
AcDbVertex
100
AcDb2dVertex
 10
-23.188168
 20
-23.004575
 30
0.0
 70
    16
  0
VERTEX
  5
33384
330
19E35
100
AcDbEntity
  8
TITLE_BLOCK
  6
CONTINUOUS
 62
     7
100
AcDbVertex
100
AcDb2dVertex
 10
-23.08016
 20
-23.006957
 30
0.0
 70
    16
  0
VERTEX
  5
33385
330
19E35
100
AcDbEntity
  8
TITLE_BLOCK
  6
CONTINUOUS
 62
     7
100
AcDbVertex
100
AcDb2dVertex
 10
-23.082172
 20
-23.059379
 30
0.0
 70
    16
  0
VERTEX
  5
33386
330
19E35
100
AcDbEntity
  8
TITLE_BLOCK
  6
CONTINUOUS
 62
     7
100
AcDbVertex
100
AcDb2dVertex
 10
-23.083363
 20
-23.112192
 30
0.0
 70
    16
  0
VERTEX
  5
33387
330
19E35
100
AcDbEntity
  8
TITLE_BLOCK
  6
CONTINUOUS
 62
     7
100
AcDbVertex
100
AcDb2dVertex
 10
-23.084554
 20
-23.164965
 30
0.0
 70
    16
  0
VERTEX
  5
33388
330
19E35
100
AcDbEntity
  8
TITLE_BLOCK
  6
CONTINUOUS
 62
     7
100
AcDbVertex
100
AcDb2dVertex
 10
-23.191371
 20
-23.166176
 30
0.0
 70
    16
  0
VERTEX
  5
33389
330
19E35
100
AcDbEntity
  8
TITLE_BLOCK
  6
CONTINUOUS
 62
     7
100
AcDbVertex
100
AcDb2dVertex
 10
-23.298168
 20
-23.166567
 30
0.0
 70
    16
  0
VERTEX
  5
3338A
330
19E35
100
AcDbEntity
  8
TITLE_BLOCK
  6
CONTINUOUS
 62
     7
100
AcDbVertex
100
AcDb2dVertex
 10
-23.404964
 20
-23.165786
 30
0.0
 70
    16
  0
VERTEX
  5
3338B
330
19E35
100
AcDbEntity
  8
TITLE_BLOCK
  6
CONTINUOUS
 62
     7
100
AcDbVertex
100
AcDb2dVertex
 10
-23.404164
 20
-23.196176
 30
0.0
 70
    16
  0
VERTEX
  5
3338C
330
19E35
100
AcDbEntity
  8
TITLE_BLOCK
  6
CONTINUOUS
 62
     7
100
AcDbVertex
100
AcDb2dVertex
 10
-23.402562
 20
-23.256957
 30
0.0
 70
    16
  0
VERTEX
  5
3338D
330
19E35
100
AcDbEntity
  8
TITLE_BLOCK
  6
CONTINUOUS
 62
     7
100
AcDbVertex
100
AcDb2dVertex
 10
-23.401761
 20
-23.287387
 30
0.0
 70
    16
  0
VERTEX
  5
3338E
330
19E35
100
AcDbEntity
  8
TITLE_BLOCK
  6
CONTINUOUS
 62
     7
100
AcDbVertex
100
AcDb2dVertex
 10
-23.28016
 20
-23.283364
 30
0.0
 70
    16
  0
VERTEX
  5
3338F
330
19E35
100
AcDbEntity
  8
TITLE_BLOCK
  6
CONTINUOUS
 62
     7
100
AcDbVertex
100
AcDb2dVertex
 10
-23.158968
 20
-23.284575
 30
0.0
 70
    16
  0
VERTEX
  5
33390
330
19E35
100
AcDbEntity
  8
TITLE_BLOCK
  6
CONTINUOUS
 62
     7
100
AcDbVertex
100
AcDb2dVertex
 10
-23.037367
 20
-23.286567
 30
0.0
 70
    16
  0
VERTEX
  5
33391
330
19E35
100
AcDbEntity
  8
TITLE_BLOCK
  6
CONTINUOUS
 62
     7
100
AcDbVertex
100
AcDb2dVertex
 10
-23.040961
 20
-23.340161
 30
0.0
 70
    16
  0
VERTEX
  5
33392
330
19E35
100
AcDbEntity
  8
TITLE_BLOCK
  6
CONTINUOUS
 62
     7
100
AcDbVertex
100
AcDb2dVertex
 10
-23.044964
 20
-23.393793
 30
0.0
 70
    16
  0
VERTEX
  5
33393
330
19E35
100
AcDbEntity
  8
TITLE_BLOCK
  6
CONTINUOUS
 62
     7
100
AcDbVertex
100
AcDb2dVertex
 10
-23.048558
 20
-23.447387
 30
0.0
 70
    16
  0
VERTEX
  5
33394
330
19E35
100
AcDbEntity
  8
TITLE_BLOCK
  6
CONTINUOUS
 62
     7
100
AcDbVertex
100
AcDb2dVertex
 10
-23.232172
 20
-23.443364
 30
0.0
 70
    16
  0
VERTEX
  5
33395
330
19E35
100
AcDbEntity
  8
TITLE_BLOCK
  6
CONTINUOUS
 62
     7
100
AcDbVertex
100
AcDb2dVertex
 10
-23.415355
 20
-23.443364
 30
0.0
 70
    16
  0
VERTEX
  5
33396
330
19E35
100
AcDbEntity
  8
TITLE_BLOCK
  6
CONTINUOUS
 62
     7
100
AcDbVertex
100
AcDb2dVertex
 10
-23.598968
 20
-23.447387
 30
0.0
 70
    16
  0
VERTEX
  5
33397
330
19E35
100
AcDbEntity
  8
TITLE_BLOCK
  6
CONTINUOUS
 62
     7
100
AcDbVertex
100
AcDb2dVertex
 10
-23.606957
 20
-23.219379
 30
0.0
 70
    16
  0
VERTEX
  5
33398
330
19E35
100
AcDbEntity
  8
TITLE_BLOCK
  6
CONTINUOUS
 62
     7
100
AcDbVertex
100
AcDb2dVertex
 10
-23.602972
 20
-22.991372
 30
0.0
 70
    16
  0
VERTEX
  5
33399
330
19E35
100
AcDbEntity
  8
TITLE_BLOCK
  6
CONTINUOUS
 62
     7
100
AcDbVertex
100
AcDb2dVertex
 10
-23.601371
 20
-22.763793
 30
0.0
 70
    16
  0
VERTEX
  5
3339A
330
19E35
100
AcDbEntity
  8
TITLE_BLOCK
  6
CONTINUOUS
 62
     7
100
AcDbVertex
100
AcDb2dVertex
 10
-23.601371
 20
-22.763793
 30
0.0
 70
    16
  0
VERTEX
  5
3339B
330
19E35
100
AcDbEntity
  8
TITLE_BLOCK
  6
CONTINUOUS
 62
     7
100
AcDbVertex
100
AcDb2dVertex
 10
-23.601371
 20
-22.763793
 30
0.0
 70
    16
  0
VERTEX
  5
3339C
330
19E35
100
AcDbEntity
  8
TITLE_BLOCK
  6
CONTINUOUS
 62
     7
100
AcDbVertex
100
AcDb2dVertex
 10
-23.601371
 20
-22.763793
 30
0.0
 70
    16
  0
SEQEND
  5
3339D
330
19E35
100
AcDbEntity
  8
TITLE_BLOCK
  6
CONTINUOUS
 62
     7
  0
POLYLINE
  5
19E76
330
33219
100
AcDbEntity
  8
TITLE_BLOCK
  6
CONTINUOUS
 62
     7
100
AcDb2dPolyline
 66
     1
 10
0.0
 20
0.0
 30
0.0
 70
     5
 75
     5
  0
VERTEX
  5
3339E
330
19E76
100
AcDbEntity
  8
TITLE_BLOCK
  6
CONTINUOUS
 62
     7
100
AcDbVertex
100
AcDb2dVertex
 10
-22.842562
 20
-22.843364
 30
0.0
 70
     8
  0
VERTEX
  5
3339F
330
19E76
100
AcDbEntity
  8
TITLE_BLOCK
  6
CONTINUOUS
 62
     7
100
AcDbVertex
100
AcDb2dVertex
 10
-22.809248
 20
-22.820535
 30
0.0
 70
     8
  0
VERTEX
  5
333A0
330
19E76
100
AcDbEntity
  8
TITLE_BLOCK
  6
CONTINUOUS
 62
     7
100
AcDbVertex
100
AcDb2dVertex
 10
-22.773393
 20
-22.801701
 30
0.0
 70
     8
  0
VERTEX
  5
333A1
330
19E76
100
AcDbEntity
  8
TITLE_BLOCK
  6
CONTINUOUS
 62
     7
100
AcDbVertex
100
AcDb2dVertex
 10
-22.735502
 20
-22.786869
 30
0.0
 70
     8
  0
VERTEX
  5
333A2
330
19E76
100
AcDbEntity
  8
TITLE_BLOCK
  6
CONTINUOUS
 62
     7
100
AcDbVertex
100
AcDb2dVertex
 10
-22.696081
 20
-22.776052
 30
0.0
 70
     8
  0
VERTEX
  5
333A3
330
19E76
100
AcDbEntity
  8
TITLE_BLOCK
  6
CONTINUOUS
 62
     7
100
AcDbVertex
100
AcDb2dVertex
 10
-22.655636
 20
-22.769258
 30
0.0
 70
     8
  0
VERTEX
  5
333A4
330
19E76
100
AcDbEntity
  8
TITLE_BLOCK
  6
CONTINUOUS
 62
     7
100
AcDbVertex
100
AcDb2dVertex
 10
-22.614672
 20
-22.766498
 30
0.0
 70
     8
  0
VERTEX
  5
333A5
330
19E76
100
AcDbEntity
  8
TITLE_BLOCK
  6
CONTINUOUS
 62
     7
100
AcDbVertex
100
AcDb2dVertex
 10
-22.573695
 20
-22.767782
 30
0.0
 70
     8
  0
VERTEX
  5
333A6
330
19E76
100
AcDbEntity
  8
TITLE_BLOCK
  6
CONTINUOUS
 62
     7
100
AcDbVertex
100
AcDb2dVertex
 10
-22.533212
 20
-22.77312
 30
0.0
 70
     8
  0
VERTEX
  5
333A7
330
19E76
100
AcDbEntity
  8
TITLE_BLOCK
  6
CONTINUOUS
 62
     7
100
AcDbVertex
100
AcDb2dVertex
 10
-22.493726
 20
-22.782521
 30
0.0
 70
     8
  0
VERTEX
  5
333A8
330
19E76
100
AcDbEntity
  8
TITLE_BLOCK
  6
CONTINUOUS
 62
     7
100
AcDbVertex
100
AcDb2dVertex
 10
-22.455745
 20
-22.795997
 30
0.0
 70
     8
  0
VERTEX
  5
333A9
330
19E76
100
AcDbEntity
  8
TITLE_BLOCK
  6
CONTINUOUS
 62
     7
100
AcDbVertex
100
AcDb2dVertex
 10
-22.419773
 20
-22.813558
 30
0.0
 70
     8
  0
VERTEX
  5
333AA
330
19E76
100
AcDbEntity
  8
TITLE_BLOCK
  6
CONTINUOUS
 62
     7
100
AcDbVertex
100
AcDb2dVertex
 10
-22.386316
 20
-22.835212
 30
0.0
 70
     8
  0
VERTEX
  5
333AB
330
19E76
100
AcDbEntity
  8
TITLE_BLOCK
  6
CONTINUOUS
 62
     7
100
AcDbVertex
100
AcDb2dVertex
 10
-22.355881
 20
-22.860971
 30
0.0
 70
     8
  0
VERTEX
  5
333AC
330
19E76
100
AcDbEntity
  8
TITLE_BLOCK
  6
CONTINUOUS
 62
     7
100
AcDbVertex
100
AcDb2dVertex
 10
-22.328972
 20
-22.890844
 30
0.0
 70
     8
  0
VERTEX
  5
333AD
330
19E76
100
AcDbEntity
  8
TITLE_BLOCK
  6
CONTINUOUS
 62
     7
100
AcDbVertex
100
AcDb2dVertex
 10
-22.306096
 20
-22.924841
 30
0.0
 70
     8
  0
VERTEX
  5
333AE
330
19E76
100
AcDbEntity
  8
TITLE_BLOCK
  6
CONTINUOUS
 62
     7
100
AcDbVertex
100
AcDb2dVertex
 10
-22.296328
 20
-22.94339
 30
0.0
 70
     8
  0
VERTEX
  5
333AF
330
19E76
100
AcDbEntity
  8
TITLE_BLOCK
  6
CONTINUOUS
 62
     7
100
AcDbVertex
100
AcDb2dVertex
 10
-22.287757
 20
-22.962973
 30
0.0
 70
     8
  0
VERTEX
  5
333B0
330
19E76
100
AcDbEntity
  8
TITLE_BLOCK
  6
CONTINUOUS
 62
     7
100
AcDbVertex
100
AcDb2dVertex
 10
-22.377062
 20
-22.977275
 30
0.0
 70
     8
  0
VERTEX
  5
333B1
330
19E76
100
AcDbEntity
  8
TITLE_BLOCK
  6
CONTINUOUS
 62
     7
100
AcDbVertex
100
AcDb2dVertex
 10
-22.465765
 20
-22.993364
 30
0.0
 70
     8
  0
VERTEX
  5
333B2
330
19E76
100
AcDbEntity
  8
TITLE_BLOCK
  6
CONTINUOUS
 62
     7
100
AcDbVertex
100
AcDb2dVertex
 10
-22.477367
 20
-22.978206
 30
0.0
 70
     8
  0
VERTEX
  5
333B3
330
19E76
100
AcDbEntity
  8
TITLE_BLOCK
  6
CONTINUOUS
 62
     7
100
AcDbVertex
100
AcDb2dVertex
 10
-22.490325
 20
-22.964949
 30
0.0
 70
     8
  0
VERTEX
  5
333B4
330
19E76
100
AcDbEntity
  8
TITLE_BLOCK
  6
CONTINUOUS
 62
     7
100
AcDbVertex
100
AcDb2dVertex
 10
-22.504484
 20
-22.953553
 30
0.0
 70
     8
  0
VERTEX
  5
333B5
330
19E76
100
AcDbEntity
  8
TITLE_BLOCK
  6
CONTINUOUS
 62
     7
100
AcDbVertex
100
AcDb2dVertex
 10
-22.51969
 20
-22.943977
 30
0.0
 70
     8
  0
VERTEX
  5
333B6
330
19E76
100
AcDbEntity
  8
TITLE_BLOCK
  6
CONTINUOUS
 62
     7
100
AcDbVertex
100
AcDb2dVertex
 10
-22.53579
 20
-22.936181
 30
0.0
 70
     8
  0
VERTEX
  5
333B7
330
19E76
100
AcDbEntity
  8
TITLE_BLOCK
  6
CONTINUOUS
 62
     7
100
AcDbVertex
100
AcDb2dVertex
 10
-22.552628
 20
-22.930126
 30
0.0
 70
     8
  0
VERTEX
  5
333B8
330
19E76
100
AcDbEntity
  8
TITLE_BLOCK
  6
CONTINUOUS
 62
     7
100
AcDbVertex
100
AcDb2dVertex
 10
-22.570052
 20
-22.925773
 30
0.0
 70
     8
  0
VERTEX
  5
333B9
330
19E76
100
AcDbEntity
  8
TITLE_BLOCK
  6
CONTINUOUS
 62
     7
100
AcDbVertex
100
AcDb2dVertex
 10
-22.587906
 20
-22.923081
 30
0.0
 70
     8
  0
VERTEX
  5
333BA
330
19E76
100
AcDbEntity
  8
TITLE_BLOCK
  6
CONTINUOUS
 62
     7
100
AcDbVertex
100
AcDb2dVertex
 10
-22.624291
 20
-22.92252
 30
0.0
 70
     8
  0
VERTEX
  5
333BB
330
19E76
100
AcDbEntity
  8
TITLE_BLOCK
  6
CONTINUOUS
 62
     7
100
AcDbVertex
100
AcDb2dVertex
 10
-22.66055
 20
-22.928127
 30
0.0
 70
     8
  0
VERTEX
  5
333BC
330
19E76
100
AcDbEntity
  8
TITLE_BLOCK
  6
CONTINUOUS
 62
     7
100
AcDbVertex
100
AcDb2dVertex
 10
-22.69545
 20
-22.939582
 30
0.0
 70
     8
  0
VERTEX
  5
333BD
330
19E76
100
AcDbEntity
  8
TITLE_BLOCK
  6
CONTINUOUS
 62
     7
100
AcDbVertex
100
AcDb2dVertex
 10
-22.727757
 20
-22.956567
 30
0.0
 70
     8
  0
VERTEX
  5
333BE
330
19E76
100
AcDbEntity
  8
TITLE_BLOCK
  6
CONTINUOUS
 62
     7
100
AcDbVertex
100
AcDb2dVertex
 10
-22.742867
 20
-22.979024
 30
0.0
 70
     8
  0
VERTEX
  5
333BF
330
19E76
100
AcDbEntity
  8
TITLE_BLOCK
  6
CONTINUOUS
 62
     7
100
AcDbVertex
100
AcDb2dVertex
 10
-22.753083
 20
-23.003478
 30
0.0
 70
     8
  0
VERTEX
  5
333C0
330
19E76
100
AcDbEntity
  8
TITLE_BLOCK
  6
CONTINUOUS
 62
     7
100
AcDbVertex
100
AcDb2dVertex
 10
-22.759288
 20
-23.029451
 30
0.0
 70
     8
  0
VERTEX
  5
333C1
330
19E76
100
AcDbEntity
  8
TITLE_BLOCK
  6
CONTINUOUS
 62
     7
100
AcDbVertex
100
AcDb2dVertex
 10
-22.762362
 20
-23.056464
 30
0.0
 70
     8
  0
VERTEX
  5
333C2
330
19E76
100
AcDbEntity
  8
TITLE_BLOCK
  6
CONTINUOUS
 62
     7
100
AcDbVertex
100
AcDb2dVertex
 10
-22.762639
 20
-23.111699
 30
0.0
 70
     8
  0
VERTEX
  5
333C3
330
19E76
100
AcDbEntity
  8
TITLE_BLOCK
  6
CONTINUOUS
 62
     7
100
AcDbVertex
100
AcDb2dVertex
 10
-22.760961
 20
-23.165356
 30
0.0
 70
     8
  0
VERTEX
  5
333C4
330
19E76
100
AcDbEntity
  8
TITLE_BLOCK
  6
CONTINUOUS
 62
     7
100
AcDbVertex
100
AcDb2dVertex
 10
-22.759549
 20
-23.194644
 30
0.0
 70
     8
  0
VERTEX
  5
333C5
330
19E76
100
AcDbEntity
  8
TITLE_BLOCK
  6
CONTINUOUS
 62
     7
100
AcDbVertex
100
AcDb2dVertex
 10
-22.75249
 20
-23.219714
 30
0.0
 70
     8
  0
VERTEX
  5
333C6
330
19E76
100
AcDbEntity
  8
TITLE_BLOCK
  6
CONTINUOUS
 62
     7
100
AcDbVertex
100
AcDb2dVertex
 10
-22.740503
 20
-23.240662
 30
0.0
 70
     8
  0
VERTEX
  5
333C7
330
19E76
100
AcDbEntity
  8
TITLE_BLOCK
  6
CONTINUOUS
 62
     7
100
AcDbVertex
100
AcDb2dVertex
 10
-22.724307
 20
-23.257584
 30
0.0
 70
     8
  0
VERTEX
  5
333C8
330
19E76
100
AcDbEntity
  8
TITLE_BLOCK
  6
CONTINUOUS
 62
     7
100
AcDbVertex
100
AcDb2dVertex
 10
-22.704621
 20
-23.270575
 30
0.0
 70
     8
  0
VERTEX
  5
333C9
330
19E76
100
AcDbEntity
  8
TITLE_BLOCK
  6
CONTINUOUS
 62
     7
100
AcDbVertex
100
AcDb2dVertex
 10
-22.682164
 20
-23.27973
 30
0.0
 70
     8
  0
VERTEX
  5
333CA
330
19E76
100
AcDbEntity
  8
TITLE_BLOCK
  6
CONTINUOUS
 62
     7
100
AcDbVertex
100
AcDb2dVertex
 10
-22.657655
 20
-23.285147
 30
0.0
 70
     8
  0
VERTEX
  5
333CB
330
19E76
100
AcDbEntity
  8
TITLE_BLOCK
  6
CONTINUOUS
 62
     7
100
AcDbVertex
100
AcDb2dVertex
 10
-22.631813
 20
-23.286918
 30
0.0
 70
     8
  0
VERTEX
  5
333CC
330
19E76
100
AcDbEntity
  8
TITLE_BLOCK
  6
CONTINUOUS
 62
     7
100
AcDbVertex
100
AcDb2dVertex
 10
-22.605356
 20
-23.285142
 30
0.0
 70
     8
  0
VERTEX
  5
333CD
330
19E76
100
AcDbEntity
  8
TITLE_BLOCK
  6
CONTINUOUS
 62
     7
100
AcDbVertex
100
AcDb2dVertex
 10
-22.579005
 20
-23.279912
 30
0.0
 70
     8
  0
VERTEX
  5
333CE
330
19E76
100
AcDbEntity
  8
TITLE_BLOCK
  6
CONTINUOUS
 62
     7
100
AcDbVertex
100
AcDb2dVertex
 10
-22.553477
 20
-23.271325
 30
0.0
 70
     8
  0
VERTEX
  5
333CF
330
19E76
100
AcDbEntity
  8
TITLE_BLOCK
  6
CONTINUOUS
 62
     7
100
AcDbVertex
100
AcDb2dVertex
 10
-22.529492
 20
-23.259476
 30
0.0
 70
     8
  0
VERTEX
  5
333D0
330
19E76
100
AcDbEntity
  8
TITLE_BLOCK
  6
CONTINUOUS
 62
     7
100
AcDbVertex
100
AcDb2dVertex
 10
-22.50777
 20
-23.24446
 30
0.0
 70
     8
  0
VERTEX
  5
333D1
330
19E76
100
AcDbEntity
  8
TITLE_BLOCK
  6
CONTINUOUS
 62
     7
100
AcDbVertex
100
AcDb2dVertex
 10
-22.489028
 20
-23.226374
 30
0.0
 70
     8
  0
VERTEX
  5
333D2
330
19E76
100
AcDbEntity
  8
TITLE_BLOCK
  6
CONTINUOUS
 62
     7
100
AcDbVertex
100
AcDb2dVertex
 10
-22.473986
 20
-23.205313
 30
0.0
 70
     8
  0
VERTEX
  5
333D3
330
19E76
100
AcDbEntity
  8
TITLE_BLOCK
  6
CONTINUOUS
 62
     7
100
AcDbVertex
100
AcDb2dVertex
 10
-22.463363
 20
-23.181372
 30
0.0
 70
     8
  0
VERTEX
  5
333D4
330
19E76
100
AcDbEntity
  8
TITLE_BLOCK
  6
CONTINUOUS
 62
     7
100
AcDbVertex
100
AcDb2dVertex
 10
-22.29057
 20
-23.211372
 30
0.0
 70
     8
  0
VERTEX
  5
333D5
330
19E76
100
AcDbEntity
  8
TITLE_BLOCK
  6
CONTINUOUS
 62
     7
100
AcDbVertex
100
AcDb2dVertex
 10
-22.294861
 20
-23.235572
 30
0.0
 70
     8
  0
VERTEX
  5
333D6
330
19E76
100
AcDbEntity
  8
TITLE_BLOCK
  6
CONTINUOUS
 62
     7
100
AcDbVertex
100
AcDb2dVertex
 10
-22.301474
 20
-23.258132
 30
0.0
 70
     8
  0
VERTEX
  5
333D7
330
19E76
100
AcDbEntity
  8
TITLE_BLOCK
  6
CONTINUOUS
 62
     7
100
AcDbVertex
100
AcDb2dVertex
 10
-22.310237
 20
-23.279136
 30
0.0
 70
     8
  0
VERTEX
  5
333D8
330
19E76
100
AcDbEntity
  8
TITLE_BLOCK
  6
CONTINUOUS
 62
     7
100
AcDbVertex
100
AcDb2dVertex
 10
-22.320977
 20
-23.298668
 30
0.0
 70
     8
  0
VERTEX
  5
333D9
330
19E76
100
AcDbEntity
  8
TITLE_BLOCK
  6
CONTINUOUS
 62
     7
100
AcDbVertex
100
AcDb2dVertex
 10
-22.333522
 20
-23.316813
 30
0.0
 70
     8
  0
VERTEX
  5
333DA
330
19E76
100
AcDbEntity
  8
TITLE_BLOCK
  6
CONTINUOUS
 62
     7
100
AcDbVertex
100
AcDb2dVertex
 10
-22.3477
 20
-23.333656
 30
0.0
 70
     8
  0
VERTEX
  5
333DB
330
19E76
100
AcDbEntity
  8
TITLE_BLOCK
  6
CONTINUOUS
 62
     7
100
AcDbVertex
100
AcDb2dVertex
 10
-22.363338
 20
-23.349279
 30
0.0
 70
     8
  0
VERTEX
  5
333DC
330
19E76
100
AcDbEntity
  8
TITLE_BLOCK
  6
CONTINUOUS
 62
     7
100
AcDbVertex
100
AcDb2dVertex
 10
-22.380265
 20
-23.363769
 30
0.0
 70
     8
  0
VERTEX
  5
333DD
330
19E76
100
AcDbEntity
  8
TITLE_BLOCK
  6
CONTINUOUS
 62
     7
100
AcDbVertex
100
AcDb2dVertex
 10
-22.417293
 20
-23.389684
 30
0.0
 70
     8
  0
VERTEX
  5
333DE
330
19E76
100
AcDbEntity
  8
TITLE_BLOCK
  6
CONTINUOUS
 62
     7
100
AcDbVertex
100
AcDb2dVertex
 10
-22.457406
 20
-23.412075
 30
0.0
 70
     8
  0
VERTEX
  5
333DF
330
19E76
100
AcDbEntity
  8
TITLE_BLOCK
  6
CONTINUOUS
 62
     7
100
AcDbVertex
100
AcDb2dVertex
 10
-22.499224
 20
-23.431619
 30
0.0
 70
     8
  0
VERTEX
  5
333E0
330
19E76
100
AcDbEntity
  8
TITLE_BLOCK
  6
CONTINUOUS
 62
     7
100
AcDbVertex
100
AcDb2dVertex
 10
-22.541371
 20
-23.448989
 30
0.0
 70
     8
  0
VERTEX
  5
333E1
330
19E76
100
AcDbEntity
  8
TITLE_BLOCK
  6
CONTINUOUS
 62
     7
100
AcDbVertex
100
AcDb2dVertex
 10
-22.633814
 20
-23.439504
 30
0.0
 70
     8
  0
VERTEX
  5
333E2
330
19E76
100
AcDbEntity
  8
TITLE_BLOCK
  6
CONTINUOUS
 62
     7
100
AcDbVertex
100
AcDb2dVertex
 10
-22.680917
 20
-23.432537
 30
0.0
 70
     8
  0
VERTEX
  5
333E3
330
19E76
100
AcDbEntity
  8
TITLE_BLOCK
  6
CONTINUOUS
 62
     7
100
AcDbVertex
100
AcDb2dVertex
 10
-22.727159
 20
-23.422416
 30
0.0
 70
     8
  0
VERTEX
  5
333E4
330
19E76
100
AcDbEntity
  8
TITLE_BLOCK
  6
CONTINUOUS
 62
     7
100
AcDbVertex
100
AcDb2dVertex
 10
-22.771452
 20
-23.407891
 30
0.0
 70
     8
  0
VERTEX
  5
333E5
330
19E76
100
AcDbEntity
  8
TITLE_BLOCK
  6
CONTINUOUS
 62
     7
100
AcDbVertex
100
AcDb2dVertex
 10
-22.792528
 20
-23.398584
 30
0.0
 70
     8
  0
VERTEX
  5
333E6
330
19E76
100
AcDbEntity
  8
TITLE_BLOCK
  6
CONTINUOUS
 62
     7
100
AcDbVertex
100
AcDb2dVertex
 10
-22.812708
 20
-23.387707
 30
0.0
 70
     8
  0
VERTEX
  5
333E7
330
19E76
100
AcDbEntity
  8
TITLE_BLOCK
  6
CONTINUOUS
 62
     7
100
AcDbVertex
100
AcDb2dVertex
 10
-22.831858
 20
-23.375102
 30
0.0
 70
     8
  0
VERTEX
  5
333E8
330
19E76
100
AcDbEntity
  8
TITLE_BLOCK
  6
CONTINUOUS
 62
     7
100
AcDbVertex
100
AcDb2dVertex
 10
-22.849841
 20
-23.360613
 30
0.0
 70
     8
  0
VERTEX
  5
333E9
330
19E76
100
AcDbEntity
  8
TITLE_BLOCK
  6
CONTINUOUS
 62
     7
100
AcDbVertex
100
AcDb2dVertex
 10
-22.86652
 20
-23.344083
 30
0.0
 70
     8
  0
VERTEX
  5
333EA
330
19E76
100
AcDbEntity
  8
TITLE_BLOCK
  6
CONTINUOUS
 62
     7
100
AcDbVertex
100
AcDb2dVertex
 10
-22.881761
 20
-23.325356
 30
0.0
 70
     8
  0
VERTEX
  5
333EB
330
19E76
100
AcDbEntity
  8
TITLE_BLOCK
  6
CONTINUOUS
 62
     7
100
AcDbVertex
100
AcDb2dVertex
 10
-22.901742
 20
-23.298639
 30
0.0
 70
     8
  0
VERTEX
  5
333EC
330
19E76
100
AcDbEntity
  8
TITLE_BLOCK
  6
CONTINUOUS
 62
     7
100
AcDbVertex
100
AcDb2dVertex
 10
-22.918778
 20
-23.269997
 30
0.0
 70
     8
  0
VERTEX
  5
333ED
330
19E76
100
AcDbEntity
  8
TITLE_BLOCK
  6
CONTINUOUS
 62
     7
100
AcDbVertex
100
AcDb2dVertex
 10
-22.932859
 20
-23.239745
 30
0.0
 70
     8
  0
VERTEX
  5
333EE
330
19E76
100
AcDbEntity
  8
TITLE_BLOCK
  6
CONTINUOUS
 62
     7
100
AcDbVertex
100
AcDb2dVertex
 10
-22.943977
 20
-23.208198
 30
0.0
 70
     8
  0
VERTEX
  5
333EF
330
19E76
100
AcDbEntity
  8
TITLE_BLOCK
  6
CONTINUOUS
 62
     7
100
AcDbVertex
100
AcDb2dVertex
 10
-22.95212
 20
-23.175671
 30
0.0
 70
     8
  0
VERTEX
  5
333F0
330
19E76
100
AcDbEntity
  8
TITLE_BLOCK
  6
CONTINUOUS
 62
     7
100
AcDbVertex
100
AcDb2dVertex
 10
-22.95728
 20
-23.14248
 30
0.0
 70
     8
  0
VERTEX
  5
333F1
330
19E76
100
AcDbEntity
  8
TITLE_BLOCK
  6
CONTINUOUS
 62
     7
100
AcDbVertex
100
AcDb2dVertex
 10
-22.959446
 20
-23.10894
 30
0.0
 70
     8
  0
VERTEX
  5
333F2
330
19E76
100
AcDbEntity
  8
TITLE_BLOCK
  6
CONTINUOUS
 62
     7
100
AcDbVertex
100
AcDb2dVertex
 10
-22.958607
 20
-23.075366
 30
0.0
 70
     8
  0
VERTEX
  5
333F3
330
19E76
100
AcDbEntity
  8
TITLE_BLOCK
  6
CONTINUOUS
 62
     7
100
AcDbVertex
100
AcDb2dVertex
 10
-22.954755
 20
-23.042072
 30
0.0
 70
     8
  0
VERTEX
  5
333F4
330
19E76
100
AcDbEntity
  8
TITLE_BLOCK
  6
CONTINUOUS
 62
     7
100
AcDbVertex
100
AcDb2dVertex
 10
-22.947878
 20
-23.009375
 30
0.0
 70
     8
  0
VERTEX
  5
333F5
330
19E76
100
AcDbEntity
  8
TITLE_BLOCK
  6
CONTINUOUS
 62
     7
100
AcDbVertex
100
AcDb2dVertex
 10
-22.937968
 20
-22.97759
 30
0.0
 70
     8
  0
VERTEX
  5
333F6
330
19E76
100
AcDbEntity
  8
TITLE_BLOCK
  6
CONTINUOUS
 62
     7
100
AcDbVertex
100
AcDb2dVertex
 10
-22.925015
 20
-22.947031
 30
0.0
 70
     8
  0
VERTEX
  5
333F7
330
19E76
100
AcDbEntity
  8
TITLE_BLOCK
  6
CONTINUOUS
 62
     7
100
AcDbVertex
100
AcDb2dVertex
 10
-22.909007
 20
-22.918013
 30
0.0
 70
     8
  0
VERTEX
  5
333F8
330
19E76
100
AcDbEntity
  8
TITLE_BLOCK
  6
CONTINUOUS
 62
     7
100
AcDbVertex
100
AcDb2dVertex
 10
-22.889936
 20
-22.890853
 30
0.0
 70
     8
  0
VERTEX
  5
333F9
330
19E76
100
AcDbEntity
  8
TITLE_BLOCK
  6
CONTINUOUS
 62
     7
100
AcDbVertex
100
AcDb2dVertex
 10
-22.867791
 20
-22.865865
 30
0.0
 70
     8
  0
VERTEX
  5
333FA
330
19E76
100
AcDbEntity
  8
TITLE_BLOCK
  6
CONTINUOUS
 62
     7
100
AcDbVertex
100
AcDb2dVertex
 10
-22.842562
 20
-22.843364
 30
0.0
 70
     8
  0
VERTEX
  5
333FB
330
19E76
100
AcDbEntity
  8
TITLE_BLOCK
  6
CONTINUOUS
 62
     7
100
AcDbVertex
100
AcDb2dVertex
 10
-22.842562
 20
-22.843364
 30
0.0
 70
     8
  0
VERTEX
  5
333FC
330
19E76
100
AcDbEntity
  8
TITLE_BLOCK
  6
CONTINUOUS
 62
     7
100
AcDbVertex
100
AcDb2dVertex
 10
-22.842562
 20
-22.843364
 30
0.0
 70
    16
  0
VERTEX
  5
333FD
330
19E76
100
AcDbEntity
  8
TITLE_BLOCK
  6
CONTINUOUS
 62
     7
100
AcDbVertex
100
AcDb2dVertex
 10
-22.672562
 20
-22.710981
 30
0.0
 70
    16
  0
VERTEX
  5
333FE
330
19E76
100
AcDbEntity
  8
TITLE_BLOCK
  6
CONTINUOUS
 62
     7
100
AcDbVertex
100
AcDb2dVertex
 10
-22.372562
 20
-22.748559
 30
0.0
 70
    16
  0
VERTEX
  5
333FF
330
19E76
100
AcDbEntity
  8
TITLE_BLOCK
  6
CONTINUOUS
 62
     7
100
AcDbVertex
100
AcDb2dVertex
 10
-22.287757
 20
-22.962973
 30
0.0
 70
    16
  0
VERTEX
  5
33400
330
19E76
100
AcDbEntity
  8
TITLE_BLOCK
  6
CONTINUOUS
 62
     7
100
AcDbVertex
100
AcDb2dVertex
 10
-22.347367
 20
-22.972192
 30
0.0
 70
    16
  0
VERTEX
  5
33401
330
19E76
100
AcDbEntity
  8
TITLE_BLOCK
  6
CONTINUOUS
 62
     7
100
AcDbVertex
100
AcDb2dVertex
 10
-22.406957
 20
-22.981762
 30
0.0
 70
    16
  0
VERTEX
  5
33402
330
19E76
100
AcDbEntity
  8
TITLE_BLOCK
  6
CONTINUOUS
 62
     7
100
AcDbVertex
100
AcDb2dVertex
 10
-22.465765
 20
-22.993364
 30
0.0
 70
    16
  0
VERTEX
  5
33403
330
19E76
100
AcDbEntity
  8
TITLE_BLOCK
  6
CONTINUOUS
 62
     7
100
AcDbVertex
100
AcDb2dVertex
 10
-22.523754
 20
-22.907387
 30
0.0
 70
    16
  0
VERTEX
  5
33404
330
19E76
100
AcDbEntity
  8
TITLE_BLOCK
  6
CONTINUOUS
 62
     7
100
AcDbVertex
100
AcDb2dVertex
 10
-22.646156
 20
-22.904184
 30
0.0
 70
    16
  0
VERTEX
  5
33405
330
19E76
100
AcDbEntity
  8
TITLE_BLOCK
  6
CONTINUOUS
 62
     7
100
AcDbVertex
100
AcDb2dVertex
 10
-22.727757
 20
-22.956567
 30
0.0
 70
    16
  0
VERTEX
  5
33406
330
19E76
100
AcDbEntity
  8
TITLE_BLOCK
  6
CONTINUOUS
 62
     7
100
AcDbVertex
100
AcDb2dVertex
 10
-22.775355
 20
-23.013364
 30
0.0
 70
    16
  0
VERTEX
  5
33407
330
19E76
100
AcDbEntity
  8
TITLE_BLOCK
  6
CONTINUOUS
 62
     7
100
AcDbVertex
100
AcDb2dVertex
 10
-22.761371
 20
-23.096567
 30
0.0
 70
    16
  0
VERTEX
  5
33408
330
19E76
100
AcDbEntity
  8
TITLE_BLOCK
  6
CONTINUOUS
 62
     7
100
AcDbVertex
100
AcDb2dVertex
 10
-22.760961
 20
-23.165356
 30
0.0
 70
    16
  0
VERTEX
  5
33409
330
19E76
100
AcDbEntity
  8
TITLE_BLOCK
  6
CONTINUOUS
 62
     7
100
AcDbVertex
100
AcDb2dVertex
 10
-22.769769
 20
-23.332973
 30
0.0
 70
    16
  0
VERTEX
  5
3340A
330
19E76
100
AcDbEntity
  8
TITLE_BLOCK
  6
CONTINUOUS
 62
     7
100
AcDbVertex
100
AcDb2dVertex
 10
-22.506957
 20
-23.316567
 30
0.0
 70
    16
  0
VERTEX
  5
3340B
330
19E76
100
AcDbEntity
  8
TITLE_BLOCK
  6
CONTINUOUS
 62
     7
100
AcDbVertex
100
AcDb2dVertex
 10
-22.463363
 20
-23.181372
 30
0.0
 70
    16
  0
VERTEX
  5
3340C
330
19E76
100
AcDbEntity
  8
TITLE_BLOCK
  6
CONTINUOUS
 62
     7
100
AcDbVertex
100
AcDb2dVertex
 10
-22.405765
 20
-23.191762
 30
0.0
 70
    16
  0
VERTEX
  5
3340D
330
19E76
100
AcDbEntity
  8
TITLE_BLOCK
  6
CONTINUOUS
 62
     7
100
AcDbVertex
100
AcDb2dVertex
 10
-22.348168
 20
-23.201762
 30
0.0
 70
    16
  0
VERTEX
  5
3340E
330
19E76
100
AcDbEntity
  8
TITLE_BLOCK
  6
CONTINUOUS
 62
     7
100
AcDbVertex
100
AcDb2dVertex
 10
-22.29057
 20
-23.211372
 30
0.0
 70
    16
  0
VERTEX
  5
3340F
330
19E76
100
AcDbEntity
  8
TITLE_BLOCK
  6
CONTINUOUS
 62
     7
100
AcDbVertex
100
AcDb2dVertex
 10
-22.306957
 20
-23.344965
 30
0.0
 70
    16
  0
VERTEX
  5
33410
330
19E76
100
AcDbEntity
  8
TITLE_BLOCK
  6
CONTINUOUS
 62
     7
100
AcDbVertex
100
AcDb2dVertex
 10
-22.429769
 20
-23.404965
 30
0.0
 70
    16
  0
VERTEX
  5
33411
330
19E76
100
AcDbEntity
  8
TITLE_BLOCK
  6
CONTINUOUS
 62
     7
100
AcDbVertex
100
AcDb2dVertex
 10
-22.541371
 20
-23.448989
 30
0.0
 70
    16
  0
VERTEX
  5
33412
330
19E76
100
AcDbEntity
  8
TITLE_BLOCK
  6
CONTINUOUS
 62
     7
100
AcDbVertex
100
AcDb2dVertex
 10
-22.66016
 20
-23.436957
 30
0.0
 70
    16
  0
VERTEX
  5
33413
330
19E76
100
AcDbEntity
  8
TITLE_BLOCK
  6
CONTINUOUS
 62
     7
100
AcDbVertex
100
AcDb2dVertex
 10
-22.804554
 20
-23.431372
 30
0.0
 70
    16
  0
VERTEX
  5
33414
330
19E76
100
AcDbEntity
  8
TITLE_BLOCK
  6
CONTINUOUS
 62
     7
100
AcDbVertex
100
AcDb2dVertex
 10
-22.881761
 20
-23.325356
 30
0.0
 70
    16
  0
VERTEX
  5
33415
330
19E76
100
AcDbEntity
  8
TITLE_BLOCK
  6
CONTINUOUS
 62
     7
100
AcDbVertex
100
AcDb2dVertex
 10
-22.996156
 20
-23.188559
 30
0.0
 70
    16
  0
VERTEX
  5
33416
330
19E76
100
AcDbEntity
  8
TITLE_BLOCK
  6
CONTINUOUS
 62
     7
100
AcDbVertex
100
AcDb2dVertex
 10
-22.985355
 20
-22.956176
 30
0.0
 70
    16
  0
VERTEX
  5
33417
330
19E76
100
AcDbEntity
  8
TITLE_BLOCK
  6
CONTINUOUS
 62
     7
100
AcDbVertex
100
AcDb2dVertex
 10
-22.842562
 20
-22.843364
 30
0.0
 70
    16
  0
VERTEX
  5
33418
330
19E76
100
AcDbEntity
  8
TITLE_BLOCK
  6
CONTINUOUS
 62
     7
100
AcDbVertex
100
AcDb2dVertex
 10
-22.842562
 20
-22.843364
 30
0.0
 70
    16
  0
VERTEX
  5
33419
330
19E76
100
AcDbEntity
  8
TITLE_BLOCK
  6
CONTINUOUS
 62
     7
100
AcDbVertex
100
AcDb2dVertex
 10
-22.842562
 20
-22.843364
 30
0.0
 70
    16
  0
VERTEX
  5
3341A
330
19E76
100
AcDbEntity
  8
TITLE_BLOCK
  6
CONTINUOUS
 62
     7
100
AcDbVertex
100
AcDb2dVertex
 10
-22.842562
 20
-22.843364
 30
0.0
 70
    16
  0
SEQEND
  5
3341B
330
19E76
100
AcDbEntity
  8
TITLE_BLOCK
  6
CONTINUOUS
 62
     7
  0
POLYLINE
  5
19EF4
330
33219
100
AcDbEntity
  8
TITLE_BLOCK
  6
CONTINUOUS
 62
     7
100
AcDb2dPolyline
 66
     1
 10
0.0
 20
0.0
 30
0.0
 70
     5
 75
     5
  0
VERTEX
  5
3341C
330
19EF4
100
AcDbEntity
  8
TITLE_BLOCK
  6
CONTINUOUS
 62
     7
100
AcDbVertex
100
AcDb2dVertex
 10
-22.161761
 20
-22.764575
 30
0.0
 70
     8
  0
VERTEX
  5
3341D
330
19EF4
100
AcDbEntity
  8
TITLE_BLOCK
  6
CONTINUOUS
 62
     7
100
AcDbVertex
100
AcDb2dVertex
 10
-21.962953
 20
-22.762192
 30
0.0
 70
     8
  0
VERTEX
  5
3341E
330
19EF4
100
AcDbEntity
  8
TITLE_BLOCK
  6
CONTINUOUS
 62
     7
100
AcDbVertex
100
AcDb2dVertex
 10
-21.963558
 20
-23.024316
 30
0.0
 70
     8
  0
VERTEX
  5
3341F
330
19EF4
100
AcDbEntity
  8
TITLE_BLOCK
  6
CONTINUOUS
 62
     7
100
AcDbVertex
100
AcDb2dVertex
 10
-21.962398
 20
-23.155299
 30
0.0
 70
     8
  0
VERTEX
  5
33420
330
19EF4
100
AcDbEntity
  8
TITLE_BLOCK
  6
CONTINUOUS
 62
     7
100
AcDbVertex
100
AcDb2dVertex
 10
-21.959359
 20
-23.286176
 30
0.0
 70
     8
  0
VERTEX
  5
33421
330
19EF4
100
AcDbEntity
  8
TITLE_BLOCK
  6
CONTINUOUS
 62
     7
100
AcDbVertex
100
AcDb2dVertex
 10
-21.645355
 20
-23.283364
 30
0.0
 70
     8
  0
VERTEX
  5
33422
330
19EF4
100
AcDbEntity
  8
TITLE_BLOCK
  6
CONTINUOUS
 62
     7
100
AcDbVertex
100
AcDb2dVertex
 10
-21.638558
 20
-23.443793
 30
0.0
 70
     8
  0
VERTEX
  5
33423
330
19EF4
100
AcDbEntity
  8
TITLE_BLOCK
  6
CONTINUOUS
 62
     7
100
AcDbVertex
100
AcDb2dVertex
 10
-21.899759
 20
-23.444326
 30
0.0
 70
     8
  0
VERTEX
  5
33424
330
19EF4
100
AcDbEntity
  8
TITLE_BLOCK
  6
CONTINUOUS
 62
     7
100
AcDbVertex
100
AcDb2dVertex
 10
-22.160961
 20
-23.443364
 30
0.0
 70
     8
  0
VERTEX
  5
33425
330
19EF4
100
AcDbEntity
  8
TITLE_BLOCK
  6
CONTINUOUS
 62
     7
100
AcDbVertex
100
AcDb2dVertex
 10
-22.163901
 20
-23.273807
 30
0.0
 70
     8
  0
VERTEX
  5
33426
330
19EF4
100
AcDbEntity
  8
TITLE_BLOCK
  6
CONTINUOUS
 62
     7
100
AcDbVertex
100
AcDb2dVertex
 10
-22.164064
 20
-23.10413
 30
0.0
 70
     8
  0
VERTEX
  5
33427
330
19EF4
100
AcDbEntity
  8
TITLE_BLOCK
  6
CONTINUOUS
 62
     7
100
AcDbVertex
100
AcDb2dVertex
 10
-22.161761
 20
-22.764575
 30
0.0
 70
     8
  0
VERTEX
  5
33428
330
19EF4
100
AcDbEntity
  8
TITLE_BLOCK
  6
CONTINUOUS
 62
     7
100
AcDbVertex
100
AcDb2dVertex
 10
-22.161761
 20
-22.764575
 30
0.0
 70
     8
  0
VERTEX
  5
33429
330
19EF4
100
AcDbEntity
  8
TITLE_BLOCK
  6
CONTINUOUS
 62
     7
100
AcDbVertex
100
AcDb2dVertex
 10
-22.161761
 20
-22.764575
 30
0.0
 70
    16
  0
VERTEX
  5
3342A
330
19EF4
100
AcDbEntity
  8
TITLE_BLOCK
  6
CONTINUOUS
 62
     7
100
AcDbVertex
100
AcDb2dVertex
 10
-22.095355
 20
-22.763793
 30
0.0
 70
    16
  0
VERTEX
  5
3342B
330
19EF4
100
AcDbEntity
  8
TITLE_BLOCK
  6
CONTINUOUS
 62
     7
100
AcDbVertex
100
AcDb2dVertex
 10
-22.029359
 20
-22.763364
 30
0.0
 70
    16
  0
VERTEX
  5
3342C
330
19EF4
100
AcDbEntity
  8
TITLE_BLOCK
  6
CONTINUOUS
 62
     7
100
AcDbVertex
100
AcDb2dVertex
 10
-21.962953
 20
-22.762192
 30
0.0
 70
    16
  0
VERTEX
  5
3342D
330
19EF4
100
AcDbEntity
  8
TITLE_BLOCK
  6
CONTINUOUS
 62
     7
100
AcDbVertex
100
AcDb2dVertex
 10
-21.963754
 20
-22.936957
 30
0.0
 70
    16
  0
VERTEX
  5
3342E
330
19EF4
100
AcDbEntity
  8
TITLE_BLOCK
  6
CONTINUOUS
 62
     7
100
AcDbVertex
100
AcDb2dVertex
 10
-21.964964
 20
-23.111762
 30
0.0
 70
    16
  0
VERTEX
  5
3342F
330
19EF4
100
AcDbEntity
  8
TITLE_BLOCK
  6
CONTINUOUS
 62
     7
100
AcDbVertex
100
AcDb2dVertex
 10
-21.959359
 20
-23.286176
 30
0.0
 70
    16
  0
VERTEX
  5
33430
330
19EF4
100
AcDbEntity
  8
TITLE_BLOCK
  6
CONTINUOUS
 62
     7
100
AcDbVertex
100
AcDb2dVertex
 10
-21.854964
 20
-23.283793
 30
0.0
 70
    16
  0
VERTEX
  5
33431
330
19EF4
100
AcDbEntity
  8
TITLE_BLOCK
  6
CONTINUOUS
 62
     7
100
AcDbVertex
100
AcDb2dVertex
 10
-21.75016
 20
-23.284184
 30
0.0
 70
    16
  0
VERTEX
  5
33432
330
19EF4
100
AcDbEntity
  8
TITLE_BLOCK
  6
CONTINUOUS
 62
     7
100
AcDbVertex
100
AcDb2dVertex
 10
-21.645355
 20
-23.283364
 30
0.0
 70
    16
  0
VERTEX
  5
33433
330
19EF4
100
AcDbEntity
  8
TITLE_BLOCK
  6
CONTINUOUS
 62
     7
100
AcDbVertex
100
AcDb2dVertex
 10
-21.642953
 20
-23.336957
 30
0.0
 70
    16
  0
VERTEX
  5
33434
330
19EF4
100
AcDbEntity
  8
TITLE_BLOCK
  6
CONTINUOUS
 62
     7
100
AcDbVertex
100
AcDb2dVertex
 10
-21.640961
 20
-23.390161
 30
0.0
 70
    16
  0
VERTEX
  5
33435
330
19EF4
100
AcDbEntity
  8
TITLE_BLOCK
  6
CONTINUOUS
 62
     7
100
AcDbVertex
100
AcDb2dVertex
 10
-21.638558
 20
-23.443793
 30
0.0
 70
    16
  0
VERTEX
  5
33436
330
19EF4
100
AcDbEntity
  8
TITLE_BLOCK
  6
CONTINUOUS
 62
     7
100
AcDbVertex
100
AcDb2dVertex
 10
-21.812562
 20
-23.446176
 30
0.0
 70
    16
  0
VERTEX
  5
33437
330
19EF4
100
AcDbEntity
  8
TITLE_BLOCK
  6
CONTINUOUS
 62
     7
100
AcDbVertex
100
AcDb2dVertex
 10
-21.986957
 20
-23.442973
 30
0.0
 70
    16
  0
VERTEX
  5
33438
330
19EF4
100
AcDbEntity
  8
TITLE_BLOCK
  6
CONTINUOUS
 62
     7
100
AcDbVertex
100
AcDb2dVertex
 10
-22.160961
 20
-23.443364
 30
0.0
 70
    16
  0
VERTEX
  5
33439
330
19EF4
100
AcDbEntity
  8
TITLE_BLOCK
  6
CONTINUOUS
 62
     7
100
AcDbVertex
100
AcDb2dVertex
 10
-22.167367
 20
-23.217387
 30
0.0
 70
    16
  0
VERTEX
  5
3343A
330
19EF4
100
AcDbEntity
  8
TITLE_BLOCK
  6
CONTINUOUS
 62
     7
100
AcDbVertex
100
AcDb2dVertex
 10
-22.162562
 20
-22.990981
 30
0.0
 70
    16
  0
VERTEX
  5
3343B
330
19EF4
100
AcDbEntity
  8
TITLE_BLOCK
  6
CONTINUOUS
 62
     7
100
AcDbVertex
100
AcDb2dVertex
 10
-22.161761
 20
-22.764575
 30
0.0
 70
    16
  0
VERTEX
  5
3343C
330
19EF4
100
AcDbEntity
  8
TITLE_BLOCK
  6
CONTINUOUS
 62
     7
100
AcDbVertex
100
AcDb2dVertex
 10
-22.161761
 20
-22.764575
 30
0.0
 70
    16
  0
VERTEX
  5
3343D
330
19EF4
100
AcDbEntity
  8
TITLE_BLOCK
  6
CONTINUOUS
 62
     7
100
AcDbVertex
100
AcDb2dVertex
 10
-22.161761
 20
-22.764575
 30
0.0
 70
    16
  0
VERTEX
  5
3343E
330
19EF4
100
AcDbEntity
  8
TITLE_BLOCK
  6
CONTINUOUS
 62
     7
100
AcDbVertex
100
AcDb2dVertex
 10
-22.161761
 20
-22.764575
 30
0.0
 70
    16
  0
SEQEND
  5
3343F
330
19EF4
100
AcDbEntity
  8
TITLE_BLOCK
  6
CONTINUOUS
 62
     7
  0
POLYLINE
  5
19F18
330
33219
100
AcDbEntity
  8
TITLE_BLOCK
  6
CONTINUOUS
 62
     7
100
AcDb2dPolyline
 66
     1
 10
0.0
 20
0.0
 30
0.0
 70
     5
 75
     5
  0
VERTEX
  5
33440
330
19F18
100
AcDbEntity
  8
TITLE_BLOCK
  6
CONTINUOUS
 62
     7
100
AcDbVertex
100
AcDb2dVertex
 10
-21.521761
 20
-22.764575
 30
0.0
 70
     8
  0
VERTEX
  5
33441
330
19F18
100
AcDbEntity
  8
TITLE_BLOCK
  6
CONTINUOUS
 62
     7
100
AcDbVertex
100
AcDb2dVertex
 10
-21.322953
 20
-22.762192
 30
0.0
 70
     8
  0
VERTEX
  5
33442
330
19F18
100
AcDbEntity
  8
TITLE_BLOCK
  6
CONTINUOUS
 62
     7
100
AcDbVertex
100
AcDb2dVertex
 10
-21.322953
 20
-23.443793
 30
0.0
 70
     8
  0
VERTEX
  5
33443
330
19F18
100
AcDbEntity
  8
TITLE_BLOCK
  6
CONTINUOUS
 62
     7
100
AcDbVertex
100
AcDb2dVertex
 10
-21.523754
 20
-23.443364
 30
0.0
 70
     8
  0
VERTEX
  5
33444
330
19F18
100
AcDbEntity
  8
TITLE_BLOCK
  6
CONTINUOUS
 62
     7
100
AcDbVertex
100
AcDb2dVertex
 10
-21.521761
 20
-22.764575
 30
0.0
 70
     8
  0
VERTEX
  5
33445
330
19F18
100
AcDbEntity
  8
TITLE_BLOCK
  6
CONTINUOUS
 62
     7
100
AcDbVertex
100
AcDb2dVertex
 10
-21.521761
 20
-22.764575
 30
0.0
 70
     8
  0
VERTEX
  5
33446
330
19F18
100
AcDbEntity
  8
TITLE_BLOCK
  6
CONTINUOUS
 62
     7
100
AcDbVertex
100
AcDb2dVertex
 10
-21.521761
 20
-22.764575
 30
0.0
 70
    16
  0
VERTEX
  5
33447
330
19F18
100
AcDbEntity
  8
TITLE_BLOCK
  6
CONTINUOUS
 62
     7
100
AcDbVertex
100
AcDb2dVertex
 10
-21.455355
 20
-22.763793
 30
0.0
 70
    16
  0
VERTEX
  5
33448
330
19F18
100
AcDbEntity
  8
TITLE_BLOCK
  6
CONTINUOUS
 62
     7
100
AcDbVertex
100
AcDb2dVertex
 10
-21.389359
 20
-22.763364
 30
0.0
 70
    16
  0
VERTEX
  5
33449
330
19F18
100
AcDbEntity
  8
TITLE_BLOCK
  6
CONTINUOUS
 62
     7
100
AcDbVertex
100
AcDb2dVertex
 10
-21.322953
 20
-22.762192
 30
0.0
 70
    16
  0
VERTEX
  5
3344A
330
19F18
100
AcDbEntity
  8
TITLE_BLOCK
  6
CONTINUOUS
 62
     7
100
AcDbVertex
100
AcDb2dVertex
 10
-21.324164
 20
-22.989379
 30
0.0
 70
    16
  0
VERTEX
  5
3344B
330
19F18
100
AcDbEntity
  8
TITLE_BLOCK
  6
CONTINUOUS
 62
     7
100
AcDbVertex
100
AcDb2dVertex
 10
-21.322172
 20
-23.216567
 30
0.0
 70
    16
  0
VERTEX
  5
3344C
330
19F18
100
AcDbEntity
  8
TITLE_BLOCK
  6
CONTINUOUS
 62
     7
100
AcDbVertex
100
AcDb2dVertex
 10
-21.322953
 20
-23.443793
 30
0.0
 70
    16
  0
VERTEX
  5
3344D
330
19F18
100
AcDbEntity
  8
TITLE_BLOCK
  6
CONTINUOUS
 62
     7
100
AcDbVertex
100
AcDb2dVertex
 10
-21.39016
 20
-23.443364
 30
0.0
 70
    16
  0
VERTEX
  5
3344E
330
19F18
100
AcDbEntity
  8
TITLE_BLOCK
  6
CONTINUOUS
 62
     7
100
AcDbVertex
100
AcDb2dVertex
 10
-21.456957
 20
-23.443364
 30
0.0
 70
    16
  0
VERTEX
  5
3344F
330
19F18
100
AcDbEntity
  8
TITLE_BLOCK
  6
CONTINUOUS
 62
     7
100
AcDbVertex
100
AcDb2dVertex
 10
-21.523754
 20
-23.443364
 30
0.0
 70
    16
  0
VERTEX
  5
33450
330
19F18
100
AcDbEntity
  8
TITLE_BLOCK
  6
CONTINUOUS
 62
     7
100
AcDbVertex
100
AcDb2dVertex
 10
-21.520961
 20
-23.216957
 30
0.0
 70
    16
  0
VERTEX
  5
33451
330
19F18
100
AcDbEntity
  8
TITLE_BLOCK
  6
CONTINUOUS
 62
     7
100
AcDbVertex
100
AcDb2dVertex
 10
-21.524554
 20
-22.990981
 30
0.0
 70
    16
  0
VERTEX
  5
33452
330
19F18
100
AcDbEntity
  8
TITLE_BLOCK
  6
CONTINUOUS
 62
     7
100
AcDbVertex
100
AcDb2dVertex
 10
-21.521761
 20
-22.764575
 30
0.0
 70
    16
  0
VERTEX
  5
33453
330
19F18
100
AcDbEntity
  8
TITLE_BLOCK
  6
CONTINUOUS
 62
     7
100
AcDbVertex
100
AcDb2dVertex
 10
-21.521761
 20
-22.764575
 30
0.0
 70
    16
  0
VERTEX
  5
33454
330
19F18
100
AcDbEntity
  8
TITLE_BLOCK
  6
CONTINUOUS
 62
     7
100
AcDbVertex
100
AcDb2dVertex
 10
-21.521761
 20
-22.764575
 30
0.0
 70
    16
  0
VERTEX
  5
33455
330
19F18
100
AcDbEntity
  8
TITLE_BLOCK
  6
CONTINUOUS
 62
     7
100
AcDbVertex
100
AcDb2dVertex
 10
-21.521761
 20
-22.764575
 30
0.0
 70
    16
  0
SEQEND
  5
33456
330
19F18
100
AcDbEntity
  8
TITLE_BLOCK
  6
CONTINUOUS
 62
     7
  0
POLYLINE
  5
19F2F
330
33219
100
AcDbEntity
  8
TITLE_BLOCK
  6
CONTINUOUS
 62
     7
100
AcDb2dPolyline
 66
     1
 10
0.0
 20
0.0
 30
0.0
 70
     5
 75
     5
  0
VERTEX
  5
33457
330
19F2F
100
AcDbEntity
  8
TITLE_BLOCK
  6
CONTINUOUS
 62
     7
100
AcDbVertex
100
AcDb2dVertex
 10
-21.165765
 20
-22.762973
 30
0.0
 70
     8
  0
VERTEX
  5
33458
330
19F2F
100
AcDbEntity
  8
TITLE_BLOCK
  6
CONTINUOUS
 62
     7
100
AcDbVertex
100
AcDb2dVertex
 10
-21.104838
 20
-22.765725
 30
0.0
 70
     8
  0
VERTEX
  5
33459
330
19F2F
100
AcDbEntity
  8
TITLE_BLOCK
  6
CONTINUOUS
 62
     7
100
AcDbVertex
100
AcDb2dVertex
 10
-21.042997
 20
-22.764714
 30
0.0
 70
     8
  0
VERTEX
  5
3345A
330
19F2F
100
AcDbEntity
  8
TITLE_BLOCK
  6
CONTINUOUS
 62
     7
100
AcDbVertex
100
AcDb2dVertex
 10
-20.918617
 20
-22.760673
 30
0.0
 70
     8
  0
VERTEX
  5
3345B
330
19F2F
100
AcDbEntity
  8
TITLE_BLOCK
  6
CONTINUOUS
 62
     7
100
AcDbVertex
100
AcDb2dVertex
 10
-20.8571
 20
-22.762276
 30
0.0
 70
     8
  0
VERTEX
  5
3345C
330
19F2F
100
AcDbEntity
  8
TITLE_BLOCK
  6
CONTINUOUS
 62
     7
100
AcDbVertex
100
AcDb2dVertex
 10
-20.826733
 20
-22.764997
 30
0.0
 70
     8
  0
VERTEX
  5
3345D
330
19F2F
100
AcDbEntity
  8
TITLE_BLOCK
  6
CONTINUOUS
 62
     7
100
AcDbVertex
100
AcDb2dVertex
 10
-20.796713
 20
-22.769384
 30
0.0
 70
     8
  0
VERTEX
  5
3345E
330
19F2F
100
AcDbEntity
  8
TITLE_BLOCK
  6
CONTINUOUS
 62
     7
100
AcDbVertex
100
AcDb2dVertex
 10
-20.767102
 20
-22.775726
 30
0.0
 70
     8
  0
VERTEX
  5
3345F
330
19F2F
100
AcDbEntity
  8
TITLE_BLOCK
  6
CONTINUOUS
 62
     7
100
AcDbVertex
100
AcDb2dVertex
 10
-20.737966
 20
-22.784312
 30
0.0
 70
     8
  0
VERTEX
  5
33460
330
19F2F
100
AcDbEntity
  8
TITLE_BLOCK
  6
CONTINUOUS
 62
     7
100
AcDbVertex
100
AcDb2dVertex
 10
-20.709367
 20
-22.795434
 30
0.0
 70
     8
  0
VERTEX
  5
33461
330
19F2F
100
AcDbEntity
  8
TITLE_BLOCK
  6
CONTINUOUS
 62
     7
100
AcDbVertex
100
AcDb2dVertex
 10
-20.681371
 20
-22.809379
 30
0.0
 70
     8
  0
VERTEX
  5
33462
330
19F2F
100
AcDbEntity
  8
TITLE_BLOCK
  6
CONTINUOUS
 62
     7
100
AcDbVertex
100
AcDb2dVertex
 10
-20.667146
 20
-22.825541
 30
0.0
 70
     8
  0
VERTEX
  5
33463
330
19F2F
100
AcDbEntity
  8
TITLE_BLOCK
  6
CONTINUOUS
 62
     7
100
AcDbVertex
100
AcDb2dVertex
 10
-20.654341
 20
-22.842749
 30
0.0
 70
     8
  0
VERTEX
  5
33464
330
19F2F
100
AcDbEntity
  8
TITLE_BLOCK
  6
CONTINUOUS
 62
     7
100
AcDbVertex
100
AcDb2dVertex
 10
-20.642978
 20
-22.860885
 30
0.0
 70
     8
  0
VERTEX
  5
33465
330
19F2F
100
AcDbEntity
  8
TITLE_BLOCK
  6
CONTINUOUS
 62
     7
100
AcDbVertex
100
AcDb2dVertex
 10
-20.633078
 20
-22.879833
 30
0.0
 70
     8
  0
VERTEX
  5
33466
330
19F2F
100
AcDbEntity
  8
TITLE_BLOCK
  6
CONTINUOUS
 62
     7
100
AcDbVertex
100
AcDb2dVertex
 10
-20.624664
 20
-22.899478
 30
0.0
 70
     8
  0
VERTEX
  5
33467
330
19F2F
100
AcDbEntity
  8
TITLE_BLOCK
  6
CONTINUOUS
 62
     7
100
AcDbVertex
100
AcDb2dVertex
 10
-20.617759
 20
-22.919701
 30
0.0
 70
     8
  0
VERTEX
  5
33468
330
19F2F
100
AcDbEntity
  8
TITLE_BLOCK
  6
CONTINUOUS
 62
     7
100
AcDbVertex
100
AcDb2dVertex
 10
-20.612385
 20
-22.940388
 30
0.0
 70
     8
  0
VERTEX
  5
33469
330
19F2F
100
AcDbEntity
  8
TITLE_BLOCK
  6
CONTINUOUS
 62
     7
100
AcDbVertex
100
AcDb2dVertex
 10
-20.608563
 20
-22.96142
 30
0.0
 70
     8
  0
VERTEX
  5
3346A
330
19F2F
100
AcDbEntity
  8
TITLE_BLOCK
  6
CONTINUOUS
 62
     7
100
AcDbVertex
100
AcDb2dVertex
 10
-20.606317
 20
-22.982683
 30
0.0
 70
     8
  0
VERTEX
  5
3346B
330
19F2F
100
AcDbEntity
  8
TITLE_BLOCK
  6
CONTINUOUS
 62
     7
100
AcDbVertex
100
AcDb2dVertex
 10
-20.605668
 20
-23.004059
 30
0.0
 70
     8
  0
VERTEX
  5
3346C
330
19F2F
100
AcDbEntity
  8
TITLE_BLOCK
  6
CONTINUOUS
 62
     7
100
AcDbVertex
100
AcDb2dVertex
 10
-20.606638
 20
-23.025431
 30
0.0
 70
     8
  0
VERTEX
  5
3346D
330
19F2F
100
AcDbEntity
  8
TITLE_BLOCK
  6
CONTINUOUS
 62
     7
100
AcDbVertex
100
AcDb2dVertex
 10
-20.609251
 20
-23.046684
 30
0.0
 70
     8
  0
VERTEX
  5
3346E
330
19F2F
100
AcDbEntity
  8
TITLE_BLOCK
  6
CONTINUOUS
 62
     7
100
AcDbVertex
100
AcDb2dVertex
 10
-20.613528
 20
-23.067701
 30
0.0
 70
     8
  0
VERTEX
  5
3346F
330
19F2F
100
AcDbEntity
  8
TITLE_BLOCK
  6
CONTINUOUS
 62
     7
100
AcDbVertex
100
AcDb2dVertex
 10
-20.619491
 20
-23.088365
 30
0.0
 70
     8
  0
VERTEX
  5
33470
330
19F2F
100
AcDbEntity
  8
TITLE_BLOCK
  6
CONTINUOUS
 62
     7
100
AcDbVertex
100
AcDb2dVertex
 10
-20.627163
 20
-23.108559
 30
0.0
 70
     8
  0
VERTEX
  5
33471
330
19F2F
100
AcDbEntity
  8
TITLE_BLOCK
  6
CONTINUOUS
 62
     7
100
AcDbVertex
100
AcDb2dVertex
 10
-20.636566
 20
-23.128168
 30
0.0
 70
     8
  0
VERTEX
  5
33472
330
19F2F
100
AcDbEntity
  8
TITLE_BLOCK
  6
CONTINUOUS
 62
     7
100
AcDbVertex
100
AcDb2dVertex
 10
-20.64816
 20
-23.14971
 30
0.0
 70
     8
  0
VERTEX
  5
33473
330
19F2F
100
AcDbEntity
  8
TITLE_BLOCK
  6
CONTINUOUS
 62
     7
100
AcDbVertex
100
AcDb2dVertex
 10
-20.661945
 20
-23.168294
 30
0.0
 70
     8
  0
VERTEX
  5
33474
330
19F2F
100
AcDbEntity
  8
TITLE_BLOCK
  6
CONTINUOUS
 62
     7
100
AcDbVertex
100
AcDb2dVertex
 10
-20.677702
 20
-23.184159
 30
0.0
 70
     8
  0
VERTEX
  5
33475
330
19F2F
100
AcDbEntity
  8
TITLE_BLOCK
  6
CONTINUOUS
 62
     7
100
AcDbVertex
100
AcDb2dVertex
 10
-20.695213
 20
-23.197545
 30
0.0
 70
     8
  0
VERTEX
  5
33476
330
19F2F
100
AcDbEntity
  8
TITLE_BLOCK
  6
CONTINUOUS
 62
     7
100
AcDbVertex
100
AcDb2dVertex
 10
-20.714258
 20
-23.208689
 30
0.0
 70
     8
  0
VERTEX
  5
33477
330
19F2F
100
AcDbEntity
  8
TITLE_BLOCK
  6
CONTINUOUS
 62
     7
100
AcDbVertex
100
AcDb2dVertex
 10
-20.73462
 20
-23.217832
 30
0.0
 70
     8
  0
VERTEX
  5
33478
330
19F2F
100
AcDbEntity
  8
TITLE_BLOCK
  6
CONTINUOUS
 62
     7
100
AcDbVertex
100
AcDb2dVertex
 10
-20.75608
 20
-23.225212
 30
0.0
 70
     8
  0
VERTEX
  5
33479
330
19F2F
100
AcDbEntity
  8
TITLE_BLOCK
  6
CONTINUOUS
 62
     7
100
AcDbVertex
100
AcDb2dVertex
 10
-20.778419
 20
-23.231069
 30
0.0
 70
     8
  0
VERTEX
  5
3347A
330
19F2F
100
AcDbEntity
  8
TITLE_BLOCK
  6
CONTINUOUS
 62
     7
100
AcDbVertex
100
AcDb2dVertex
 10
-20.824861
 20
-23.239168
 30
0.0
 70
     8
  0
VERTEX
  5
3347B
330
19F2F
100
AcDbEntity
  8
TITLE_BLOCK
  6
CONTINUOUS
 62
     7
100
AcDbVertex
100
AcDb2dVertex
 10
-20.872198
 20
-23.244041
 30
0.0
 70
     8
  0
VERTEX
  5
3347C
330
19F2F
100
AcDbEntity
  8
TITLE_BLOCK
  6
CONTINUOUS
 62
     7
100
AcDbVertex
100
AcDb2dVertex
 10
-20.962562
 20
-23.251762
 30
0.0
 70
     8
  0
VERTEX
  5
3347D
330
19F2F
100
AcDbEntity
  8
TITLE_BLOCK
  6
CONTINUOUS
 62
     7
100
AcDbVertex
100
AcDb2dVertex
 10
-20.960961
 20
-23.442582
 30
0.0
 70
     8
  0
VERTEX
  5
3347E
330
19F2F
100
AcDbEntity
  8
TITLE_BLOCK
  6
CONTINUOUS
 62
     7
100
AcDbVertex
100
AcDb2dVertex
 10
-21.161371
 20
-23.447387
 30
0.0
 70
     8
  0
VERTEX
  5
3347F
330
19F2F
100
AcDbEntity
  8
TITLE_BLOCK
  6
CONTINUOUS
 62
     7
100
AcDbVertex
100
AcDb2dVertex
 10
-21.163063
 20
-23.27632
 30
0.0
 70
     8
  0
VERTEX
  5
33480
330
19F2F
100
AcDbEntity
  8
TITLE_BLOCK
  6
CONTINUOUS
 62
     7
100
AcDbVertex
100
AcDb2dVertex
 10
-21.16266
 20
-23.10518
 30
0.0
 70
     8
  0
VERTEX
  5
33481
330
19F2F
100
AcDbEntity
  8
TITLE_BLOCK
  6
CONTINUOUS
 62
     7
100
AcDbVertex
100
AcDb2dVertex
 10
-21.162711
 20
-22.93404
 30
0.0
 70
     8
  0
VERTEX
  5
33482
330
19F2F
100
AcDbEntity
  8
TITLE_BLOCK
  6
CONTINUOUS
 62
     7
100
AcDbVertex
100
AcDb2dVertex
 10
-21.165765
 20
-22.762973
 30
0.0
 70
     8
  0
VERTEX
  5
33483
330
19F2F
100
AcDbEntity
  8
TITLE_BLOCK
  6
CONTINUOUS
 62
     7
100
AcDbVertex
100
AcDb2dVertex
 10
-21.165765
 20
-22.762973
 30
0.0
 70
     8
  0
VERTEX
  5
33484
330
19F2F
100
AcDbEntity
  8
TITLE_BLOCK
  6
CONTINUOUS
 62
     7
100
AcDbVertex
100
AcDb2dVertex
 10
-21.165765
 20
-22.762973
 30
0.0
 70
    16
  0
VERTEX
  5
33485
330
19F2F
100
AcDbEntity
  8
TITLE_BLOCK
  6
CONTINUOUS
 62
     7
100
AcDbVertex
100
AcDb2dVertex
 10
-21.004964
 20
-22.777387
 30
0.0
 70
    16
  0
VERTEX
  5
33486
330
19F2F
100
AcDbEntity
  8
TITLE_BLOCK
  6
CONTINUOUS
 62
     7
100
AcDbVertex
100
AcDb2dVertex
 10
-20.828968
 20
-22.726957
 30
0.0
 70
    16
  0
VERTEX
  5
33487
330
19F2F
100
AcDbEntity
  8
TITLE_BLOCK
  6
CONTINUOUS
 62
     7
100
AcDbVertex
100
AcDb2dVertex
 10
-20.681371
 20
-22.809379
 30
0.0
 70
    16
  0
VERTEX
  5
33488
330
19F2F
100
AcDbEntity
  8
TITLE_BLOCK
  6
CONTINUOUS
 62
     7
100
AcDbVertex
100
AcDb2dVertex
 10
-20.601761
 20
-22.892582
 30
0.0
 70
    16
  0
VERTEX
  5
33489
330
19F2F
100
AcDbEntity
  8
TITLE_BLOCK
  6
CONTINUOUS
 62
     7
100
AcDbVertex
100
AcDb2dVertex
 10
-20.581761
 20
-23.025356
 30
0.0
 70
    16
  0
VERTEX
  5
3348A
330
19F2F
100
AcDbEntity
  8
TITLE_BLOCK
  6
CONTINUOUS
 62
     7
100
AcDbVertex
100
AcDb2dVertex
 10
-20.636566
 20
-23.128168
 30
0.0
 70
    16
  0
VERTEX
  5
3348B
330
19F2F
100
AcDbEntity
  8
TITLE_BLOCK
  6
CONTINUOUS
 62
     7
100
AcDbVertex
100
AcDb2dVertex
 10
-20.692172
 20
-23.251372
 30
0.0
 70
    16
  0
VERTEX
  5
3348C
330
19F2F
100
AcDbEntity
  8
TITLE_BLOCK
  6
CONTINUOUS
 62
     7
100
AcDbVertex
100
AcDb2dVertex
 10
-20.85057
 20
-23.238168
 30
0.0
 70
    16
  0
VERTEX
  5
3348D
330
19F2F
100
AcDbEntity
  8
TITLE_BLOCK
  6
CONTINUOUS
 62
     7
100
AcDbVertex
100
AcDb2dVertex
 10
-20.962562
 20
-23.251762
 30
0.0
 70
    16
  0
VERTEX
  5
3348E
330
19F2F
100
AcDbEntity
  8
TITLE_BLOCK
  6
CONTINUOUS
 62
     7
100
AcDbVertex
100
AcDb2dVertex
 10
-20.962172
 20
-23.315356
 30
0.0
 70
    16
  0
VERTEX
  5
3348F
330
19F2F
100
AcDbEntity
  8
TITLE_BLOCK
  6
CONTINUOUS
 62
     7
100
AcDbVertex
100
AcDb2dVertex
 10
-20.961371
 20
-23.378989
 30
0.0
 70
    16
  0
VERTEX
  5
33490
330
19F2F
100
AcDbEntity
  8
TITLE_BLOCK
  6
CONTINUOUS
 62
     7
100
AcDbVertex
100
AcDb2dVertex
 10
-20.960961
 20
-23.442582
 30
0.0
 70
    16
  0
VERTEX
  5
33491
330
19F2F
100
AcDbEntity
  8
TITLE_BLOCK
  6
CONTINUOUS
 62
     7
100
AcDbVertex
100
AcDb2dVertex
 10
-21.027757
 20
-23.443793
 30
0.0
 70
    16
  0
VERTEX
  5
33492
330
19F2F
100
AcDbEntity
  8
TITLE_BLOCK
  6
CONTINUOUS
 62
     7
100
AcDbVertex
100
AcDb2dVertex
 10
-21.094554
 20
-23.445356
 30
0.0
 70
    16
  0
VERTEX
  5
33493
330
19F2F
100
AcDbEntity
  8
TITLE_BLOCK
  6
CONTINUOUS
 62
     7
100
AcDbVertex
100
AcDb2dVertex
 10
-21.161371
 20
-23.447387
 30
0.0
 70
    16
  0
VERTEX
  5
33494
330
19F2F
100
AcDbEntity
  8
TITLE_BLOCK
  6
CONTINUOUS
 62
     7
100
AcDbVertex
100
AcDb2dVertex
 10
-21.166156
 20
-23.219379
 30
0.0
 70
    16
  0
VERTEX
  5
33495
330
19F2F
100
AcDbEntity
  8
TITLE_BLOCK
  6
CONTINUOUS
 62
     7
100
AcDbVertex
100
AcDb2dVertex
 10
-21.158558
 20
-22.990981
 30
0.0
 70
    16
  0
VERTEX
  5
33496
330
19F2F
100
AcDbEntity
  8
TITLE_BLOCK
  6
CONTINUOUS
 62
     7
100
AcDbVertex
100
AcDb2dVertex
 10
-21.165765
 20
-22.762973
 30
0.0
 70
    16
  0
VERTEX
  5
33497
330
19F2F
100
AcDbEntity
  8
TITLE_BLOCK
  6
CONTINUOUS
 62
     7
100
AcDbVertex
100
AcDb2dVertex
 10
-21.165765
 20
-22.762973
 30
0.0
 70
    16
  0
VERTEX
  5
33498
330
19F2F
100
AcDbEntity
  8
TITLE_BLOCK
  6
CONTINUOUS
 62
     7
100
AcDbVertex
100
AcDb2dVertex
 10
-21.165765
 20
-22.762973
 30
0.0
 70
    16
  0
VERTEX
  5
33499
330
19F2F
100
AcDbEntity
  8
TITLE_BLOCK
  6
CONTINUOUS
 62
     7
100
AcDbVertex
100
AcDb2dVertex
 10
-21.165765
 20
-22.762973
 30
0.0
 70
    16
  0
SEQEND
  5
3349A
330
19F2F
100
AcDbEntity
  8
TITLE_BLOCK
  6
CONTINUOUS
 62
     7
  0
POLYLINE
  5
19F73
330
33219
100
AcDbEntity
  8
TITLE_BLOCK
  6
CONTINUOUS
 62
     7
100
AcDb2dPolyline
 66
     1
 10
0.0
 20
0.0
 30
0.0
 70
     5
 75
     5
  0
VERTEX
  5
3349B
330
19F73
100
AcDbEntity
  8
TITLE_BLOCK
  6
CONTINUOUS
 62
     7
100
AcDbVertex
100
AcDb2dVertex
 10
-20.298968
 20
-22.764184
 30
0.0
 70
     8
  0
VERTEX
  5
3349C
330
19F73
100
AcDbEntity
  8
TITLE_BLOCK
  6
CONTINUOUS
 62
     7
100
AcDbVertex
100
AcDb2dVertex
 10
-20.23593
 20
-22.768387
 30
0.0
 70
     8
  0
VERTEX
  5
3349D
330
19F73
100
AcDbEntity
  8
TITLE_BLOCK
  6
CONTINUOUS
 62
     7
100
AcDbVertex
100
AcDb2dVertex
 10
-20.173309
 20
-22.776831
 30
0.0
 70
     8
  0
VERTEX
  5
3349E
330
19F73
100
AcDbEntity
  8
TITLE_BLOCK
  6
CONTINUOUS
 62
     7
100
AcDbVertex
100
AcDb2dVertex
 10
-20.048558
 20
-22.799379
 30
0.0
 70
     8
  0
VERTEX
  5
3349F
330
19F73
100
AcDbEntity
  8
TITLE_BLOCK
  6
CONTINUOUS
 62
     7
100
AcDbVertex
100
AcDb2dVertex
 10
-20.002909
 20
-22.880073
 30
0.0
 70
     8
  0
VERTEX
  5
334A0
330
19F73
100
AcDbEntity
  8
TITLE_BLOCK
  6
CONTINUOUS
 62
     7
100
AcDbVertex
100
AcDb2dVertex
 10
-19.96057
 20
-22.962582
 30
0.0
 70
     8
  0
VERTEX
  5
334A1
330
19F73
100
AcDbEntity
  8
TITLE_BLOCK
  6
CONTINUOUS
 62
     7
100
AcDbVertex
100
AcDb2dVertex
 10
-20.021101
 20
-22.965157
 30
0.0
 70
     8
  0
VERTEX
  5
334A2
330
19F73
100
AcDbEntity
  8
TITLE_BLOCK
  6
CONTINUOUS
 62
     7
100
AcDbVertex
100
AcDb2dVertex
 10
-20.081859
 20
-22.966127
 30
0.0
 70
     8
  0
VERTEX
  5
334A3
330
19F73
100
AcDbEntity
  8
TITLE_BLOCK
  6
CONTINUOUS
 62
     7
100
AcDbVertex
100
AcDb2dVertex
 10
-20.111643
 20
-22.963395
 30
0.0
 70
     8
  0
VERTEX
  5
334A4
330
19F73
100
AcDbEntity
  8
TITLE_BLOCK
  6
CONTINUOUS
 62
     7
100
AcDbVertex
100
AcDb2dVertex
 10
-20.140669
 20
-22.957122
 30
0.0
 70
     8
  0
VERTEX
  5
334A5
330
19F73
100
AcDbEntity
  8
TITLE_BLOCK
  6
CONTINUOUS
 62
     7
100
AcDbVertex
100
AcDb2dVertex
 10
-20.168663
 20
-22.946263
 30
0.0
 70
     8
  0
VERTEX
  5
334A6
330
19F73
100
AcDbEntity
  8
TITLE_BLOCK
  6
CONTINUOUS
 62
     7
100
AcDbVertex
100
AcDb2dVertex
 10
-20.195355
 20
-22.92977
 30
0.0
 70
     8
  0
VERTEX
  5
334A7
330
19F73
100
AcDbEntity
  8
TITLE_BLOCK
  6
CONTINUOUS
 62
     7
100
AcDbVertex
100
AcDb2dVertex
 10
-20.333754
 20
-22.926957
 30
0.0
 70
     8
  0
VERTEX
  5
334A8
330
19F73
100
AcDbEntity
  8
TITLE_BLOCK
  6
CONTINUOUS
 62
     7
100
AcDbVertex
100
AcDb2dVertex
 10
-20.330629
 20
-22.947832
 30
0.0
 70
     8
  0
VERTEX
  5
334A9
330
19F73
100
AcDbEntity
  8
TITLE_BLOCK
  6
CONTINUOUS
 62
     7
100
AcDbVertex
100
AcDb2dVertex
 10
-20.324601
 20
-22.965502
 30
0.0
 70
     8
  0
VERTEX
  5
334AA
330
19F73
100
AcDbEntity
  8
TITLE_BLOCK
  6
CONTINUOUS
 62
     7
100
AcDbVertex
100
AcDb2dVertex
 10
-20.31596
 20
-22.98028
 30
0.0
 70
     8
  0
VERTEX
  5
334AB
330
19F73
100
AcDbEntity
  8
TITLE_BLOCK
  6
CONTINUOUS
 62
     7
100
AcDbVertex
100
AcDb2dVertex
 10
-20.305
 20
-22.992479
 30
0.0
 70
     8
  0
VERTEX
  5
334AC
330
19F73
100
AcDbEntity
  8
TITLE_BLOCK
  6
CONTINUOUS
 62
     7
100
AcDbVertex
100
AcDb2dVertex
 10
-20.292013
 20
-23.002411
 30
0.0
 70
     8
  0
VERTEX
  5
334AD
330
19F73
100
AcDbEntity
  8
TITLE_BLOCK
  6
CONTINUOUS
 62
     7
100
AcDbVertex
100
AcDb2dVertex
 10
-20.277291
 20
-23.010388
 30
0.0
 70
     8
  0
VERTEX
  5
334AE
330
19F73
100
AcDbEntity
  8
TITLE_BLOCK
  6
CONTINUOUS
 62
     7
100
AcDbVertex
100
AcDb2dVertex
 10
-20.243812
 20
-23.021728
 30
0.0
 70
     8
  0
VERTEX
  5
334AF
330
19F73
100
AcDbEntity
  8
TITLE_BLOCK
  6
CONTINUOUS
 62
     7
100
AcDbVertex
100
AcDb2dVertex
 10
-20.206902
 20
-23.028997
 30
0.0
 70
     8
  0
VERTEX
  5
334B0
330
19F73
100
AcDbEntity
  8
TITLE_BLOCK
  6
CONTINUOUS
 62
     7
100
AcDbVertex
100
AcDb2dVertex
 10
-20.168898
 20
-23.034695
 30
0.0
 70
     8
  0
VERTEX
  5
334B1
330
19F73
100
AcDbEntity
  8
TITLE_BLOCK
  6
CONTINUOUS
 62
     7
100
AcDbVertex
100
AcDb2dVertex
 10
-20.132141
 20
-23.04132
 30
0.0
 70
     8
  0
VERTEX
  5
334B2
330
19F73
100
AcDbEntity
  8
TITLE_BLOCK
  6
CONTINUOUS
 62
     7
100
AcDbVertex
100
AcDb2dVertex
 10
-20.098968
 20
-23.051372
 30
0.0
 70
     8
  0
VERTEX
  5
334B3
330
19F73
100
AcDbEntity
  8
TITLE_BLOCK
  6
CONTINUOUS
 62
     7
100
AcDbVertex
100
AcDb2dVertex
 10
-20.075645
 20
-23.05566
 30
0.0
 70
     8
  0
VERTEX
  5
334B4
330
19F73
100
AcDbEntity
  8
TITLE_BLOCK
  6
CONTINUOUS
 62
     7
100
AcDbVertex
100
AcDb2dVertex
 10
-20.053101
 20
-23.062943
 30
0.0
 70
     8
  0
VERTEX
  5
334B5
330
19F73
100
AcDbEntity
  8
TITLE_BLOCK
  6
CONTINUOUS
 62
     7
100
AcDbVertex
100
AcDb2dVertex
 10
-20.031588
 20
-23.072951
 30
0.0
 70
     8
  0
VERTEX
  5
334B6
330
19F73
100
AcDbEntity
  8
TITLE_BLOCK
  6
CONTINUOUS
 62
     7
100
AcDbVertex
100
AcDb2dVertex
 10
-20.01136
 20
-23.085416
 30
0.0
 70
     8
  0
VERTEX
  5
334B7
330
19F73
100
AcDbEntity
  8
TITLE_BLOCK
  6
CONTINUOUS
 62
     7
100
AcDbVertex
100
AcDb2dVertex
 10
-19.99267
 20
-23.10007
 30
0.0
 70
     8
  0
VERTEX
  5
334B8
330
19F73
100
AcDbEntity
  8
TITLE_BLOCK
  6
CONTINUOUS
 62
     7
100
AcDbVertex
100
AcDb2dVertex
 10
-19.975771
 20
-23.116645
 30
0.0
 70
     8
  0
VERTEX
  5
334B9
330
19F73
100
AcDbEntity
  8
TITLE_BLOCK
  6
CONTINUOUS
 62
     7
100
AcDbVertex
100
AcDb2dVertex
 10
-19.960916
 20
-23.134871
 30
0.0
 70
     8
  0
VERTEX
  5
334BA
330
19F73
100
AcDbEntity
  8
TITLE_BLOCK
  6
CONTINUOUS
 62
     7
100
AcDbVertex
100
AcDb2dVertex
 10
-19.948358
 20
-23.154482
 30
0.0
 70
     8
  0
VERTEX
  5
334BB
330
19F73
100
AcDbEntity
  8
TITLE_BLOCK
  6
CONTINUOUS
 62
     7
100
AcDbVertex
100
AcDb2dVertex
 10
-19.93835
 20
-23.175208
 30
0.0
 70
     8
  0
VERTEX
  5
334BC
330
19F73
100
AcDbEntity
  8
TITLE_BLOCK
  6
CONTINUOUS
 62
     7
100
AcDbVertex
100
AcDb2dVertex
 10
-19.931146
 20
-23.196781
 30
0.0
 70
     8
  0
VERTEX
  5
334BD
330
19F73
100
AcDbEntity
  8
TITLE_BLOCK
  6
CONTINUOUS
 62
     7
100
AcDbVertex
100
AcDb2dVertex
 10
-19.926998
 20
-23.218934
 30
0.0
 70
     8
  0
VERTEX
  5
334BE
330
19F73
100
AcDbEntity
  8
TITLE_BLOCK
  6
CONTINUOUS
 62
     7
100
AcDbVertex
100
AcDb2dVertex
 10
-19.926159
 20
-23.241397
 30
0.0
 70
     8
  0
VERTEX
  5
334BF
330
19F73
100
AcDbEntity
  8
TITLE_BLOCK
  6
CONTINUOUS
 62
     7
100
AcDbVertex
100
AcDb2dVertex
 10
-19.928883
 20
-23.263902
 30
0.0
 70
     8
  0
VERTEX
  5
334C0
330
19F73
100
AcDbEntity
  8
TITLE_BLOCK
  6
CONTINUOUS
 62
     7
100
AcDbVertex
100
AcDb2dVertex
 10
-19.935422
 20
-23.286181
 30
0.0
 70
     8
  0
VERTEX
  5
334C1
330
19F73
100
AcDbEntity
  8
TITLE_BLOCK
  6
CONTINUOUS
 62
     7
100
AcDbVertex
100
AcDb2dVertex
 10
-19.946031
 20
-23.307966
 30
0.0
 70
     8
  0
VERTEX
  5
334C2
330
19F73
100
AcDbEntity
  8
TITLE_BLOCK
  6
CONTINUOUS
 62
     7
100
AcDbVertex
100
AcDb2dVertex
 10
-19.960961
 20
-23.328989
 30
0.0
 70
     8
  0
VERTEX
  5
334C3
330
19F73
100
AcDbEntity
  8
TITLE_BLOCK
  6
CONTINUOUS
 62
     7
100
AcDbVertex
100
AcDb2dVertex
 10
-19.976654
 20
-23.345186
 30
0.0
 70
     8
  0
VERTEX
  5
334C4
330
19F73
100
AcDbEntity
  8
TITLE_BLOCK
  6
CONTINUOUS
 62
     7
100
AcDbVertex
100
AcDb2dVertex
 10
-19.993449
 20
-23.36018
 30
0.0
 70
     8
  0
VERTEX
  5
334C5
330
19F73
100
AcDbEntity
  8
TITLE_BLOCK
  6
CONTINUOUS
 62
     7
100
AcDbVertex
100
AcDb2dVertex
 10
-20.011256
 20
-23.373966
 30
0.0
 70
     8
  0
VERTEX
  5
334C6
330
19F73
100
AcDbEntity
  8
TITLE_BLOCK
  6
CONTINUOUS
 62
     7
100
AcDbVertex
100
AcDb2dVertex
 10
-20.029984
 20
-23.386541
 30
0.0
 70
     8
  0
VERTEX
  5
334C7
330
19F73
100
AcDbEntity
  8
TITLE_BLOCK
  6
CONTINUOUS
 62
     7
100
AcDbVertex
100
AcDb2dVertex
 10
-20.069849
 20
-23.408041
 30
0.0
 70
     8
  0
VERTEX
  5
334C8
330
19F73
100
AcDbEntity
  8
TITLE_BLOCK
  6
CONTINUOUS
 62
     7
100
AcDbVertex
100
AcDb2dVertex
 10
-20.112328
 20
-23.424648
 30
0.0
 70
     8
  0
VERTEX
  5
334C9
330
19F73
100
AcDbEntity
  8
TITLE_BLOCK
  6
CONTINUOUS
 62
     7
100
AcDbVertex
100
AcDb2dVertex
 10
-20.156706
 20
-23.436331
 30
0.0
 70
     8
  0
VERTEX
  5
334CA
330
19F73
100
AcDbEntity
  8
TITLE_BLOCK
  6
CONTINUOUS
 62
     7
100
AcDbVertex
100
AcDb2dVertex
 10
-20.202265
 20
-23.44306
 30
0.0
 70
     8
  0
VERTEX
  5
334CB
330
19F73
100
AcDbEntity
  8
TITLE_BLOCK
  6
CONTINUOUS
 62
     7
100
AcDbVertex
100
AcDb2dVertex
 10
-20.24829
 20
-23.444802
 30
0.0
 70
     8
  0
VERTEX
  5
334CC
330
19F73
100
AcDbEntity
  8
TITLE_BLOCK
  6
CONTINUOUS
 62
     7
100
AcDbVertex
100
AcDb2dVertex
 10
-20.294066
 20
-23.441528
 30
0.0
 70
     8
  0
VERTEX
  5
334CD
330
19F73
100
AcDbEntity
  8
TITLE_BLOCK
  6
CONTINUOUS
 62
     7
100
AcDbVertex
100
AcDb2dVertex
 10
-20.338876
 20
-23.433205
 30
0.0
 70
     8
  0
VERTEX
  5
334CE
330
19F73
100
AcDbEntity
  8
TITLE_BLOCK
  6
CONTINUOUS
 62
     7
100
AcDbVertex
100
AcDb2dVertex
 10
-20.382004
 20
-23.419803
 30
0.0
 70
     8
  0
VERTEX
  5
334CF
330
19F73
100
AcDbEntity
  8
TITLE_BLOCK
  6
CONTINUOUS
 62
     7
100
AcDbVertex
100
AcDb2dVertex
 10
-20.422734
 20
-23.40129
 30
0.0
 70
     8
  0
VERTEX
  5
334D0
330
19F73
100
AcDbEntity
  8
TITLE_BLOCK
  6
CONTINUOUS
 62
     7
100
AcDbVertex
100
AcDb2dVertex
 10
-20.441976
 20
-23.390108
 30
0.0
 70
     8
  0
VERTEX
  5
334D1
330
19F73
100
AcDbEntity
  8
TITLE_BLOCK
  6
CONTINUOUS
 62
     7
100
AcDbVertex
100
AcDb2dVertex
 10
-20.46035
 20
-23.377636
 30
0.0
 70
     8
  0
VERTEX
  5
334D2
330
19F73
100
AcDbEntity
  8
TITLE_BLOCK
  6
CONTINUOUS
 62
     7
100
AcDbVertex
100
AcDb2dVertex
 10
-20.477766
 20
-23.363871
 30
0.0
 70
     8
  0
VERTEX
  5
334D3
330
19F73
100
AcDbEntity
  8
TITLE_BLOCK
  6
CONTINUOUS
 62
     7
100
AcDbVertex
100
AcDb2dVertex
 10
-20.494136
 20
-23.348809
 30
0.0
 70
     8
  0
VERTEX
  5
334D4
330
19F73
100
AcDbEntity
  8
TITLE_BLOCK
  6
CONTINUOUS
 62
     7
100
AcDbVertex
100
AcDb2dVertex
 10
-20.509369
 20
-23.332446
 30
0.0
 70
     8
  0
VERTEX
  5
334D5
330
19F73
100
AcDbEntity
  8
TITLE_BLOCK
  6
CONTINUOUS
 62
     7
100
AcDbVertex
100
AcDb2dVertex
 10
-20.523376
 20
-23.314779
 30
0.0
 70
     8
  0
VERTEX
  5
334D6
330
19F73
100
AcDbEntity
  8
TITLE_BLOCK
  6
CONTINUOUS
 62
     7
100
AcDbVertex
100
AcDb2dVertex
 10
-20.536068
 20
-23.295802
 30
0.0
 70
     8
  0
VERTEX
  5
334D7
330
19F73
100
AcDbEntity
  8
TITLE_BLOCK
  6
CONTINUOUS
 62
     7
100
AcDbVertex
100
AcDb2dVertex
 10
-20.547355
 20
-23.275513
 30
0.0
 70
     8
  0
VERTEX
  5
334D8
330
19F73
100
AcDbEntity
  8
TITLE_BLOCK
  6
CONTINUOUS
 62
     7
100
AcDbVertex
100
AcDb2dVertex
 10
-20.557147
 20
-23.253907
 30
0.0
 70
     8
  0
VERTEX
  5
334D9
330
19F73
100
AcDbEntity
  8
TITLE_BLOCK
  6
CONTINUOUS
 62
     7
100
AcDbVertex
100
AcDb2dVertex
 10
-20.565355
 20
-23.230981
 30
0.0
 70
     8
  0
VERTEX
  5
334DA
330
19F73
100
AcDbEntity
  8
TITLE_BLOCK
  6
CONTINUOUS
 62
     7
100
AcDbVertex
100
AcDb2dVertex
 10
-20.474359
 20
-23.217675
 30
0.0
 70
     8
  0
VERTEX
  5
334DB
330
19F73
100
AcDbEntity
  8
TITLE_BLOCK
  6
CONTINUOUS
 62
     7
100
AcDbVertex
100
AcDb2dVertex
 10
-20.383363
 20
-23.202582
 30
0.0
 70
     8
  0
VERTEX
  5
334DC
330
19F73
100
AcDbEntity
  8
TITLE_BLOCK
  6
CONTINUOUS
 62
     7
100
AcDbVertex
100
AcDb2dVertex
 10
-20.373893
 20
-23.222032
 30
0.0
 70
     8
  0
VERTEX
  5
334DD
330
19F73
100
AcDbEntity
  8
TITLE_BLOCK
  6
CONTINUOUS
 62
     7
100
AcDbVertex
100
AcDb2dVertex
 10
-20.362697
 20
-23.238261
 30
0.0
 70
     8
  0
VERTEX
  5
334DE
330
19F73
100
AcDbEntity
  8
TITLE_BLOCK
  6
CONTINUOUS
 62
     7
100
AcDbVertex
100
AcDb2dVertex
 10
-20.349941
 20
-23.251527
 30
0.0
 70
     8
  0
VERTEX
  5
334DF
330
19F73
100
AcDbEntity
  8
TITLE_BLOCK
  6
CONTINUOUS
 62
     7
100
AcDbVertex
100
AcDb2dVertex
 10
-20.335793
 20
-23.262088
 30
0.0
 70
     8
  0
VERTEX
  5
334E0
330
19F73
100
AcDbEntity
  8
TITLE_BLOCK
  6
CONTINUOUS
 62
     7
100
AcDbVertex
100
AcDb2dVertex
 10
-20.320419
 20
-23.2702
 30
0.0
 70
     8
  0
VERTEX
  5
334E1
330
19F73
100
AcDbEntity
  8
TITLE_BLOCK
  6
CONTINUOUS
 62
     7
100
AcDbVertex
100
AcDb2dVertex
 10
-20.303987
 20
-23.276121
 30
0.0
 70
     8
  0
VERTEX
  5
334E2
330
19F73
100
AcDbEntity
  8
TITLE_BLOCK
  6
CONTINUOUS
 62
     7
100
AcDbVertex
100
AcDb2dVertex
 10
-20.286663
 20
-23.280107
 30
0.0
 70
     8
  0
VERTEX
  5
334E3
330
19F73
100
AcDbEntity
  8
TITLE_BLOCK
  6
CONTINUOUS
 62
     7
100
AcDbVertex
100
AcDb2dVertex
 10
-20.268614
 20
-23.282416
 30
0.0
 70
     8
  0
VERTEX
  5
334E4
330
19F73
100
AcDbEntity
  8
TITLE_BLOCK
  6
CONTINUOUS
 62
     7
100
AcDbVertex
100
AcDb2dVertex
 10
-20.231011
 20
-23.283032
 30
0.0
 70
     8
  0
VERTEX
  5
334E5
330
19F73
100
AcDbEntity
  8
TITLE_BLOCK
  6
CONTINUOUS
 62
     7
100
AcDbVertex
100
AcDb2dVertex
 10
-20.192511
 20
-23.280025
 30
0.0
 70
     8
  0
VERTEX
  5
334E6
330
19F73
100
AcDbEntity
  8
TITLE_BLOCK
  6
CONTINUOUS
 62
     7
100
AcDbVertex
100
AcDb2dVertex
 10
-20.118168
 20
-23.271372
 30
0.0
 70
     8
  0
VERTEX
  5
334E7
330
19F73
100
AcDbEntity
  8
TITLE_BLOCK
  6
CONTINUOUS
 62
     7
100
AcDbVertex
100
AcDb2dVertex
 10
-20.13057
 20
-23.183793
 30
0.0
 70
     8
  0
VERTEX
  5
334E8
330
19F73
100
AcDbEntity
  8
TITLE_BLOCK
  6
CONTINUOUS
 62
     7
100
AcDbVertex
100
AcDb2dVertex
 10
-20.251894
 20
-23.156127
 30
0.0
 70
     8
  0
VERTEX
  5
334E9
330
19F73
100
AcDbEntity
  8
TITLE_BLOCK
  6
CONTINUOUS
 62
     7
100
AcDbVertex
100
AcDb2dVertex
 10
-20.313367
 20
-23.139816
 30
0.0
 70
     8
  0
VERTEX
  5
334EA
330
19F73
100
AcDbEntity
  8
TITLE_BLOCK
  6
CONTINUOUS
 62
     7
100
AcDbVertex
100
AcDb2dVertex
 10
-20.343266
 20
-23.130064
 30
0.0
 70
     8
  0
VERTEX
  5
334EB
330
19F73
100
AcDbEntity
  8
TITLE_BLOCK
  6
CONTINUOUS
 62
     7
100
AcDbVertex
100
AcDb2dVertex
 10
-20.372211
 20
-23.118876
 30
0.0
 70
     8
  0
VERTEX
  5
334EC
330
19F73
100
AcDbEntity
  8
TITLE_BLOCK
  6
CONTINUOUS
 62
     7
100
AcDbVertex
100
AcDb2dVertex
 10
-20.399904
 20
-23.105973
 30
0.0
 70
     8
  0
VERTEX
  5
334ED
330
19F73
100
AcDbEntity
  8
TITLE_BLOCK
  6
CONTINUOUS
 62
     7
100
AcDbVertex
100
AcDb2dVertex
 10
-20.426048
 20
-23.091076
 30
0.0
 70
     8
  0
VERTEX
  5
334EE
330
19F73
100
AcDbEntity
  8
TITLE_BLOCK
  6
CONTINUOUS
 62
     7
100
AcDbVertex
100
AcDb2dVertex
 10
-20.450347
 20
-23.073905
 30
0.0
 70
     8
  0
VERTEX
  5
334EF
330
19F73
100
AcDbEntity
  8
TITLE_BLOCK
  6
CONTINUOUS
 62
     7
100
AcDbVertex
100
AcDb2dVertex
 10
-20.472503
 20
-23.054182
 30
0.0
 70
     8
  0
VERTEX
  5
334F0
330
19F73
100
AcDbEntity
  8
TITLE_BLOCK
  6
CONTINUOUS
 62
     7
100
AcDbVertex
100
AcDb2dVertex
 10
-20.492219
 20
-23.031628
 30
0.0
 70
     8
  0
VERTEX
  5
334F1
330
19F73
100
AcDbEntity
  8
TITLE_BLOCK
  6
CONTINUOUS
 62
     7
100
AcDbVertex
100
AcDb2dVertex
 10
-20.509197
 20
-23.005962
 30
0.0
 70
     8
  0
VERTEX
  5
334F2
330
19F73
100
AcDbEntity
  8
TITLE_BLOCK
  6
CONTINUOUS
 62
     7
100
AcDbVertex
100
AcDb2dVertex
 10
-20.523141
 20
-22.976908
 30
0.0
 70
     8
  0
VERTEX
  5
334F3
330
19F73
100
AcDbEntity
  8
TITLE_BLOCK
  6
CONTINUOUS
 62
     7
100
AcDbVertex
100
AcDb2dVertex
 10
-20.533754
 20
-22.944184
 30
0.0
 70
     8
  0
VERTEX
  5
334F4
330
19F73
100
AcDbEntity
  8
TITLE_BLOCK
  6
CONTINUOUS
 62
     7
100
AcDbVertex
100
AcDb2dVertex
 10
-20.484466
 20
-22.874384
 30
0.0
 70
     8
  0
VERTEX
  5
334F5
330
19F73
100
AcDbEntity
  8
TITLE_BLOCK
  6
CONTINUOUS
 62
     7
100
AcDbVertex
100
AcDb2dVertex
 10
-20.433363
 20
-22.805786
 30
0.0
 70
     8
  0
VERTEX
  5
334F6
330
19F73
100
AcDbEntity
  8
TITLE_BLOCK
  6
CONTINUOUS
 62
     7
100
AcDbVertex
100
AcDb2dVertex
 10
-20.365865
 20
-22.786332
 30
0.0
 70
     8
  0
VERTEX
  5
334F7
330
19F73
100
AcDbEntity
  8
TITLE_BLOCK
  6
CONTINUOUS
 62
     7
100
AcDbVertex
100
AcDb2dVertex
 10
-20.298968
 20
-22.764184
 30
0.0
 70
     8
  0
VERTEX
  5
334F8
330
19F73
100
AcDbEntity
  8
TITLE_BLOCK
  6
CONTINUOUS
 62
     7
100
AcDbVertex
100
AcDb2dVertex
 10
-20.298968
 20
-22.764184
 30
0.0
 70
     8
  0
VERTEX
  5
334F9
330
19F73
100
AcDbEntity
  8
TITLE_BLOCK
  6
CONTINUOUS
 62
     7
100
AcDbVertex
100
AcDb2dVertex
 10
-20.298968
 20
-22.764184
 30
0.0
 70
    16
  0
VERTEX
  5
334FA
330
19F73
100
AcDbEntity
  8
TITLE_BLOCK
  6
CONTINUOUS
 62
     7
100
AcDbVertex
100
AcDb2dVertex
 10
-20.214554
 20
-22.766176
 30
0.0
 70
    16
  0
VERTEX
  5
334FB
330
19F73
100
AcDbEntity
  8
TITLE_BLOCK
  6
CONTINUOUS
 62
     7
100
AcDbVertex
100
AcDb2dVertex
 10
-20.131761
 20
-22.784184
 30
0.0
 70
    16
  0
VERTEX
  5
334FC
330
19F73
100
AcDbEntity
  8
TITLE_BLOCK
  6
CONTINUOUS
 62
     7
100
AcDbVertex
100
AcDb2dVertex
 10
-20.048558
 20
-22.799379
 30
0.0
 70
    16
  0
VERTEX
  5
334FD
330
19F73
100
AcDbEntity
  8
TITLE_BLOCK
  6
CONTINUOUS
 62
     7
100
AcDbVertex
100
AcDb2dVertex
 10
-20.016957
 20
-22.852582
 30
0.0
 70
    16
  0
VERTEX
  5
334FE
330
19F73
100
AcDbEntity
  8
TITLE_BLOCK
  6
CONTINUOUS
 62
     7
100
AcDbVertex
100
AcDb2dVertex
 10
-19.987757
 20
-22.906957
 30
0.0
 70
    16
  0
VERTEX
  5
334FF
330
19F73
100
AcDbEntity
  8
TITLE_BLOCK
  6
CONTINUOUS
 62
     7
100
AcDbVertex
100
AcDb2dVertex
 10
-19.96057
 20
-22.962582
 30
0.0
 70
    16
  0
VERTEX
  5
33500
330
19F73
100
AcDbEntity
  8
TITLE_BLOCK
  6
CONTINUOUS
 62
     7
100
AcDbVertex
100
AcDb2dVertex
 10
-20.04016
 20
-22.963364
 30
0.0
 70
    16
  0
VERTEX
  5
33501
330
19F73
100
AcDbEntity
  8
TITLE_BLOCK
  6
CONTINUOUS
 62
     7
100
AcDbVertex
100
AcDb2dVertex
 10
-20.126156
 20
-22.982192
 30
0.0
 70
    16
  0
VERTEX
  5
33502
330
19F73
100
AcDbEntity
  8
TITLE_BLOCK
  6
CONTINUOUS
 62
     7
100
AcDbVertex
100
AcDb2dVertex
 10
-20.195355
 20
-22.92977
 30
0.0
 70
    16
  0
VERTEX
  5
33503
330
19F73
100
AcDbEntity
  8
TITLE_BLOCK
  6
CONTINUOUS
 62
     7
100
AcDbVertex
100
AcDb2dVertex
 10
-20.241371
 20
-22.928168
 30
0.0
 70
    16
  0
VERTEX
  5
33504
330
19F73
100
AcDbEntity
  8
TITLE_BLOCK
  6
CONTINUOUS
 62
     7
100
AcDbVertex
100
AcDb2dVertex
 10
-20.287757
 20
-22.927387
 30
0.0
 70
    16
  0
VERTEX
  5
33505
330
19F73
100
AcDbEntity
  8
TITLE_BLOCK
  6
CONTINUOUS
 62
     7
100
AcDbVertex
100
AcDb2dVertex
 10
-20.333754
 20
-22.926957
 30
0.0
 70
    16
  0
VERTEX
  5
33506
330
19F73
100
AcDbEntity
  8
TITLE_BLOCK
  6
CONTINUOUS
 62
     7
100
AcDbVertex
100
AcDb2dVertex
 10
-20.325355
 20
-23.047387
 30
0.0
 70
    16
  0
VERTEX
  5
33507
330
19F73
100
AcDbEntity
  8
TITLE_BLOCK
  6
CONTINUOUS
 62
     7
100
AcDbVertex
100
AcDb2dVertex
 10
-20.18057
 20
-23.017778
 30
0.0
 70
    16
  0
VERTEX
  5
33508
330
19F73
100
AcDbEntity
  8
TITLE_BLOCK
  6
CONTINUOUS
 62
     7
100
AcDbVertex
100
AcDb2dVertex
 10
-20.098968
 20
-23.051372
 30
0.0
 70
    16
  0
VERTEX
  5
33509
330
19F73
100
AcDbEntity
  8
TITLE_BLOCK
  6
CONTINUOUS
 62
     7
100
AcDbVertex
100
AcDb2dVertex
 10
-19.972953
 20
-23.065786
 30
0.0
 70
    16
  0
VERTEX
  5
3350A
330
19F73
100
AcDbEntity
  8
TITLE_BLOCK
  6
CONTINUOUS
 62
     7
100
AcDbVertex
100
AcDb2dVertex
 10
-19.869359
 20
-23.219379
 30
0.0
 70
    16
  0
VERTEX
  5
3350B
330
19F73
100
AcDbEntity
  8
TITLE_BLOCK
  6
CONTINUOUS
 62
     7
100
AcDbVertex
100
AcDb2dVertex
 10
-19.960961
 20
-23.328989
 30
0.0
 70
    16
  0
VERTEX
  5
3350C
330
19F73
100
AcDbEntity
  8
TITLE_BLOCK
  6
CONTINUOUS
 62
     7
100
AcDbVertex
100
AcDb2dVertex
 10
-20.122172
 20
-23.508168
 30
0.0
 70
    16
  0
VERTEX
  5
3350D
330
19F73
100
AcDbEntity
  8
TITLE_BLOCK
  6
CONTINUOUS
 62
     7
100
AcDbVertex
100
AcDb2dVertex
 10
-20.486566
 20
-23.482582
 30
0.0
 70
    16
  0
VERTEX
  5
3350E
330
19F73
100
AcDbEntity
  8
TITLE_BLOCK
  6
CONTINUOUS
 62
     7
100
AcDbVertex
100
AcDb2dVertex
 10
-20.565355
 20
-23.230981
 30
0.0
 70
    16
  0
VERTEX
  5
3350F
330
19F73
100
AcDbEntity
  8
TITLE_BLOCK
  6
CONTINUOUS
 62
     7
100
AcDbVertex
100
AcDb2dVertex
 10
-20.504554
 20
-23.222973
 30
0.0
 70
    16
  0
VERTEX
  5
33510
330
19F73
100
AcDbEntity
  8
TITLE_BLOCK
  6
CONTINUOUS
 62
     7
100
AcDbVertex
100
AcDb2dVertex
 10
-20.444164
 20
-23.212973
 30
0.0
 70
    16
  0
VERTEX
  5
33511
330
19F73
100
AcDbEntity
  8
TITLE_BLOCK
  6
CONTINUOUS
 62
     7
100
AcDbVertex
100
AcDb2dVertex
 10
-20.383363
 20
-23.202582
 30
0.0
 70
    16
  0
VERTEX
  5
33512
330
19F73
100
AcDbEntity
  8
TITLE_BLOCK
  6
CONTINUOUS
 62
     7
100
AcDbVertex
100
AcDb2dVertex
 10
-20.337757
 20
-23.315356
 30
0.0
 70
    16
  0
VERTEX
  5
33513
330
19F73
100
AcDbEntity
  8
TITLE_BLOCK
  6
CONTINUOUS
 62
     7
100
AcDbVertex
100
AcDb2dVertex
 10
-20.211371
 20
-23.27977
 30
0.0
 70
    16
  0
VERTEX
  5
33514
330
19F73
100
AcDbEntity
  8
TITLE_BLOCK
  6
CONTINUOUS
 62
     7
100
AcDbVertex
100
AcDb2dVertex
 10
-20.118168
 20
-23.271372
 30
0.0
 70
    16
  0
VERTEX
  5
33515
330
19F73
100
AcDbEntity
  8
TITLE_BLOCK
  6
CONTINUOUS
 62
     7
100
AcDbVertex
100
AcDb2dVertex
 10
-20.121371
 20
-23.24977
 30
0.0
 70
    16
  0
VERTEX
  5
33516
330
19F73
100
AcDbEntity
  8
TITLE_BLOCK
  6
CONTINUOUS
 62
     7
100
AcDbVertex
100
AcDb2dVertex
 10
-20.127367
 20
-23.205786
 30
0.0
 70
    16
  0
VERTEX
  5
33517
330
19F73
100
AcDbEntity
  8
TITLE_BLOCK
  6
CONTINUOUS
 62
     7
100
AcDbVertex
100
AcDb2dVertex
 10
-20.13057
 20
-23.183793
 30
0.0
 70
    16
  0
VERTEX
  5
33518
330
19F73
100
AcDbEntity
  8
TITLE_BLOCK
  6
CONTINUOUS
 62
     7
100
AcDbVertex
100
AcDb2dVertex
 10
-20.284554
 20
-23.145356
 30
0.0
 70
    16
  0
VERTEX
  5
33519
330
19F73
100
AcDbEntity
  8
TITLE_BLOCK
  6
CONTINUOUS
 62
     7
100
AcDbVertex
100
AcDb2dVertex
 10
-20.486566
 20
-23.128989
 30
0.0
 70
    16
  0
VERTEX
  5
3351A
330
19F73
100
AcDbEntity
  8
TITLE_BLOCK
  6
CONTINUOUS
 62
     7
100
AcDbVertex
100
AcDb2dVertex
 10
-20.533754
 20
-22.944184
 30
0.0
 70
    16
  0
VERTEX
  5
3351B
330
19F73
100
AcDbEntity
  8
TITLE_BLOCK
  6
CONTINUOUS
 62
     7
100
AcDbVertex
100
AcDb2dVertex
 10
-20.501371
 20
-22.897387
 30
0.0
 70
    16
  0
VERTEX
  5
3351C
330
19F73
100
AcDbEntity
  8
TITLE_BLOCK
  6
CONTINUOUS
 62
     7
100
AcDbVertex
100
AcDb2dVertex
 10
-20.468168
 20
-22.850981
 30
0.0
 70
    16
  0
VERTEX
  5
3351D
330
19F73
100
AcDbEntity
  8
TITLE_BLOCK
  6
CONTINUOUS
 62
     7
100
AcDbVertex
100
AcDb2dVertex
 10
-20.433363
 20
-22.805786
 30
0.0
 70
    16
  0
VERTEX
  5
3351E
330
19F73
100
AcDbEntity
  8
TITLE_BLOCK
  6
CONTINUOUS
 62
     7
100
AcDbVertex
100
AcDb2dVertex
 10
-20.388168
 20
-22.793793
 30
0.0
 70
    16
  0
VERTEX
  5
3351F
330
19F73
100
AcDbEntity
  8
TITLE_BLOCK
  6
CONTINUOUS
 62
     7
100
AcDbVertex
100
AcDb2dVertex
 10
-20.343363
 20
-22.77977
 30
0.0
 70
    16
  0
VERTEX
  5
33520
330
19F73
100
AcDbEntity
  8
TITLE_BLOCK
  6
CONTINUOUS
 62
     7
100
AcDbVertex
100
AcDb2dVertex
 10
-20.298968
 20
-22.764184
 30
0.0
 70
    16
  0
VERTEX
  5
33521
330
19F73
100
AcDbEntity
  8
TITLE_BLOCK
  6
CONTINUOUS
 62
     7
100
AcDbVertex
100
AcDb2dVertex
 10
-20.298968
 20
-22.764184
 30
0.0
 70
    16
  0
VERTEX
  5
33522
330
19F73
100
AcDbEntity
  8
TITLE_BLOCK
  6
CONTINUOUS
 62
     7
100
AcDbVertex
100
AcDb2dVertex
 10
-20.298968
 20
-22.764184
 30
0.0
 70
    16
  0
VERTEX
  5
33523
330
19F73
100
AcDbEntity
  8
TITLE_BLOCK
  6
CONTINUOUS
 62
     7
100
AcDbVertex
100
AcDb2dVertex
 10
-20.298968
 20
-22.764184
 30
0.0
 70
    16
  0
SEQEND
  5
33524
330
19F73
100
AcDbEntity
  8
TITLE_BLOCK
  6
CONTINUOUS
 62
     7
  0
POLYLINE
  5
19FFD
330
33219
100
AcDbEntity
  8
TITLE_BLOCK
  6
CONTINUOUS
 62
     7
100
AcDb2dPolyline
 66
     1
 10
0.0
 20
0.0
 30
0.0
 70
     5
 75
     5
  0
VERTEX
  5
33525
330
19FFD
100
AcDbEntity
  8
TITLE_BLOCK
  6
CONTINUOUS
 62
     7
100
AcDbVertex
100
AcDb2dVertex
 10
-19.800961
 20
-22.763364
 30
0.0
 70
     8
  0
VERTEX
  5
33526
330
19FFD
100
AcDbEntity
  8
TITLE_BLOCK
  6
CONTINUOUS
 62
     7
100
AcDbVertex
100
AcDb2dVertex
 10
-19.522511
 20
-22.765024
 30
0.0
 70
     8
  0
VERTEX
  5
33527
330
19FFD
100
AcDbEntity
  8
TITLE_BLOCK
  6
CONTINUOUS
 62
     7
100
AcDbVertex
100
AcDb2dVertex
 10
-19.243754
 20
-22.764575
 30
0.0
 70
     8
  0
VERTEX
  5
33528
330
19FFD
100
AcDbEntity
  8
TITLE_BLOCK
  6
CONTINUOUS
 62
     7
100
AcDbVertex
100
AcDb2dVertex
 10
-19.243754
 20
-22.923364
 30
0.0
 70
     8
  0
VERTEX
  5
33529
330
19FFD
100
AcDbEntity
  8
TITLE_BLOCK
  6
CONTINUOUS
 62
     7
100
AcDbVertex
100
AcDb2dVertex
 10
-19.605355
 20
-22.924184
 30
0.0
 70
     8
  0
VERTEX
  5
3352A
330
19FFD
100
AcDbEntity
  8
TITLE_BLOCK
  6
CONTINUOUS
 62
     7
100
AcDbVertex
100
AcDb2dVertex
 10
-19.601761
 20
-23.004965
 30
0.0
 70
     8
  0
VERTEX
  5
3352B
330
19FFD
100
AcDbEntity
  8
TITLE_BLOCK
  6
CONTINUOUS
 62
     7
100
AcDbVertex
100
AcDb2dVertex
 10
-19.440961
 20
-23.005678
 30
0.0
 70
     8
  0
VERTEX
  5
3352C
330
19FFD
100
AcDbEntity
  8
TITLE_BLOCK
  6
CONTINUOUS
 62
     7
100
AcDbVertex
100
AcDb2dVertex
 10
-19.28016
 20
-23.004575
 30
0.0
 70
     8
  0
VERTEX
  5
3352D
330
19FFD
100
AcDbEntity
  8
TITLE_BLOCK
  6
CONTINUOUS
 62
     7
100
AcDbVertex
100
AcDb2dVertex
 10
-19.28057
 20
-23.168559
 30
0.0
 70
     8
  0
VERTEX
  5
3352E
330
19FFD
100
AcDbEntity
  8
TITLE_BLOCK
  6
CONTINUOUS
 62
     7
100
AcDbVertex
100
AcDb2dVertex
 10
-19.441517
 20
-23.164565
 30
0.0
 70
     8
  0
VERTEX
  5
3352F
330
19FFD
100
AcDbEntity
  8
TITLE_BLOCK
  6
CONTINUOUS
 62
     7
100
AcDbVertex
100
AcDb2dVertex
 10
-19.602172
 20
-23.162973
 30
0.0
 70
     8
  0
VERTEX
  5
33530
330
19FFD
100
AcDbEntity
  8
TITLE_BLOCK
  6
CONTINUOUS
 62
     7
100
AcDbVertex
100
AcDb2dVertex
 10
-19.602562
 20
-23.285786
 30
0.0
 70
     8
  0
VERTEX
  5
33531
330
19FFD
100
AcDbEntity
  8
TITLE_BLOCK
  6
CONTINUOUS
 62
     7
100
AcDbVertex
100
AcDb2dVertex
 10
-19.243363
 20
-23.28059
 30
0.0
 70
     8
  0
VERTEX
  5
33532
330
19FFD
100
AcDbEntity
  8
TITLE_BLOCK
  6
CONTINUOUS
 62
     7
100
AcDbVertex
100
AcDb2dVertex
 10
-19.243363
 20
-23.443364
 30
0.0
 70
     8
  0
VERTEX
  5
33533
330
19FFD
100
AcDbEntity
  8
TITLE_BLOCK
  6
CONTINUOUS
 62
     7
100
AcDbVertex
100
AcDb2dVertex
 10
-19.524366
 20
-23.44476
 30
0.0
 70
     8
  0
VERTEX
  5
33534
330
19FFD
100
AcDbEntity
  8
TITLE_BLOCK
  6
CONTINUOUS
 62
     7
100
AcDbVertex
100
AcDb2dVertex
 10
-19.805355
 20
-23.442582
 30
0.0
 70
     8
  0
VERTEX
  5
33535
330
19FFD
100
AcDbEntity
  8
TITLE_BLOCK
  6
CONTINUOUS
 62
     7
100
AcDbVertex
100
AcDb2dVertex
 10
-19.803207
 20
-23.272778
 30
0.0
 70
     8
  0
VERTEX
  5
33536
330
19FFD
100
AcDbEntity
  8
TITLE_BLOCK
  6
CONTINUOUS
 62
     7
100
AcDbVertex
100
AcDb2dVertex
 10
-19.803158
 20
-23.102973
 30
0.0
 70
     8
  0
VERTEX
  5
33537
330
19FFD
100
AcDbEntity
  8
TITLE_BLOCK
  6
CONTINUOUS
 62
     7
100
AcDbVertex
100
AcDb2dVertex
 10
-19.803108
 20
-22.933168
 30
0.0
 70
     8
  0
VERTEX
  5
33538
330
19FFD
100
AcDbEntity
  8
TITLE_BLOCK
  6
CONTINUOUS
 62
     7
100
AcDbVertex
100
AcDb2dVertex
 10
-19.800961
 20
-22.763364
 30
0.0
 70
     8
  0
VERTEX
  5
33539
330
19FFD
100
AcDbEntity
  8
TITLE_BLOCK
  6
CONTINUOUS
 62
     7
100
AcDbVertex
100
AcDb2dVertex
 10
-19.800961
 20
-22.763364
 30
0.0
 70
     8
  0
VERTEX
  5
3353A
330
19FFD
100
AcDbEntity
  8
TITLE_BLOCK
  6
CONTINUOUS
 62
     7
100
AcDbVertex
100
AcDb2dVertex
 10
-19.800961
 20
-22.763364
 30
0.0
 70
    16
  0
VERTEX
  5
3353B
330
19FFD
100
AcDbEntity
  8
TITLE_BLOCK
  6
CONTINUOUS
 62
     7
100
AcDbVertex
100
AcDb2dVertex
 10
-19.615355
 20
-22.766176
 30
0.0
 70
    16
  0
VERTEX
  5
3353C
330
19FFD
100
AcDbEntity
  8
TITLE_BLOCK
  6
CONTINUOUS
 62
     7
100
AcDbVertex
100
AcDb2dVertex
 10
-19.429769
 20
-22.764575
 30
0.0
 70
    16
  0
VERTEX
  5
3353D
330
19FFD
100
AcDbEntity
  8
TITLE_BLOCK
  6
CONTINUOUS
 62
     7
100
AcDbVertex
100
AcDb2dVertex
 10
-19.243754
 20
-22.764575
 30
0.0
 70
    16
  0
VERTEX
  5
3353E
330
19FFD
100
AcDbEntity
  8
TITLE_BLOCK
  6
CONTINUOUS
 62
     7
100
AcDbVertex
100
AcDb2dVertex
 10
-19.244164
 20
-22.817387
 30
0.0
 70
    16
  0
VERTEX
  5
3353F
330
19FFD
100
AcDbEntity
  8
TITLE_BLOCK
  6
CONTINUOUS
 62
     7
100
AcDbVertex
100
AcDb2dVertex
 10
-19.244164
 20
-22.870161
 30
0.0
 70
    16
  0
VERTEX
  5
33540
330
19FFD
100
AcDbEntity
  8
TITLE_BLOCK
  6
CONTINUOUS
 62
     7
100
AcDbVertex
100
AcDb2dVertex
 10
-19.243754
 20
-22.923364
 30
0.0
 70
    16
  0
VERTEX
  5
33541
330
19FFD
100
AcDbEntity
  8
TITLE_BLOCK
  6
CONTINUOUS
 62
     7
100
AcDbVertex
100
AcDb2dVertex
 10
-19.364554
 20
-22.923364
 30
0.0
 70
    16
  0
VERTEX
  5
33542
330
19FFD
100
AcDbEntity
  8
TITLE_BLOCK
  6
CONTINUOUS
 62
     7
100
AcDbVertex
100
AcDb2dVertex
 10
-19.484964
 20
-22.923364
 30
0.0
 70
    16
  0
VERTEX
  5
33543
330
19FFD
100
AcDbEntity
  8
TITLE_BLOCK
  6
CONTINUOUS
 62
     7
100
AcDbVertex
100
AcDb2dVertex
 10
-19.605355
 20
-22.924184
 30
0.0
 70
    16
  0
VERTEX
  5
33544
330
19FFD
100
AcDbEntity
  8
TITLE_BLOCK
  6
CONTINUOUS
 62
     7
100
AcDbVertex
100
AcDb2dVertex
 10
-19.604554
 20
-22.944184
 30
0.0
 70
    16
  0
VERTEX
  5
33545
330
19FFD
100
AcDbEntity
  8
TITLE_BLOCK
  6
CONTINUOUS
 62
     7
100
AcDbVertex
100
AcDb2dVertex
 10
-19.602562
 20
-22.984575
 30
0.0
 70
    16
  0
VERTEX
  5
33546
330
19FFD
100
AcDbEntity
  8
TITLE_BLOCK
  6
CONTINUOUS
 62
     7
100
AcDbVertex
100
AcDb2dVertex
 10
-19.601761
 20
-23.004965
 30
0.0
 70
    16
  0
VERTEX
  5
33547
330
19FFD
100
AcDbEntity
  8
TITLE_BLOCK
  6
CONTINUOUS
 62
     7
100
AcDbVertex
100
AcDb2dVertex
 10
-19.494554
 20
-23.006176
 30
0.0
 70
    16
  0
VERTEX
  5
33548
330
19FFD
100
AcDbEntity
  8
TITLE_BLOCK
  6
CONTINUOUS
 62
     7
100
AcDbVertex
100
AcDb2dVertex
 10
-19.387367
 20
-23.005786
 30
0.0
 70
    16
  0
VERTEX
  5
33549
330
19FFD
100
AcDbEntity
  8
TITLE_BLOCK
  6
CONTINUOUS
 62
     7
100
AcDbVertex
100
AcDb2dVertex
 10
-19.28016
 20
-23.004575
 30
0.0
 70
    16
  0
VERTEX
  5
3354A
330
19FFD
100
AcDbEntity
  8
TITLE_BLOCK
  6
CONTINUOUS
 62
     7
100
AcDbVertex
100
AcDb2dVertex
 10
-19.280961
 20
-23.058989
 30
0.0
 70
    16
  0
VERTEX
  5
3354B
330
19FFD
100
AcDbEntity
  8
TITLE_BLOCK
  6
CONTINUOUS
 62
     7
100
AcDbVertex
100
AcDb2dVertex
 10
-19.280961
 20
-23.113793
 30
0.0
 70
    16
  0
VERTEX
  5
3354C
330
19FFD
100
AcDbEntity
  8
TITLE_BLOCK
  6
CONTINUOUS
 62
     7
100
AcDbVertex
100
AcDb2dVertex
 10
-19.28057
 20
-23.168559
 30
0.0
 70
    16
  0
VERTEX
  5
3354D
330
19FFD
100
AcDbEntity
  8
TITLE_BLOCK
  6
CONTINUOUS
 62
     7
100
AcDbVertex
100
AcDb2dVertex
 10
-19.388168
 20
-23.164965
 30
0.0
 70
    16
  0
VERTEX
  5
3354E
330
19FFD
100
AcDbEntity
  8
TITLE_BLOCK
  6
CONTINUOUS
 62
     7
100
AcDbVertex
100
AcDb2dVertex
 10
-19.494964
 20
-23.163364
 30
0.0
 70
    16
  0
VERTEX
  5
3354F
330
19FFD
100
AcDbEntity
  8
TITLE_BLOCK
  6
CONTINUOUS
 62
     7
100
AcDbVertex
100
AcDb2dVertex
 10
-19.602172
 20
-23.162973
 30
0.0
 70
    16
  0
VERTEX
  5
33550
330
19FFD
100
AcDbEntity
  8
TITLE_BLOCK
  6
CONTINUOUS
 62
     7
100
AcDbVertex
100
AcDb2dVertex
 10
-19.602172
 20
-23.193793
 30
0.0
 70
    16
  0
VERTEX
  5
33551
330
19FFD
100
AcDbEntity
  8
TITLE_BLOCK
  6
CONTINUOUS
 62
     7
100
AcDbVertex
100
AcDb2dVertex
 10
-19.602172
 20
-23.254965
 30
0.0
 70
    16
  0
VERTEX
  5
33552
330
19FFD
100
AcDbEntity
  8
TITLE_BLOCK
  6
CONTINUOUS
 62
     7
100
AcDbVertex
100
AcDb2dVertex
 10
-19.602562
 20
-23.285786
 30
0.0
 70
    16
  0
VERTEX
  5
33553
330
19FFD
100
AcDbEntity
  8
TITLE_BLOCK
  6
CONTINUOUS
 62
     7
100
AcDbVertex
100
AcDb2dVertex
 10
-19.482562
 20
-23.282582
 30
0.0
 70
    16
  0
VERTEX
  5
33554
330
19FFD
100
AcDbEntity
  8
TITLE_BLOCK
  6
CONTINUOUS
 62
     7
100
AcDbVertex
100
AcDb2dVertex
 10
-19.362953
 20
-23.284184
 30
0.0
 70
    16
  0
VERTEX
  5
33555
330
19FFD
100
AcDbEntity
  8
TITLE_BLOCK
  6
CONTINUOUS
 62
     7
100
AcDbVertex
100
AcDb2dVertex
 10
-19.243363
 20
-23.28059
 30
0.0
 70
    16
  0
VERTEX
  5
33556
330
19FFD
100
AcDbEntity
  8
TITLE_BLOCK
  6
CONTINUOUS
 62
     7
100
AcDbVertex
100
AcDb2dVertex
 10
-19.243363
 20
-23.334965
 30
0.0
 70
    16
  0
VERTEX
  5
33557
330
19FFD
100
AcDbEntity
  8
TITLE_BLOCK
  6
CONTINUOUS
 62
     7
100
AcDbVertex
100
AcDb2dVertex
 10
-19.243363
 20
-23.388989
 30
0.0
 70
    16
  0
VERTEX
  5
33558
330
19FFD
100
AcDbEntity
  8
TITLE_BLOCK
  6
CONTINUOUS
 62
     7
100
AcDbVertex
100
AcDb2dVertex
 10
-19.243363
 20
-23.443364
 30
0.0
 70
    16
  0
VERTEX
  5
33559
330
19FFD
100
AcDbEntity
  8
TITLE_BLOCK
  6
CONTINUOUS
 62
     7
100
AcDbVertex
100
AcDb2dVertex
 10
-19.43057
 20
-23.445356
 30
0.0
 70
    16
  0
VERTEX
  5
3355A
330
19FFD
100
AcDbEntity
  8
TITLE_BLOCK
  6
CONTINUOUS
 62
     7
100
AcDbVertex
100
AcDb2dVertex
 10
-19.618168
 20
-23.445356
 30
0.0
 70
    16
  0
VERTEX
  5
3355B
330
19FFD
100
AcDbEntity
  8
TITLE_BLOCK
  6
CONTINUOUS
 62
     7
100
AcDbVertex
100
AcDb2dVertex
 10
-19.805355
 20
-23.442582
 30
0.0
 70
    16
  0
VERTEX
  5
3355C
330
19FFD
100
AcDbEntity
  8
TITLE_BLOCK
  6
CONTINUOUS
 62
     7
100
AcDbVertex
100
AcDb2dVertex
 10
-19.80016
 20
-23.216176
 30
0.0
 70
    16
  0
VERTEX
  5
3355D
330
19FFD
100
AcDbEntity
  8
TITLE_BLOCK
  6
CONTINUOUS
 62
     7
100
AcDbVertex
100
AcDb2dVertex
 10
-19.806156
 20
-22.98977
 30
0.0
 70
    16
  0
VERTEX
  5
3355E
330
19FFD
100
AcDbEntity
  8
TITLE_BLOCK
  6
CONTINUOUS
 62
     7
100
AcDbVertex
100
AcDb2dVertex
 10
-19.800961
 20
-22.763364
 30
0.0
 70
    16
  0
VERTEX
  5
3355F
330
19FFD
100
AcDbEntity
  8
TITLE_BLOCK
  6
CONTINUOUS
 62
     7
100
AcDbVertex
100
AcDb2dVertex
 10
-19.800961
 20
-22.763364
 30
0.0
 70
    16
  0
VERTEX
  5
33560
330
19FFD
100
AcDbEntity
  8
TITLE_BLOCK
  6
CONTINUOUS
 62
     7
100
AcDbVertex
100
AcDb2dVertex
 10
-19.800961
 20
-22.763364
 30
0.0
 70
    16
  0
VERTEX
  5
33561
330
19FFD
100
AcDbEntity
  8
TITLE_BLOCK
  6
CONTINUOUS
 62
     7
100
AcDbVertex
100
AcDb2dVertex
 10
-19.800961
 20
-22.763364
 30
0.0
 70
    16
  0
SEQEND
  5
33562
330
19FFD
100
AcDbEntity
  8
TITLE_BLOCK
  6
CONTINUOUS
 62
     7
  0
POLYLINE
  5
1A03B
330
33219
100
AcDbEntity
  8
TITLE_BLOCK
  6
CONTINUOUS
 62
     7
100
AcDb2dPolyline
 66
     1
 10
0.0
 20
0.0
 30
0.0
 70
     5
 75
     5
  0
VERTEX
  5
33563
330
1A03B
100
AcDbEntity
  8
TITLE_BLOCK
  6
CONTINUOUS
 62
     7
100
AcDbVertex
100
AcDb2dVertex
 10
-18.842172
 20
-22.953793
 30
0.0
 70
     8
  0
VERTEX
  5
33564
330
1A03B
100
AcDbEntity
  8
TITLE_BLOCK
  6
CONTINUOUS
 62
     7
100
AcDbVertex
100
AcDb2dVertex
 10
-18.834579
 20
-22.922704
 30
0.0
 70
     8
  0
VERTEX
  5
33565
330
1A03B
100
AcDbEntity
  8
TITLE_BLOCK
  6
CONTINUOUS
 62
     7
100
AcDbVertex
100
AcDb2dVertex
 10
-18.823143
 20
-22.89477
 30
0.0
 70
     8
  0
VERTEX
  5
33566
330
1A03B
100
AcDbEntity
  8
TITLE_BLOCK
  6
CONTINUOUS
 62
     7
100
AcDbVertex
100
AcDb2dVertex
 10
-18.808219
 20
-22.869883
 30
0.0
 70
     8
  0
VERTEX
  5
33567
330
1A03B
100
AcDbEntity
  8
TITLE_BLOCK
  6
CONTINUOUS
 62
     7
100
AcDbVertex
100
AcDb2dVertex
 10
-18.790162
 20
-22.847936
 30
0.0
 70
     8
  0
VERTEX
  5
33568
330
1A03B
100
AcDbEntity
  8
TITLE_BLOCK
  6
CONTINUOUS
 62
     7
100
AcDbVertex
100
AcDb2dVertex
 10
-18.769328
 20
-22.82882
 30
0.0
 70
     8
  0
VERTEX
  5
33569
330
1A03B
100
AcDbEntity
  8
TITLE_BLOCK
  6
CONTINUOUS
 62
     7
100
AcDbVertex
100
AcDb2dVertex
 10
-18.746072
 20
-22.812428
 30
0.0
 70
     8
  0
VERTEX
  5
3356A
330
1A03B
100
AcDbEntity
  8
TITLE_BLOCK
  6
CONTINUOUS
 62
     7
100
AcDbVertex
100
AcDb2dVertex
 10
-18.720751
 20
-22.798651
 30
0.0
 70
     8
  0
VERTEX
  5
3356B
330
1A03B
100
AcDbEntity
  8
TITLE_BLOCK
  6
CONTINUOUS
 62
     7
100
AcDbVertex
100
AcDb2dVertex
 10
-18.693719
 20
-22.787382
 30
0.0
 70
     8
  0
VERTEX
  5
3356C
330
1A03B
100
AcDbEntity
  8
TITLE_BLOCK
  6
CONTINUOUS
 62
     7
100
AcDbVertex
100
AcDb2dVertex
 10
-18.665333
 20
-22.778514
 30
0.0
 70
     8
  0
VERTEX
  5
3356D
330
1A03B
100
AcDbEntity
  8
TITLE_BLOCK
  6
CONTINUOUS
 62
     7
100
AcDbVertex
100
AcDb2dVertex
 10
-18.635949
 20
-22.771937
 30
0.0
 70
     8
  0
VERTEX
  5
3356E
330
1A03B
100
AcDbEntity
  8
TITLE_BLOCK
  6
CONTINUOUS
 62
     7
100
AcDbVertex
100
AcDb2dVertex
 10
-18.60592
 20
-22.767545
 30
0.0
 70
     8
  0
VERTEX
  5
3356F
330
1A03B
100
AcDbEntity
  8
TITLE_BLOCK
  6
CONTINUOUS
 62
     7
100
AcDbVertex
100
AcDb2dVertex
 10
-18.575605
 20
-22.76523
 30
0.0
 70
     8
  0
VERTEX
  5
33570
330
1A03B
100
AcDbEntity
  8
TITLE_BLOCK
  6
CONTINUOUS
 62
     7
100
AcDbVertex
100
AcDb2dVertex
 10
-18.545357
 20
-22.764883
 30
0.0
 70
     8
  0
VERTEX
  5
33571
330
1A03B
100
AcDbEntity
  8
TITLE_BLOCK
  6
CONTINUOUS
 62
     7
100
AcDbVertex
100
AcDb2dVertex
 10
-18.515533
 20
-22.766396
 30
0.0
 70
     8
  0
VERTEX
  5
33572
330
1A03B
100
AcDbEntity
  8
TITLE_BLOCK
  6
CONTINUOUS
 62
     7
100
AcDbVertex
100
AcDb2dVertex
 10
-18.486488
 20
-22.769663
 30
0.0
 70
     8
  0
VERTEX
  5
33573
330
1A03B
100
AcDbEntity
  8
TITLE_BLOCK
  6
CONTINUOUS
 62
     7
100
AcDbVertex
100
AcDb2dVertex
 10
-18.458578
 20
-22.774575
 30
0.0
 70
     8
  0
VERTEX
  5
33574
330
1A03B
100
AcDbEntity
  8
TITLE_BLOCK
  6
CONTINUOUS
 62
     7
100
AcDbVertex
100
AcDb2dVertex
 10
-18.424956
 20
-22.785803
 30
0.0
 70
     8
  0
VERTEX
  5
33575
330
1A03B
100
AcDbEntity
  8
TITLE_BLOCK
  6
CONTINUOUS
 62
     7
100
AcDbVertex
100
AcDb2dVertex
 10
-18.394418
 20
-22.80128
 30
0.0
 70
     8
  0
VERTEX
  5
33576
330
1A03B
100
AcDbEntity
  8
TITLE_BLOCK
  6
CONTINUOUS
 62
     7
100
AcDbVertex
100
AcDb2dVertex
 10
-18.367117
 20
-22.820677
 30
0.0
 70
     8
  0
VERTEX
  5
33577
330
1A03B
100
AcDbEntity
  8
TITLE_BLOCK
  6
CONTINUOUS
 62
     7
100
AcDbVertex
100
AcDb2dVertex
 10
-18.343207
 20
-22.843666
 30
0.0
 70
     8
  0
VERTEX
  5
33578
330
1A03B
100
AcDbEntity
  8
TITLE_BLOCK
  6
CONTINUOUS
 62
     7
100
AcDbVertex
100
AcDb2dVertex
 10
-18.322842
 20
-22.869918
 30
0.0
 70
     8
  0
VERTEX
  5
33579
330
1A03B
100
AcDbEntity
  8
TITLE_BLOCK
  6
CONTINUOUS
 62
     7
100
AcDbVertex
100
AcDb2dVertex
 10
-18.306175
 20
-22.899105
 30
0.0
 70
     8
  0
VERTEX
  5
3357A
330
1A03B
100
AcDbEntity
  8
TITLE_BLOCK
  6
CONTINUOUS
 62
     7
100
AcDbVertex
100
AcDb2dVertex
 10
-18.293362
 20
-22.930897
 30
0.0
 70
     8
  0
VERTEX
  5
3357B
330
1A03B
100
AcDbEntity
  8
TITLE_BLOCK
  6
CONTINUOUS
 62
     7
100
AcDbVertex
100
AcDb2dVertex
 10
-18.284554
 20
-22.964965
 30
0.0
 70
     8
  0
VERTEX
  5
3357C
330
1A03B
100
AcDbEntity
  8
TITLE_BLOCK
  6
CONTINUOUS
 62
     7
100
AcDbVertex
100
AcDb2dVertex
 10
-18.331625
 20
-22.96655
 30
0.0
 70
     8
  0
VERTEX
  5
3357D
330
1A03B
100
AcDbEntity
  8
TITLE_BLOCK
  6
CONTINUOUS
 62
     7
100
AcDbVertex
100
AcDb2dVertex
 10
-18.378128
 20
-22.963879
 30
0.0
 70
     8
  0
VERTEX
  5
3357E
330
1A03B
100
AcDbEntity
  8
TITLE_BLOCK
  6
CONTINUOUS
 62
     7
100
AcDbVertex
100
AcDb2dVertex
 10
-18.424209
 20
-22.957991
 30
0.0
 70
     8
  0
VERTEX
  5
3357F
330
1A03B
100
AcDbEntity
  8
TITLE_BLOCK
  6
CONTINUOUS
 62
     7
100
AcDbVertex
100
AcDb2dVertex
 10
-18.470013
 20
-22.949921
 30
0.0
 70
     8
  0
VERTEX
  5
33580
330
1A03B
100
AcDbEntity
  8
TITLE_BLOCK
  6
CONTINUOUS
 62
     7
100
AcDbVertex
100
AcDb2dVertex
 10
-18.561371
 20
-22.931386
 30
0.0
 70
     8
  0
VERTEX
  5
33581
330
1A03B
100
AcDbEntity
  8
TITLE_BLOCK
  6
CONTINUOUS
 62
     7
100
AcDbVertex
100
AcDb2dVertex
 10
-18.607215
 20
-22.922993
 30
0.0
 70
     8
  0
VERTEX
  5
33582
330
1A03B
100
AcDbEntity
  8
TITLE_BLOCK
  6
CONTINUOUS
 62
     7
100
AcDbVertex
100
AcDb2dVertex
 10
-18.653363
 20
-22.916567
 30
0.0
 70
     8
  0
VERTEX
  5
33583
330
1A03B
100
AcDbEntity
  8
TITLE_BLOCK
  6
CONTINUOUS
 62
     7
100
AcDbVertex
100
AcDb2dVertex
 10
-18.653996
 20
-22.934868
 30
0.0
 70
     8
  0
VERTEX
  5
33584
330
1A03B
100
AcDbEntity
  8
TITLE_BLOCK
  6
CONTINUOUS
 62
     7
100
AcDbVertex
100
AcDb2dVertex
 10
-18.652136
 20
-22.950883
 30
0.0
 70
     8
  0
VERTEX
  5
33585
330
1A03B
100
AcDbEntity
  8
TITLE_BLOCK
  6
CONTINUOUS
 62
     7
100
AcDbVertex
100
AcDb2dVertex
 10
-18.648
 20
-22.964791
 30
0.0
 70
     8
  0
VERTEX
  5
33586
330
1A03B
100
AcDbEntity
  8
TITLE_BLOCK
  6
CONTINUOUS
 62
     7
100
AcDbVertex
100
AcDb2dVertex
 10
-18.641804
 20
-22.976773
 30
0.0
 70
     8
  0
VERTEX
  5
33587
330
1A03B
100
AcDbEntity
  8
TITLE_BLOCK
  6
CONTINUOUS
 62
     7
100
AcDbVertex
100
AcDb2dVertex
 10
-18.633766
 20
-22.987008
 30
0.0
 70
     8
  0
VERTEX
  5
33588
330
1A03B
100
AcDbEntity
  8
TITLE_BLOCK
  6
CONTINUOUS
 62
     7
100
AcDbVertex
100
AcDb2dVertex
 10
-18.624102
 20
-22.995676
 30
0.0
 70
     8
  0
VERTEX
  5
33589
330
1A03B
100
AcDbEntity
  8
TITLE_BLOCK
  6
CONTINUOUS
 62
     7
100
AcDbVertex
100
AcDb2dVertex
 10
-18.600765
 20
-23.009033
 30
0.0
 70
     8
  0
VERTEX
  5
3358A
330
1A03B
100
AcDbEntity
  8
TITLE_BLOCK
  6
CONTINUOUS
 62
     7
100
AcDbVertex
100
AcDb2dVertex
 10
-18.573528
 20
-23.018282
 30
0.0
 70
     8
  0
VERTEX
  5
3358B
330
1A03B
100
AcDbEntity
  8
TITLE_BLOCK
  6
CONTINUOUS
 62
     7
100
AcDbVertex
100
AcDb2dVertex
 10
-18.544126
 20
-23.024865
 30
0.0
 70
     8
  0
VERTEX
  5
3358C
330
1A03B
100
AcDbEntity
  8
TITLE_BLOCK
  6
CONTINUOUS
 62
     7
100
AcDbVertex
100
AcDb2dVertex
 10
-18.485765
 20
-23.035786
 30
0.0
 70
     8
  0
VERTEX
  5
3358D
330
1A03B
100
AcDbEntity
  8
TITLE_BLOCK
  6
CONTINUOUS
 62
     7
100
AcDbVertex
100
AcDb2dVertex
 10
-18.45674
 20
-23.040491
 30
0.0
 70
     8
  0
VERTEX
  5
3358E
330
1A03B
100
AcDbEntity
  8
TITLE_BLOCK
  6
CONTINUOUS
 62
     7
100
AcDbVertex
100
AcDb2dVertex
 10
-18.428667
 20
-23.04801
 30
0.0
 70
     8
  0
VERTEX
  5
3358F
330
1A03B
100
AcDbEntity
  8
TITLE_BLOCK
  6
CONTINUOUS
 62
     7
100
AcDbVertex
100
AcDb2dVertex
 10
-18.401418
 20
-23.05789
 30
0.0
 70
     8
  0
VERTEX
  5
33590
330
1A03B
100
AcDbEntity
  8
TITLE_BLOCK
  6
CONTINUOUS
 62
     7
100
AcDbVertex
100
AcDb2dVertex
 10
-18.374862
 20
-23.069682
 30
0.0
 70
     8
  0
VERTEX
  5
33591
330
1A03B
100
AcDbEntity
  8
TITLE_BLOCK
  6
CONTINUOUS
 62
     7
100
AcDbVertex
100
AcDb2dVertex
 10
-18.323305
 20
-23.097199
 30
0.0
 70
     8
  0
VERTEX
  5
33592
330
1A03B
100
AcDbEntity
  8
TITLE_BLOCK
  6
CONTINUOUS
 62
     7
100
AcDbVertex
100
AcDb2dVertex
 10
-18.272953
 20
-23.126957
 30
0.0
 70
     8
  0
VERTEX
  5
33593
330
1A03B
100
AcDbEntity
  8
TITLE_BLOCK
  6
CONTINUOUS
 62
     7
100
AcDbVertex
100
AcDb2dVertex
 10
-18.237757
 20
-23.23059
 30
0.0
 70
     8
  0
VERTEX
  5
33594
330
1A03B
100
AcDbEntity
  8
TITLE_BLOCK
  6
CONTINUOUS
 62
     7
100
AcDbVertex
100
AcDb2dVertex
 10
-18.243831
 20
-23.251367
 30
0.0
 70
     8
  0
VERTEX
  5
33595
330
1A03B
100
AcDbEntity
  8
TITLE_BLOCK
  6
CONTINUOUS
 62
     7
100
AcDbVertex
100
AcDb2dVertex
 10
-18.251136
 20
-23.270893
 30
0.0
 70
     8
  0
VERTEX
  5
33596
330
1A03B
100
AcDbEntity
  8
TITLE_BLOCK
  6
CONTINUOUS
 62
     7
100
AcDbVertex
100
AcDb2dVertex
 10
-18.259616
 20
-23.289194
 30
0.0
 70
     8
  0
VERTEX
  5
33597
330
1A03B
100
AcDbEntity
  8
TITLE_BLOCK
  6
CONTINUOUS
 62
     7
100
AcDbVertex
100
AcDb2dVertex
 10
-18.269213
 20
-23.306298
 30
0.0
 70
     8
  0
VERTEX
  5
33598
330
1A03B
100
AcDbEntity
  8
TITLE_BLOCK
  6
CONTINUOUS
 62
     7
100
AcDbVertex
100
AcDb2dVertex
 10
-18.291533
 20
-23.33703
 30
0.0
 70
     8
  0
VERTEX
  5
33599
330
1A03B
100
AcDbEntity
  8
TITLE_BLOCK
  6
CONTINUOUS
 62
     7
100
AcDbVertex
100
AcDb2dVertex
 10
-18.317638
 20
-23.363308
 30
0.0
 70
     8
  0
VERTEX
  5
3359A
330
1A03B
100
AcDbEntity
  8
TITLE_BLOCK
  6
CONTINUOUS
 62
     7
100
AcDbVertex
100
AcDb2dVertex
 10
-18.347071
 20
-23.385356
 30
0.0
 70
     8
  0
VERTEX
  5
3359B
330
1A03B
100
AcDbEntity
  8
TITLE_BLOCK
  6
CONTINUOUS
 62
     7
100
AcDbVertex
100
AcDb2dVertex
 10
-18.379375
 20
-23.403396
 30
0.0
 70
     8
  0
VERTEX
  5
3359C
330
1A03B
100
AcDbEntity
  8
TITLE_BLOCK
  6
CONTINUOUS
 62
     7
100
AcDbVertex
100
AcDb2dVertex
 10
-18.414093
 20
-23.41765
 30
0.0
 70
     8
  0
VERTEX
  5
3359D
330
1A03B
100
AcDbEntity
  8
TITLE_BLOCK
  6
CONTINUOUS
 62
     7
100
AcDbVertex
100
AcDb2dVertex
 10
-18.450768
 20
-23.428339
 30
0.0
 70
     8
  0
VERTEX
  5
3359E
330
1A03B
100
AcDbEntity
  8
TITLE_BLOCK
  6
CONTINUOUS
 62
     7
100
AcDbVertex
100
AcDb2dVertex
 10
-18.488942
 20
-23.435687
 30
0.0
 70
     8
  0
VERTEX
  5
3359F
330
1A03B
100
AcDbEntity
  8
TITLE_BLOCK
  6
CONTINUOUS
 62
     7
100
AcDbVertex
100
AcDb2dVertex
 10
-18.52816
 20
-23.439914
 30
0.0
 70
     8
  0
VERTEX
  5
335A0
330
1A03B
100
AcDbEntity
  8
TITLE_BLOCK
  6
CONTINUOUS
 62
     7
100
AcDbVertex
100
AcDb2dVertex
 10
-18.567963
 20
-23.441243
 30
0.0
 70
     8
  0
VERTEX
  5
335A1
330
1A03B
100
AcDbEntity
  8
TITLE_BLOCK
  6
CONTINUOUS
 62
     7
100
AcDbVertex
100
AcDb2dVertex
 10
-18.607895
 20
-23.439896
 30
0.0
 70
     8
  0
VERTEX
  5
335A2
330
1A03B
100
AcDbEntity
  8
TITLE_BLOCK
  6
CONTINUOUS
 62
     7
100
AcDbVertex
100
AcDb2dVertex
 10
-18.647499
 20
-23.436096
 30
0.0
 70
     8
  0
VERTEX
  5
335A3
330
1A03B
100
AcDbEntity
  8
TITLE_BLOCK
  6
CONTINUOUS
 62
     7
100
AcDbVertex
100
AcDb2dVertex
 10
-18.686317
 20
-23.430063
 30
0.0
 70
     8
  0
VERTEX
  5
335A4
330
1A03B
100
AcDbEntity
  8
TITLE_BLOCK
  6
CONTINUOUS
 62
     7
100
AcDbVertex
100
AcDb2dVertex
 10
-18.723893
 20
-23.422021
 30
0.0
 70
     8
  0
VERTEX
  5
335A5
330
1A03B
100
AcDbEntity
  8
TITLE_BLOCK
  6
CONTINUOUS
 62
     7
100
AcDbVertex
100
AcDb2dVertex
 10
-18.759769
 20
-23.412192
 30
0.0
 70
     8
  0
VERTEX
  5
335A6
330
1A03B
100
AcDbEntity
  8
TITLE_BLOCK
  6
CONTINUOUS
 62
     7
100
AcDbVertex
100
AcDb2dVertex
 10
-18.779665
 20
-23.391643
 30
0.0
 70
     8
  0
VERTEX
  5
335A7
330
1A03B
100
AcDbEntity
  8
TITLE_BLOCK
  6
CONTINUOUS
 62
     7
100
AcDbVertex
100
AcDb2dVertex
 10
-18.798047
 20
-23.369983
 30
0.0
 70
     8
  0
VERTEX
  5
335A8
330
1A03B
100
AcDbEntity
  8
TITLE_BLOCK
  6
CONTINUOUS
 62
     7
100
AcDbVertex
100
AcDb2dVertex
 10
-18.815052
 20
-23.347339
 30
0.0
 70
     8
  0
VERTEX
  5
335A9
330
1A03B
100
AcDbEntity
  8
TITLE_BLOCK
  6
CONTINUOUS
 62
     7
100
AcDbVertex
100
AcDb2dVertex
 10
-18.830814
 20
-23.323837
 30
0.0
 70
     8
  0
VERTEX
  5
335AA
330
1A03B
100
AcDbEntity
  8
TITLE_BLOCK
  6
CONTINUOUS
 62
     7
100
AcDbVertex
100
AcDb2dVertex
 10
-18.859157
 20
-23.274769
 30
0.0
 70
     8
  0
VERTEX
  5
335AB
330
1A03B
100
AcDbEntity
  8
TITLE_BLOCK
  6
CONTINUOUS
 62
     7
100
AcDbVertex
100
AcDb2dVertex
 10
-18.884164
 20
-23.223793
 30
0.0
 70
     8
  0
VERTEX
  5
335AC
330
1A03B
100
AcDbEntity
  8
TITLE_BLOCK
  6
CONTINUOUS
 62
     7
100
AcDbVertex
100
AcDb2dVertex
 10
-18.858059
 20
-23.224125
 30
0.0
 70
     8
  0
VERTEX
  5
335AD
330
1A03B
100
AcDbEntity
  8
TITLE_BLOCK
  6
CONTINUOUS
 62
     7
100
AcDbVertex
100
AcDb2dVertex
 10
-18.830586
 20
-23.220793
 30
0.0
 70
     8
  0
VERTEX
  5
335AE
330
1A03B
100
AcDbEntity
  8
TITLE_BLOCK
  6
CONTINUOUS
 62
     7
100
AcDbVertex
100
AcDb2dVertex
 10
-18.774164
 20
-23.211274
 30
0.0
 70
     8
  0
VERTEX
  5
335AF
330
1A03B
100
AcDbEntity
  8
TITLE_BLOCK
  6
CONTINUOUS
 62
     7
100
AcDbVertex
100
AcDb2dVertex
 10
-18.746525
 20
-23.209156
 30
0.0
 70
     8
  0
VERTEX
  5
335B0
330
1A03B
100
AcDbEntity
  8
TITLE_BLOCK
  6
CONTINUOUS
 62
     7
100
AcDbVertex
100
AcDb2dVertex
 10
-18.720143
 20
-23.211511
 30
0.0
 70
     8
  0
VERTEX
  5
335B1
330
1A03B
100
AcDbEntity
  8
TITLE_BLOCK
  6
CONTINUOUS
 62
     7
100
AcDbVertex
100
AcDb2dVertex
 10
-18.695674
 20
-23.220373
 30
0.0
 70
     8
  0
VERTEX
  5
335B2
330
1A03B
100
AcDbEntity
  8
TITLE_BLOCK
  6
CONTINUOUS
 62
     7
100
AcDbVertex
100
AcDb2dVertex
 10
-18.684361
 20
-23.227881
 30
0.0
 70
     8
  0
VERTEX
  5
335B3
330
1A03B
100
AcDbEntity
  8
TITLE_BLOCK
  6
CONTINUOUS
 62
     7
100
AcDbVertex
100
AcDb2dVertex
 10
-18.673773
 20
-23.237778
 30
0.0
 70
     8
  0
VERTEX
  5
335B4
330
1A03B
100
AcDbEntity
  8
TITLE_BLOCK
  6
CONTINUOUS
 62
     7
100
AcDbVertex
100
AcDb2dVertex
 10
-18.651039
 20
-23.258427
 30
0.0
 70
     8
  0
VERTEX
  5
335B5
330
1A03B
100
AcDbEntity
  8
TITLE_BLOCK
  6
CONTINUOUS
 62
     7
100
AcDbVertex
100
AcDb2dVertex
 10
-18.625808
 20
-23.272051
 30
0.0
 70
     8
  0
VERTEX
  5
335B6
330
1A03B
100
AcDbEntity
  8
TITLE_BLOCK
  6
CONTINUOUS
 62
     7
100
AcDbVertex
100
AcDb2dVertex
 10
-18.598619
 20
-23.279948
 30
0.0
 70
     8
  0
VERTEX
  5
335B7
330
1A03B
100
AcDbEntity
  8
TITLE_BLOCK
  6
CONTINUOUS
 62
     7
100
AcDbVertex
100
AcDb2dVertex
 10
-18.570011
 20
-23.283417
 30
0.0
 70
     8
  0
VERTEX
  5
335B8
330
1A03B
100
AcDbEntity
  8
TITLE_BLOCK
  6
CONTINUOUS
 62
     7
100
AcDbVertex
100
AcDb2dVertex
 10
-18.540523
 20
-23.283757
 30
0.0
 70
     8
  0
VERTEX
  5
335B9
330
1A03B
100
AcDbEntity
  8
TITLE_BLOCK
  6
CONTINUOUS
 62
     7
100
AcDbVertex
100
AcDb2dVertex
 10
-18.510695
 20
-23.282267
 30
0.0
 70
     8
  0
VERTEX
  5
335BA
330
1A03B
100
AcDbEntity
  8
TITLE_BLOCK
  6
CONTINUOUS
 62
     7
100
AcDbVertex
100
AcDb2dVertex
 10
-18.452172
 20
-23.278989
 30
0.0
 70
     8
  0
VERTEX
  5
335BB
330
1A03B
100
AcDbEntity
  8
TITLE_BLOCK
  6
CONTINUOUS
 62
     7
100
AcDbVertex
100
AcDb2dVertex
 10
-18.43975
 20
-23.186176
 30
0.0
 70
     8
  0
VERTEX
  5
335BC
330
1A03B
100
AcDbEntity
  8
TITLE_BLOCK
  6
CONTINUOUS
 62
     7
100
AcDbVertex
100
AcDb2dVertex
 10
-18.497517
 20
-23.170789
 30
0.0
 70
     8
  0
VERTEX
  5
335BD
330
1A03B
100
AcDbEntity
  8
TITLE_BLOCK
  6
CONTINUOUS
 62
     7
100
AcDbVertex
100
AcDb2dVertex
 10
-18.559499
 20
-23.157227
 30
0.0
 70
     8
  0
VERTEX
  5
335BE
330
1A03B
100
AcDbEntity
  8
TITLE_BLOCK
  6
CONTINUOUS
 62
     7
100
AcDbVertex
100
AcDb2dVertex
 10
-18.622522
 20
-23.142628
 30
0.0
 70
     8
  0
VERTEX
  5
335BF
330
1A03B
100
AcDbEntity
  8
TITLE_BLOCK
  6
CONTINUOUS
 62
     7
100
AcDbVertex
100
AcDb2dVertex
 10
-18.653432
 20
-23.134044
 30
0.0
 70
     8
  0
VERTEX
  5
335C0
330
1A03B
100
AcDbEntity
  8
TITLE_BLOCK
  6
CONTINUOUS
 62
     7
100
AcDbVertex
100
AcDb2dVertex
 10
-18.683412
 20
-23.124125
 30
0.0
 70
     8
  0
VERTEX
  5
335C1
330
1A03B
100
AcDbEntity
  8
TITLE_BLOCK
  6
CONTINUOUS
 62
     7
100
AcDbVertex
100
AcDb2dVertex
 10
-18.712065
 20
-23.112515
 30
0.0
 70
     8
  0
VERTEX
  5
335C2
330
1A03B
100
AcDbEntity
  8
TITLE_BLOCK
  6
CONTINUOUS
 62
     7
100
AcDbVertex
100
AcDb2dVertex
 10
-18.738995
 20
-23.098856
 30
0.0
 70
     8
  0
VERTEX
  5
335C3
330
1A03B
100
AcDbEntity
  8
TITLE_BLOCK
  6
CONTINUOUS
 62
     7
100
AcDbVertex
100
AcDb2dVertex
 10
-18.763806
 20
-23.082788
 30
0.0
 70
     8
  0
VERTEX
  5
335C4
330
1A03B
100
AcDbEntity
  8
TITLE_BLOCK
  6
CONTINUOUS
 62
     7
100
AcDbVertex
100
AcDb2dVertex
 10
-18.786099
 20
-23.063953
 30
0.0
 70
     8
  0
VERTEX
  5
335C5
330
1A03B
100
AcDbEntity
  8
TITLE_BLOCK
  6
CONTINUOUS
 62
     7
100
AcDbVertex
100
AcDb2dVertex
 10
-18.805479
 20
-23.041995
 30
0.0
 70
     8
  0
VERTEX
  5
335C6
330
1A03B
100
AcDbEntity
  8
TITLE_BLOCK
  6
CONTINUOUS
 62
     7
100
AcDbVertex
100
AcDb2dVertex
 10
-18.821549
 20
-23.016554
 30
0.0
 70
     8
  0
VERTEX
  5
335C7
330
1A03B
100
AcDbEntity
  8
TITLE_BLOCK
  6
CONTINUOUS
 62
     7
100
AcDbVertex
100
AcDb2dVertex
 10
-18.833912
 20
-22.987273
 30
0.0
 70
     8
  0
VERTEX
  5
335C8
330
1A03B
100
AcDbEntity
  8
TITLE_BLOCK
  6
CONTINUOUS
 62
     7
100
AcDbVertex
100
AcDb2dVertex
 10
-18.842172
 20
-22.953793
 30
0.0
 70
     8
  0
VERTEX
  5
335C9
330
1A03B
100
AcDbEntity
  8
TITLE_BLOCK
  6
CONTINUOUS
 62
     7
100
AcDbVertex
100
AcDb2dVertex
 10
-18.842172
 20
-22.953793
 30
0.0
 70
     8
  0
VERTEX
  5
335CA
330
1A03B
100
AcDbEntity
  8
TITLE_BLOCK
  6
CONTINUOUS
 62
     7
100
AcDbVertex
100
AcDb2dVertex
 10
-18.842172
 20
-22.953793
 30
0.0
 70
    16
  0
VERTEX
  5
335CB
330
1A03B
100
AcDbEntity
  8
TITLE_BLOCK
  6
CONTINUOUS
 62
     7
100
AcDbVertex
100
AcDb2dVertex
 10
-18.812562
 20
-22.779379
 30
0.0
 70
    16
  0
VERTEX
  5
335CC
330
1A03B
100
AcDbEntity
  8
TITLE_BLOCK
  6
CONTINUOUS
 62
     7
100
AcDbVertex
100
AcDb2dVertex
 10
-18.603773
 20
-22.744184
 30
0.0
 70
    16
  0
VERTEX
  5
335CD
330
1A03B
100
AcDbEntity
  8
TITLE_BLOCK
  6
CONTINUOUS
 62
     7
100
AcDbVertex
100
AcDb2dVertex
 10
-18.458578
 20
-22.774575
 30
0.0
 70
    16
  0
VERTEX
  5
335CE
330
1A03B
100
AcDbEntity
  8
TITLE_BLOCK
  6
CONTINUOUS
 62
     7
100
AcDbVertex
100
AcDb2dVertex
 10
-18.364945
 20
-22.798559
 30
0.0
 70
    16
  0
VERTEX
  5
335CF
330
1A03B
100
AcDbEntity
  8
TITLE_BLOCK
  6
CONTINUOUS
 62
     7
100
AcDbVertex
100
AcDb2dVertex
 10
-18.302562
 20
-22.871372
 30
0.0
 70
    16
  0
VERTEX
  5
335D0
330
1A03B
100
AcDbEntity
  8
TITLE_BLOCK
  6
CONTINUOUS
 62
     7
100
AcDbVertex
100
AcDb2dVertex
 10
-18.284554
 20
-22.964965
 30
0.0
 70
    16
  0
VERTEX
  5
335D1
330
1A03B
100
AcDbEntity
  8
TITLE_BLOCK
  6
CONTINUOUS
 62
     7
100
AcDbVertex
100
AcDb2dVertex
 10
-18.410961
 20
-22.975786
 30
0.0
 70
    16
  0
VERTEX
  5
335D2
330
1A03B
100
AcDbEntity
  8
TITLE_BLOCK
  6
CONTINUOUS
 62
     7
100
AcDbVertex
100
AcDb2dVertex
 10
-18.529769
 20
-22.930161
 30
0.0
 70
    16
  0
VERTEX
  5
335D3
330
1A03B
100
AcDbEntity
  8
TITLE_BLOCK
  6
CONTINUOUS
 62
     7
100
AcDbVertex
100
AcDb2dVertex
 10
-18.653363
 20
-22.916567
 30
0.0
 70
    16
  0
VERTEX
  5
335D4
330
1A03B
100
AcDbEntity
  8
TITLE_BLOCK
  6
CONTINUOUS
 62
     7
100
AcDbVertex
100
AcDb2dVertex
 10
-18.663773
 20
-23.02059
 30
0.0
 70
    16
  0
VERTEX
  5
335D5
330
1A03B
100
AcDbEntity
  8
TITLE_BLOCK
  6
CONTINUOUS
 62
     7
100
AcDbVertex
100
AcDb2dVertex
 10
-18.558558
 20
-23.019379
 30
0.0
 70
    16
  0
VERTEX
  5
335D6
330
1A03B
100
AcDbEntity
  8
TITLE_BLOCK
  6
CONTINUOUS
 62
     7
100
AcDbVertex
100
AcDb2dVertex
 10
-18.485765
 20
-23.035786
 30
0.0
 70
    16
  0
VERTEX
  5
335D7
330
1A03B
100
AcDbEntity
  8
TITLE_BLOCK
  6
CONTINUOUS
 62
     7
100
AcDbVertex
100
AcDb2dVertex
 10
-18.406976
 20
-23.044184
 30
0.0
 70
    16
  0
VERTEX
  5
335D8
330
1A03B
100
AcDbEntity
  8
TITLE_BLOCK
  6
CONTINUOUS
 62
     7
100
AcDbVertex
100
AcDb2dVertex
 10
-18.33975
 20
-23.087387
 30
0.0
 70
    16
  0
VERTEX
  5
335D9
330
1A03B
100
AcDbEntity
  8
TITLE_BLOCK
  6
CONTINUOUS
 62
     7
100
AcDbVertex
100
AcDb2dVertex
 10
-18.272953
 20
-23.126957
 30
0.0
 70
    16
  0
VERTEX
  5
335DA
330
1A03B
100
AcDbEntity
  8
TITLE_BLOCK
  6
CONTINUOUS
 62
     7
100
AcDbVertex
100
AcDb2dVertex
 10
-18.264164
 20
-23.152582
 30
0.0
 70
    16
  0
VERTEX
  5
335DB
330
1A03B
100
AcDbEntity
  8
TITLE_BLOCK
  6
CONTINUOUS
 62
     7
100
AcDbVertex
100
AcDb2dVertex
 10
-18.246547
 20
-23.204575
 30
0.0
 70
    16
  0
VERTEX
  5
335DC
330
1A03B
100
AcDbEntity
  8
TITLE_BLOCK
  6
CONTINUOUS
 62
     7
100
AcDbVertex
100
AcDb2dVertex
 10
-18.237757
 20
-23.23059
 30
0.0
 70
    16
  0
VERTEX
  5
335DD
330
1A03B
100
AcDbEntity
  8
TITLE_BLOCK
  6
CONTINUOUS
 62
     7
100
AcDbVertex
100
AcDb2dVertex
 10
-18.295765
 20
-23.458989
 30
0.0
 70
    16
  0
VERTEX
  5
335DE
330
1A03B
100
AcDbEntity
  8
TITLE_BLOCK
  6
CONTINUOUS
 62
     7
100
AcDbVertex
100
AcDb2dVertex
 10
-18.573773
 20
-23.468989
 30
0.0
 70
    16
  0
VERTEX
  5
335DF
330
1A03B
100
AcDbEntity
  8
TITLE_BLOCK
  6
CONTINUOUS
 62
     7
100
AcDbVertex
100
AcDb2dVertex
 10
-18.759769
 20
-23.412192
 30
0.0
 70
    16
  0
VERTEX
  5
335E0
330
1A03B
100
AcDbEntity
  8
TITLE_BLOCK
  6
CONTINUOUS
 62
     7
100
AcDbVertex
100
AcDb2dVertex
 10
-18.814964
 20
-23.358989
 30
0.0
 70
    16
  0
VERTEX
  5
335E1
330
1A03B
100
AcDbEntity
  8
TITLE_BLOCK
  6
CONTINUOUS
 62
     7
100
AcDbVertex
100
AcDb2dVertex
 10
-18.852562
 20
-23.292582
 30
0.0
 70
    16
  0
VERTEX
  5
335E2
330
1A03B
100
AcDbEntity
  8
TITLE_BLOCK
  6
CONTINUOUS
 62
     7
100
AcDbVertex
100
AcDb2dVertex
 10
-18.884164
 20
-23.223793
 30
0.0
 70
    16
  0
VERTEX
  5
335E3
330
1A03B
100
AcDbEntity
  8
TITLE_BLOCK
  6
CONTINUOUS
 62
     7
100
AcDbVertex
100
AcDb2dVertex
 10
-18.816957
 20
-23.231372
 30
0.0
 70
    16
  0
VERTEX
  5
335E4
330
1A03B
100
AcDbEntity
  8
TITLE_BLOCK
  6
CONTINUOUS
 62
     7
100
AcDbVertex
100
AcDb2dVertex
 10
-18.728168
 20
-23.178168
 30
0.0
 70
    16
  0
VERTEX
  5
335E5
330
1A03B
100
AcDbEntity
  8
TITLE_BLOCK
  6
CONTINUOUS
 62
     7
100
AcDbVertex
100
AcDb2dVertex
 10
-18.673773
 20
-23.237778
 30
0.0
 70
    16
  0
VERTEX
  5
335E6
330
1A03B
100
AcDbEntity
  8
TITLE_BLOCK
  6
CONTINUOUS
 62
     7
100
AcDbVertex
100
AcDb2dVertex
 10
-18.616957
 20
-23.303364
 30
0.0
 70
    16
  0
VERTEX
  5
335E7
330
1A03B
100
AcDbEntity
  8
TITLE_BLOCK
  6
CONTINUOUS
 62
     7
100
AcDbVertex
100
AcDb2dVertex
 10
-18.527757
 20
-23.280161
 30
0.0
 70
    16
  0
VERTEX
  5
335E8
330
1A03B
100
AcDbEntity
  8
TITLE_BLOCK
  6
CONTINUOUS
 62
     7
100
AcDbVertex
100
AcDb2dVertex
 10
-18.452172
 20
-23.278989
 30
0.0
 70
    16
  0
VERTEX
  5
335E9
330
1A03B
100
AcDbEntity
  8
TITLE_BLOCK
  6
CONTINUOUS
 62
     7
100
AcDbVertex
100
AcDb2dVertex
 10
-18.448968
 20
-23.255786
 30
0.0
 70
    16
  0
VERTEX
  5
335EA
330
1A03B
100
AcDbEntity
  8
TITLE_BLOCK
  6
CONTINUOUS
 62
     7
100
AcDbVertex
100
AcDb2dVertex
 10
-18.442953
 20
-23.209379
 30
0.0
 70
    16
  0
VERTEX
  5
335EB
330
1A03B
100
AcDbEntity
  8
TITLE_BLOCK
  6
CONTINUOUS
 62
     7
100
AcDbVertex
100
AcDb2dVertex
 10
-18.43975
 20
-23.186176
 30
0.0
 70
    16
  0
VERTEX
  5
335EC
330
1A03B
100
AcDbEntity
  8
TITLE_BLOCK
  6
CONTINUOUS
 62
     7
100
AcDbVertex
100
AcDb2dVertex
 10
-18.585355
 20
-23.140161
 30
0.0
 70
    16
  0
VERTEX
  5
335ED
330
1A03B
100
AcDbEntity
  8
TITLE_BLOCK
  6
CONTINUOUS
 62
     7
100
AcDbVertex
100
AcDb2dVertex
 10
-18.809769
 20
-23.144184
 30
0.0
 70
    16
  0
VERTEX
  5
335EE
330
1A03B
100
AcDbEntity
  8
TITLE_BLOCK
  6
CONTINUOUS
 62
     7
100
AcDbVertex
100
AcDb2dVertex
 10
-18.842172
 20
-22.953793
 30
0.0
 70
    16
  0
VERTEX
  5
335EF
330
1A03B
100
AcDbEntity
  8
TITLE_BLOCK
  6
CONTINUOUS
 62
     7
100
AcDbVertex
100
AcDb2dVertex
 10
-18.842172
 20
-22.953793
 30
0.0
 70
    16
  0
VERTEX
  5
335F0
330
1A03B
100
AcDbEntity
  8
TITLE_BLOCK
  6
CONTINUOUS
 62
     7
100
AcDbVertex
100
AcDb2dVertex
 10
-18.842172
 20
-22.953793
 30
0.0
 70
    16
  0
VERTEX
  5
335F1
330
1A03B
100
AcDbEntity
  8
TITLE_BLOCK
  6
CONTINUOUS
 62
     7
100
AcDbVertex
100
AcDb2dVertex
 10
-18.842172
 20
-22.953793
 30
0.0
 70
    16
  0
SEQEND
  5
335F2
330
1A03B
100
AcDbEntity
  8
TITLE_BLOCK
  6
CONTINUOUS
 62
     7
  0
POLYLINE
  5
1A0CB
330
33219
100
AcDbEntity
  8
TITLE_BLOCK
  6
CONTINUOUS
 62
     7
100
AcDb2dPolyline
 66
     1
 10
0.0
 20
0.0
 30
0.0
 70
     5
 75
     5
  0
VERTEX
  5
335F3
330
1A0CB
100
AcDbEntity
  8
TITLE_BLOCK
  6
CONTINUOUS
 62
     7
100
AcDbVertex
100
AcDb2dVertex
 10
-18.164554
 20
-22.765356
 30
0.0
 70
     8
  0
VERTEX
  5
335F4
330
1A0CB
100
AcDbEntity
  8
TITLE_BLOCK
  6
CONTINUOUS
 62
     7
100
AcDbVertex
100
AcDb2dVertex
 10
-18.014194
 20
-22.764557
 30
0.0
 70
     8
  0
VERTEX
  5
335F5
330
1A0CB
100
AcDbEntity
  8
TITLE_BLOCK
  6
CONTINUOUS
 62
     7
100
AcDbVertex
100
AcDb2dVertex
 10
-17.863754
 20
-22.765175
 30
0.0
 70
     8
  0
VERTEX
  5
335F6
330
1A0CB
100
AcDbEntity
  8
TITLE_BLOCK
  6
CONTINUOUS
 62
     7
100
AcDbVertex
100
AcDb2dVertex
 10
-17.713313
 20
-22.765493
 30
0.0
 70
     8
  0
VERTEX
  5
335F7
330
1A0CB
100
AcDbEntity
  8
TITLE_BLOCK
  6
CONTINUOUS
 62
     7
100
AcDbVertex
100
AcDb2dVertex
 10
-17.562953
 20
-22.763793
 30
0.0
 70
     8
  0
VERTEX
  5
335F8
330
1A0CB
100
AcDbEntity
  8
TITLE_BLOCK
  6
CONTINUOUS
 62
     7
100
AcDbVertex
100
AcDb2dVertex
 10
-17.560179
 20
-22.927778
 30
0.0
 70
     8
  0
VERTEX
  5
335F9
330
1A0CB
100
AcDbEntity
  8
TITLE_BLOCK
  6
CONTINUOUS
 62
     7
100
AcDbVertex
100
AcDb2dVertex
 10
-17.759359
 20
-22.920981
 30
0.0
 70
     8
  0
VERTEX
  5
335FA
330
1A0CB
100
AcDbEntity
  8
TITLE_BLOCK
  6
CONTINUOUS
 62
     7
100
AcDbVertex
100
AcDb2dVertex
 10
-17.761922
 20
-23.051469
 30
0.0
 70
     8
  0
VERTEX
  5
335FB
330
1A0CB
100
AcDbEntity
  8
TITLE_BLOCK
  6
CONTINUOUS
 62
     7
100
AcDbVertex
100
AcDb2dVertex
 10
-17.762757
 20
-23.181928
 30
0.0
 70
     8
  0
VERTEX
  5
335FC
330
1A0CB
100
AcDbEntity
  8
TITLE_BLOCK
  6
CONTINUOUS
 62
     7
100
AcDbVertex
100
AcDb2dVertex
 10
-17.761351
 20
-23.442582
 30
0.0
 70
     8
  0
VERTEX
  5
335FD
330
1A0CB
100
AcDbEntity
  8
TITLE_BLOCK
  6
CONTINUOUS
 62
     7
100
AcDbVertex
100
AcDb2dVertex
 10
-17.961781
 20
-23.447387
 30
0.0
 70
     8
  0
VERTEX
  5
335FE
330
1A0CB
100
AcDbEntity
  8
TITLE_BLOCK
  6
CONTINUOUS
 62
     7
100
AcDbVertex
100
AcDb2dVertex
 10
-17.963343
 20
-22.924184
 30
0.0
 70
     8
  0
VERTEX
  5
335FF
330
1A0CB
100
AcDbEntity
  8
TITLE_BLOCK
  6
CONTINUOUS
 62
     7
100
AcDbVertex
100
AcDb2dVertex
 10
-18.162172
 20
-22.924575
 30
0.0
 70
     8
  0
VERTEX
  5
33600
330
1A0CB
100
AcDbEntity
  8
TITLE_BLOCK
  6
CONTINUOUS
 62
     7
100
AcDbVertex
100
AcDb2dVertex
 10
-18.164554
 20
-22.765356
 30
0.0
 70
     8
  0
VERTEX
  5
33601
330
1A0CB
100
AcDbEntity
  8
TITLE_BLOCK
  6
CONTINUOUS
 62
     7
100
AcDbVertex
100
AcDb2dVertex
 10
-18.164554
 20
-22.765356
 30
0.0
 70
     8
  0
VERTEX
  5
33602
330
1A0CB
100
AcDbEntity
  8
TITLE_BLOCK
  6
CONTINUOUS
 62
     7
100
AcDbVertex
100
AcDb2dVertex
 10
-18.164554
 20
-22.765356
 30
0.0
 70
    16
  0
VERTEX
  5
33603
330
1A0CB
100
AcDbEntity
  8
TITLE_BLOCK
  6
CONTINUOUS
 62
     7
100
AcDbVertex
100
AcDb2dVertex
 10
-17.964164
 20
-22.762582
 30
0.0
 70
    16
  0
VERTEX
  5
33604
330
1A0CB
100
AcDbEntity
  8
TITLE_BLOCK
  6
CONTINUOUS
 62
     7
100
AcDbVertex
100
AcDb2dVertex
 10
-17.763343
 20
-22.768168
 30
0.0
 70
    16
  0
VERTEX
  5
33605
330
1A0CB
100
AcDbEntity
  8
TITLE_BLOCK
  6
CONTINUOUS
 62
     7
100
AcDbVertex
100
AcDb2dVertex
 10
-17.562953
 20
-22.763793
 30
0.0
 70
    16
  0
VERTEX
  5
33606
330
1A0CB
100
AcDbEntity
  8
TITLE_BLOCK
  6
CONTINUOUS
 62
     7
100
AcDbVertex
100
AcDb2dVertex
 10
-17.562172
 20
-22.818168
 30
0.0
 70
    16
  0
VERTEX
  5
33607
330
1A0CB
100
AcDbEntity
  8
TITLE_BLOCK
  6
CONTINUOUS
 62
     7
100
AcDbVertex
100
AcDb2dVertex
 10
-17.561351
 20
-22.872973
 30
0.0
 70
    16
  0
VERTEX
  5
33608
330
1A0CB
100
AcDbEntity
  8
TITLE_BLOCK
  6
CONTINUOUS
 62
     7
100
AcDbVertex
100
AcDb2dVertex
 10
-17.560179
 20
-22.927778
 30
0.0
 70
    16
  0
VERTEX
  5
33609
330
1A0CB
100
AcDbEntity
  8
TITLE_BLOCK
  6
CONTINUOUS
 62
     7
100
AcDbVertex
100
AcDb2dVertex
 10
-17.626976
 20
-22.925356
 30
0.0
 70
    16
  0
VERTEX
  5
3360A
330
1A0CB
100
AcDbEntity
  8
TITLE_BLOCK
  6
CONTINUOUS
 62
     7
100
AcDbVertex
100
AcDb2dVertex
 10
-17.692953
 20
-22.923364
 30
0.0
 70
    16
  0
VERTEX
  5
3360B
330
1A0CB
100
AcDbEntity
  8
TITLE_BLOCK
  6
CONTINUOUS
 62
     7
100
AcDbVertex
100
AcDb2dVertex
 10
-17.759359
 20
-22.920981
 30
0.0
 70
    16
  0
VERTEX
  5
3360C
330
1A0CB
100
AcDbEntity
  8
TITLE_BLOCK
  6
CONTINUOUS
 62
     7
100
AcDbVertex
100
AcDb2dVertex
 10
-17.764164
 20
-23.094965
 30
0.0
 70
    16
  0
VERTEX
  5
3360D
330
1A0CB
100
AcDbEntity
  8
TITLE_BLOCK
  6
CONTINUOUS
 62
     7
100
AcDbVertex
100
AcDb2dVertex
 10
-17.762953
 20
-23.268989
 30
0.0
 70
    16
  0
VERTEX
  5
3360E
330
1A0CB
100
AcDbEntity
  8
TITLE_BLOCK
  6
CONTINUOUS
 62
     7
100
AcDbVertex
100
AcDb2dVertex
 10
-17.761351
 20
-23.442582
 30
0.0
 70
    16
  0
VERTEX
  5
3360F
330
1A0CB
100
AcDbEntity
  8
TITLE_BLOCK
  6
CONTINUOUS
 62
     7
100
AcDbVertex
100
AcDb2dVertex
 10
-17.828148
 20
-23.443793
 30
0.0
 70
    16
  0
VERTEX
  5
33610
330
1A0CB
100
AcDbEntity
  8
TITLE_BLOCK
  6
CONTINUOUS
 62
     7
100
AcDbVertex
100
AcDb2dVertex
 10
-17.894945
 20
-23.445356
 30
0.0
 70
    16
  0
VERTEX
  5
33611
330
1A0CB
100
AcDbEntity
  8
TITLE_BLOCK
  6
CONTINUOUS
 62
     7
100
AcDbVertex
100
AcDb2dVertex
 10
-17.961781
 20
-23.447387
 30
0.0
 70
    16
  0
VERTEX
  5
33612
330
1A0CB
100
AcDbEntity
  8
TITLE_BLOCK
  6
CONTINUOUS
 62
     7
100
AcDbVertex
100
AcDb2dVertex
 10
-17.962562
 20
-23.272973
 30
0.0
 70
    16
  0
VERTEX
  5
33613
330
1A0CB
100
AcDbEntity
  8
TITLE_BLOCK
  6
CONTINUOUS
 62
     7
100
AcDbVertex
100
AcDb2dVertex
 10
-17.961781
 20
-23.098559
 30
0.0
 70
    16
  0
VERTEX
  5
33614
330
1A0CB
100
AcDbEntity
  8
TITLE_BLOCK
  6
CONTINUOUS
 62
     7
100
AcDbVertex
100
AcDb2dVertex
 10
-17.963343
 20
-22.924184
 30
0.0
 70
    16
  0
VERTEX
  5
33615
330
1A0CB
100
AcDbEntity
  8
TITLE_BLOCK
  6
CONTINUOUS
 62
     7
100
AcDbVertex
100
AcDb2dVertex
 10
-18.02975
 20
-22.923793
 30
0.0
 70
    16
  0
VERTEX
  5
33616
330
1A0CB
100
AcDbEntity
  8
TITLE_BLOCK
  6
CONTINUOUS
 62
     7
100
AcDbVertex
100
AcDb2dVertex
 10
-18.095765
 20
-22.924184
 30
0.0
 70
    16
  0
VERTEX
  5
33617
330
1A0CB
100
AcDbEntity
  8
TITLE_BLOCK
  6
CONTINUOUS
 62
     7
100
AcDbVertex
100
AcDb2dVertex
 10
-18.162172
 20
-22.924575
 30
0.0
 70
    16
  0
VERTEX
  5
33618
330
1A0CB
100
AcDbEntity
  8
TITLE_BLOCK
  6
CONTINUOUS
 62
     7
100
AcDbVertex
100
AcDb2dVertex
 10
-18.162953
 20
-22.871372
 30
0.0
 70
    16
  0
VERTEX
  5
33619
330
1A0CB
100
AcDbEntity
  8
TITLE_BLOCK
  6
CONTINUOUS
 62
     7
100
AcDbVertex
100
AcDb2dVertex
 10
-18.163773
 20
-22.818559
 30
0.0
 70
    16
  0
VERTEX
  5
3361A
330
1A0CB
100
AcDbEntity
  8
TITLE_BLOCK
  6
CONTINUOUS
 62
     7
100
AcDbVertex
100
AcDb2dVertex
 10
-18.164554
 20
-22.765356
 30
0.0
 70
    16
  0
VERTEX
  5
3361B
330
1A0CB
100
AcDbEntity
  8
TITLE_BLOCK
  6
CONTINUOUS
 62
     7
100
AcDbVertex
100
AcDb2dVertex
 10
-18.164554
 20
-22.765356
 30
0.0
 70
    16
  0
VERTEX
  5
3361C
330
1A0CB
100
AcDbEntity
  8
TITLE_BLOCK
  6
CONTINUOUS
 62
     7
100
AcDbVertex
100
AcDb2dVertex
 10
-18.164554
 20
-22.765356
 30
0.0
 70
    16
  0
VERTEX
  5
3361D
330
1A0CB
100
AcDbEntity
  8
TITLE_BLOCK
  6
CONTINUOUS
 62
     7
100
AcDbVertex
100
AcDb2dVertex
 10
-18.164554
 20
-22.765356
 30
0.0
 70
    16
  0
SEQEND
  5
3361E
330
1A0CB
100
AcDbEntity
  8
TITLE_BLOCK
  6
CONTINUOUS
 62
     7
  0
POLYLINE
  5
1A0F7
330
33219
100
AcDbEntity
  8
TITLE_BLOCK
  6
CONTINUOUS
 62
     7
100
AcDb2dPolyline
 66
     1
 10
0.0
 20
0.0
 30
0.0
 70
     5
 75
     5
  0
VERTEX
  5
3361F
330
1A0F7
100
AcDbEntity
  8
TITLE_BLOCK
  6
CONTINUOUS
 62
     7
100
AcDbVertex
100
AcDb2dVertex
 10
-17.511351
 20
-23.442973
 30
0.0
 70
     8
  0
VERTEX
  5
33620
330
1A0F7
100
AcDbEntity
  8
TITLE_BLOCK
  6
CONTINUOUS
 62
     7
100
AcDbVertex
100
AcDb2dVertex
 10
-17.480767
 20
-23.357268
 30
0.0
 70
     8
  0
VERTEX
  5
33621
330
1A0F7
100
AcDbEntity
  8
TITLE_BLOCK
  6
CONTINUOUS
 62
     7
100
AcDbVertex
100
AcDb2dVertex
 10
-17.448456
 20
-23.272225
 30
0.0
 70
     8
  0
VERTEX
  5
33622
330
1A0F7
100
AcDbEntity
  8
TITLE_BLOCK
  6
CONTINUOUS
 62
     7
100
AcDbVertex
100
AcDb2dVertex
 10
-17.380755
 20
-23.10332
 30
0.0
 70
     8
  0
VERTEX
  5
33623
330
1A0F7
100
AcDbEntity
  8
TITLE_BLOCK
  6
CONTINUOUS
 62
     7
100
AcDbVertex
100
AcDb2dVertex
 10
-17.312455
 20
-22.934641
 30
0.0
 70
     8
  0
VERTEX
  5
33624
330
1A0F7
100
AcDbEntity
  8
TITLE_BLOCK
  6
CONTINUOUS
 62
     7
100
AcDbVertex
100
AcDb2dVertex
 10
-17.279393
 20
-22.849882
 30
0.0
 70
     8
  0
VERTEX
  5
33625
330
1A0F7
100
AcDbEntity
  8
TITLE_BLOCK
  6
CONTINUOUS
 62
     7
100
AcDbVertex
100
AcDb2dVertex
 10
-17.247757
 20
-22.764575
 30
0.0
 70
     8
  0
VERTEX
  5
33626
330
1A0F7
100
AcDbEntity
  8
TITLE_BLOCK
  6
CONTINUOUS
 62
     7
100
AcDbVertex
100
AcDb2dVertex
 10
-17.036976
 20
-22.764575
 30
0.0
 70
     8
  0
VERTEX
  5
33627
330
1A0F7
100
AcDbEntity
  8
TITLE_BLOCK
  6
CONTINUOUS
 62
     7
100
AcDbVertex
100
AcDb2dVertex
 10
-16.971359
 20
-22.935197
 30
0.0
 70
     8
  0
VERTEX
  5
33628
330
1A0F7
100
AcDbEntity
  8
TITLE_BLOCK
  6
CONTINUOUS
 62
     7
100
AcDbVertex
100
AcDb2dVertex
 10
-16.903827
 20
-23.105068
 30
0.0
 70
     8
  0
VERTEX
  5
33629
330
1A0F7
100
AcDbEntity
  8
TITLE_BLOCK
  6
CONTINUOUS
 62
     7
100
AcDbVertex
100
AcDb2dVertex
 10
-16.836668
 20
-23.275093
 30
0.0
 70
     8
  0
VERTEX
  5
3362A
330
1A0F7
100
AcDbEntity
  8
TITLE_BLOCK
  6
CONTINUOUS
 62
     7
100
AcDbVertex
100
AcDb2dVertex
 10
-16.772172
 20
-23.446176
 30
0.0
 70
     8
  0
VERTEX
  5
3362B
330
1A0F7
100
AcDbEntity
  8
TITLE_BLOCK
  6
CONTINUOUS
 62
     7
100
AcDbVertex
100
AcDb2dVertex
 10
-16.968148
 20
-23.442973
 30
0.0
 70
     8
  0
VERTEX
  5
3362C
330
1A0F7
100
AcDbEntity
  8
TITLE_BLOCK
  6
CONTINUOUS
 62
     7
100
AcDbVertex
100
AcDb2dVertex
 10
-17.006156
 20
-23.322973
 30
0.0
 70
     8
  0
VERTEX
  5
3362D
330
1A0F7
100
AcDbEntity
  8
TITLE_BLOCK
  6
CONTINUOUS
 62
     7
100
AcDbVertex
100
AcDb2dVertex
 10
-17.278148
 20
-23.324184
 30
0.0
 70
     8
  0
VERTEX
  5
3362E
330
1A0F7
100
AcDbEntity
  8
TITLE_BLOCK
  6
CONTINUOUS
 62
     7
100
AcDbVertex
100
AcDb2dVertex
 10
-17.317757
 20
-23.442973
 30
0.0
 70
     8
  0
VERTEX
  5
3362F
330
1A0F7
100
AcDbEntity
  8
TITLE_BLOCK
  6
CONTINUOUS
 62
     7
100
AcDbVertex
100
AcDb2dVertex
 10
-17.511351
 20
-23.442973
 30
0.0
 70
     8
  0
VERTEX
  5
33630
330
1A0F7
100
AcDbEntity
  8
TITLE_BLOCK
  6
CONTINUOUS
 62
     7
100
AcDbVertex
100
AcDb2dVertex
 10
-17.511351
 20
-23.442973
 30
0.0
 70
     8
  0
VERTEX
  5
33631
330
1A0F7
100
AcDbEntity
  8
TITLE_BLOCK
  6
CONTINUOUS
 62
     7
100
AcDbVertex
100
AcDb2dVertex
 10
-17.511351
 20
-23.442973
 30
0.0
 70
    16
  0
VERTEX
  5
33632
330
1A0F7
100
AcDbEntity
  8
TITLE_BLOCK
  6
CONTINUOUS
 62
     7
100
AcDbVertex
100
AcDb2dVertex
 10
-17.432562
 20
-23.213364
 30
0.0
 70
    16
  0
VERTEX
  5
33633
330
1A0F7
100
AcDbEntity
  8
TITLE_BLOCK
  6
CONTINUOUS
 62
     7
100
AcDbVertex
100
AcDb2dVertex
 10
-17.32975
 20
-22.992973
 30
0.0
 70
    16
  0
VERTEX
  5
33634
330
1A0F7
100
AcDbEntity
  8
TITLE_BLOCK
  6
CONTINUOUS
 62
     7
100
AcDbVertex
100
AcDb2dVertex
 10
-17.247757
 20
-22.764575
 30
0.0
 70
    16
  0
VERTEX
  5
33635
330
1A0F7
100
AcDbEntity
  8
TITLE_BLOCK
  6
CONTINUOUS
 62
     7
100
AcDbVertex
100
AcDb2dVertex
 10
-17.177757
 20
-22.764575
 30
0.0
 70
    16
  0
VERTEX
  5
33636
330
1A0F7
100
AcDbEntity
  8
TITLE_BLOCK
  6
CONTINUOUS
 62
     7
100
AcDbVertex
100
AcDb2dVertex
 10
-17.107367
 20
-22.764575
 30
0.0
 70
    16
  0
VERTEX
  5
33637
330
1A0F7
100
AcDbEntity
  8
TITLE_BLOCK
  6
CONTINUOUS
 62
     7
100
AcDbVertex
100
AcDb2dVertex
 10
-17.036976
 20
-22.764575
 30
0.0
 70
    16
  0
VERTEX
  5
33638
330
1A0F7
100
AcDbEntity
  8
TITLE_BLOCK
  6
CONTINUOUS
 62
     7
100
AcDbVertex
100
AcDb2dVertex
 10
-16.951781
 20
-22.992973
 30
0.0
 70
    16
  0
VERTEX
  5
33639
330
1A0F7
100
AcDbEntity
  8
TITLE_BLOCK
  6
CONTINUOUS
 62
     7
100
AcDbVertex
100
AcDb2dVertex
 10
-16.855375
 20
-23.216957
 30
0.0
 70
    16
  0
VERTEX
  5
3363A
330
1A0F7
100
AcDbEntity
  8
TITLE_BLOCK
  6
CONTINUOUS
 62
     7
100
AcDbVertex
100
AcDb2dVertex
 10
-16.772172
 20
-23.446176
 30
0.0
 70
    16
  0
VERTEX
  5
3363B
330
1A0F7
100
AcDbEntity
  8
TITLE_BLOCK
  6
CONTINUOUS
 62
     7
100
AcDbVertex
100
AcDb2dVertex
 10
-16.837367
 20
-23.445356
 30
0.0
 70
    16
  0
VERTEX
  5
3363C
330
1A0F7
100
AcDbEntity
  8
TITLE_BLOCK
  6
CONTINUOUS
 62
     7
100
AcDbVertex
100
AcDb2dVertex
 10
-16.902953
 20
-23.444184
 30
0.0
 70
    16
  0
VERTEX
  5
3363D
330
1A0F7
100
AcDbEntity
  8
TITLE_BLOCK
  6
CONTINUOUS
 62
     7
100
AcDbVertex
100
AcDb2dVertex
 10
-16.968148
 20
-23.442973
 30
0.0
 70
    16
  0
VERTEX
  5
3363E
330
1A0F7
100
AcDbEntity
  8
TITLE_BLOCK
  6
CONTINUOUS
 62
     7
100
AcDbVertex
100
AcDb2dVertex
 10
-16.98057
 20
-23.402582
 30
0.0
 70
    16
  0
VERTEX
  5
3363F
330
1A0F7
100
AcDbEntity
  8
TITLE_BLOCK
  6
CONTINUOUS
 62
     7
100
AcDbVertex
100
AcDb2dVertex
 10
-16.993343
 20
-23.362582
 30
0.0
 70
    16
  0
VERTEX
  5
33640
330
1A0F7
100
AcDbEntity
  8
TITLE_BLOCK
  6
CONTINUOUS
 62
     7
100
AcDbVertex
100
AcDb2dVertex
 10
-17.006156
 20
-23.322973
 30
0.0
 70
    16
  0
VERTEX
  5
33641
330
1A0F7
100
AcDbEntity
  8
TITLE_BLOCK
  6
CONTINUOUS
 62
     7
100
AcDbVertex
100
AcDb2dVertex
 10
-17.096976
 20
-23.323364
 30
0.0
 70
    16
  0
VERTEX
  5
33642
330
1A0F7
100
AcDbEntity
  8
TITLE_BLOCK
  6
CONTINUOUS
 62
     7
100
AcDbVertex
100
AcDb2dVertex
 10
-17.187757
 20
-23.324184
 30
0.0
 70
    16
  0
VERTEX
  5
33643
330
1A0F7
100
AcDbEntity
  8
TITLE_BLOCK
  6
CONTINUOUS
 62
     7
100
AcDbVertex
100
AcDb2dVertex
 10
-17.278148
 20
-23.324184
 30
0.0
 70
    16
  0
VERTEX
  5
33644
330
1A0F7
100
AcDbEntity
  8
TITLE_BLOCK
  6
CONTINUOUS
 62
     7
100
AcDbVertex
100
AcDb2dVertex
 10
-17.291781
 20
-23.363793
 30
0.0
 70
    16
  0
VERTEX
  5
33645
330
1A0F7
100
AcDbEntity
  8
TITLE_BLOCK
  6
CONTINUOUS
 62
     7
100
AcDbVertex
100
AcDb2dVertex
 10
-17.304945
 20
-23.403364
 30
0.0
 70
    16
  0
VERTEX
  5
33646
330
1A0F7
100
AcDbEntity
  8
TITLE_BLOCK
  6
CONTINUOUS
 62
     7
100
AcDbVertex
100
AcDb2dVertex
 10
-17.317757
 20
-23.442973
 30
0.0
 70
    16
  0
VERTEX
  5
33647
330
1A0F7
100
AcDbEntity
  8
TITLE_BLOCK
  6
CONTINUOUS
 62
     7
100
AcDbVertex
100
AcDb2dVertex
 10
-17.382562
 20
-23.443364
 30
0.0
 70
    16
  0
VERTEX
  5
33648
330
1A0F7
100
AcDbEntity
  8
TITLE_BLOCK
  6
CONTINUOUS
 62
     7
100
AcDbVertex
100
AcDb2dVertex
 10
-17.446976
 20
-23.443793
 30
0.0
 70
    16
  0
VERTEX
  5
33649
330
1A0F7
100
AcDbEntity
  8
TITLE_BLOCK
  6
CONTINUOUS
 62
     7
100
AcDbVertex
100
AcDb2dVertex
 10
-17.511351
 20
-23.442973
 30
0.0
 70
    16
  0
VERTEX
  5
3364A
330
1A0F7
100
AcDbEntity
  8
TITLE_BLOCK
  6
CONTINUOUS
 62
     7
100
AcDbVertex
100
AcDb2dVertex
 10
-17.511351
 20
-23.442973
 30
0.0
 70
    16
  0
VERTEX
  5
3364B
330
1A0F7
100
AcDbEntity
  8
TITLE_BLOCK
  6
CONTINUOUS
 62
     7
100
AcDbVertex
100
AcDb2dVertex
 10
-17.511351
 20
-23.442973
 30
0.0
 70
    16
  0
VERTEX
  5
3364C
330
1A0F7
100
AcDbEntity
  8
TITLE_BLOCK
  6
CONTINUOUS
 62
     7
100
AcDbVertex
100
AcDb2dVertex
 10
-17.511351
 20
-23.442973
 30
0.0
 70
    16
  0
SEQEND
  5
3364D
330
1A0F7
100
AcDbEntity
  8
TITLE_BLOCK
  6
CONTINUOUS
 62
     7
  0
POLYLINE
  5
1A126
330
33219
100
AcDbEntity
  8
TITLE_BLOCK
  6
CONTINUOUS
 62
     7
100
AcDb2dPolyline
 66
     1
 10
0.0
 20
0.0
 30
0.0
 70
     5
 75
     5
  0
VERTEX
  5
3364E
330
1A126
100
AcDbEntity
  8
TITLE_BLOCK
  6
CONTINUOUS
 62
     7
100
AcDbVertex
100
AcDb2dVertex
 10
-16.682172
 20
-22.762192
 30
0.0
 70
     8
  0
VERTEX
  5
3364F
330
1A126
100
AcDbEntity
  8
TITLE_BLOCK
  6
CONTINUOUS
 62
     7
100
AcDbVertex
100
AcDb2dVertex
 10
-16.483343
 20
-22.764575
 30
0.0
 70
     8
  0
VERTEX
  5
33650
330
1A126
100
AcDbEntity
  8
TITLE_BLOCK
  6
CONTINUOUS
 62
     7
100
AcDbVertex
100
AcDb2dVertex
 10
-16.481351
 20
-23.442582
 30
0.0
 70
     8
  0
VERTEX
  5
33651
330
1A126
100
AcDbEntity
  8
TITLE_BLOCK
  6
CONTINUOUS
 62
     7
100
AcDbVertex
100
AcDb2dVertex
 10
-16.681781
 20
-23.447387
 30
0.0
 70
     8
  0
VERTEX
  5
33652
330
1A126
100
AcDbEntity
  8
TITLE_BLOCK
  6
CONTINUOUS
 62
     7
100
AcDbVertex
100
AcDb2dVertex
 10
-16.682172
 20
-22.762192
 30
0.0
 70
     8
  0
VERTEX
  5
33653
330
1A126
100
AcDbEntity
  8
TITLE_BLOCK
  6
CONTINUOUS
 62
     7
100
AcDbVertex
100
AcDb2dVertex
 10
-16.682172
 20
-22.762192
 30
0.0
 70
     8
  0
VERTEX
  5
33654
330
1A126
100
AcDbEntity
  8
TITLE_BLOCK
  6
CONTINUOUS
 62
     7
100
AcDbVertex
100
AcDb2dVertex
 10
-16.682172
 20
-22.762192
 30
0.0
 70
    16
  0
VERTEX
  5
33655
330
1A126
100
AcDbEntity
  8
TITLE_BLOCK
  6
CONTINUOUS
 62
     7
100
AcDbVertex
100
AcDb2dVertex
 10
-16.616156
 20
-22.763364
 30
0.0
 70
    16
  0
VERTEX
  5
33656
330
1A126
100
AcDbEntity
  8
TITLE_BLOCK
  6
CONTINUOUS
 62
     7
100
AcDbVertex
100
AcDb2dVertex
 10
-16.54975
 20
-22.763793
 30
0.0
 70
    16
  0
VERTEX
  5
33657
330
1A126
100
AcDbEntity
  8
TITLE_BLOCK
  6
CONTINUOUS
 62
     7
100
AcDbVertex
100
AcDb2dVertex
 10
-16.483343
 20
-22.764575
 30
0.0
 70
    16
  0
VERTEX
  5
33658
330
1A126
100
AcDbEntity
  8
TITLE_BLOCK
  6
CONTINUOUS
 62
     7
100
AcDbVertex
100
AcDb2dVertex
 10
-16.48057
 20
-22.99059
 30
0.0
 70
    16
  0
VERTEX
  5
33659
330
1A126
100
AcDbEntity
  8
TITLE_BLOCK
  6
CONTINUOUS
 62
     7
100
AcDbVertex
100
AcDb2dVertex
 10
-16.484164
 20
-23.216567
 30
0.0
 70
    16
  0
VERTEX
  5
3365A
330
1A126
100
AcDbEntity
  8
TITLE_BLOCK
  6
CONTINUOUS
 62
     7
100
AcDbVertex
100
AcDb2dVertex
 10
-16.481351
 20
-23.442582
 30
0.0
 70
    16
  0
VERTEX
  5
3365B
330
1A126
100
AcDbEntity
  8
TITLE_BLOCK
  6
CONTINUOUS
 62
     7
100
AcDbVertex
100
AcDb2dVertex
 10
-16.548148
 20
-23.443793
 30
0.0
 70
    16
  0
VERTEX
  5
3365C
330
1A126
100
AcDbEntity
  8
TITLE_BLOCK
  6
CONTINUOUS
 62
     7
100
AcDbVertex
100
AcDb2dVertex
 10
-16.614945
 20
-23.445356
 30
0.0
 70
    16
  0
VERTEX
  5
3365D
330
1A126
100
AcDbEntity
  8
TITLE_BLOCK
  6
CONTINUOUS
 62
     7
100
AcDbVertex
100
AcDb2dVertex
 10
-16.681781
 20
-23.447387
 30
0.0
 70
    16
  0
VERTEX
  5
3365E
330
1A126
100
AcDbEntity
  8
TITLE_BLOCK
  6
CONTINUOUS
 62
     7
100
AcDbVertex
100
AcDb2dVertex
 10
-16.683343
 20
-23.218989
 30
0.0
 70
    16
  0
VERTEX
  5
3365F
330
1A126
100
AcDbEntity
  8
TITLE_BLOCK
  6
CONTINUOUS
 62
     7
100
AcDbVertex
100
AcDb2dVertex
 10
-16.680961
 20
-22.99059
 30
0.0
 70
    16
  0
VERTEX
  5
33660
330
1A126
100
AcDbEntity
  8
TITLE_BLOCK
  6
CONTINUOUS
 62
     7
100
AcDbVertex
100
AcDb2dVertex
 10
-16.682172
 20
-22.762192
 30
0.0
 70
    16
  0
VERTEX
  5
33661
330
1A126
100
AcDbEntity
  8
TITLE_BLOCK
  6
CONTINUOUS
 62
     7
100
AcDbVertex
100
AcDb2dVertex
 10
-16.682172
 20
-22.762192
 30
0.0
 70
    16
  0
VERTEX
  5
33662
330
1A126
100
AcDbEntity
  8
TITLE_BLOCK
  6
CONTINUOUS
 62
     7
100
AcDbVertex
100
AcDb2dVertex
 10
-16.682172
 20
-22.762192
 30
0.0
 70
    16
  0
VERTEX
  5
33663
330
1A126
100
AcDbEntity
  8
TITLE_BLOCK
  6
CONTINUOUS
 62
     7
100
AcDbVertex
100
AcDb2dVertex
 10
-16.682172
 20
-22.762192
 30
0.0
 70
    16
  0
SEQEND
  5
33664
330
1A126
100
AcDbEntity
  8
TITLE_BLOCK
  6
CONTINUOUS
 62
     7
  0
POLYLINE
  5
1A13D
330
33219
100
AcDbEntity
  8
TITLE_BLOCK
  6
CONTINUOUS
 62
     7
100
AcDb2dPolyline
 66
     1
 10
0.0
 20
0.0
 30
0.0
 70
     5
 75
     5
  0
VERTEX
  5
33665
330
1A13D
100
AcDbEntity
  8
TITLE_BLOCK
  6
CONTINUOUS
 62
     7
100
AcDbVertex
100
AcDb2dVertex
 10
-16.326156
 20
-22.758168
 30
0.0
 70
     8
  0
VERTEX
  5
33666
330
1A13D
100
AcDbEntity
  8
TITLE_BLOCK
  6
CONTINUOUS
 62
     7
100
AcDbVertex
100
AcDb2dVertex
 10
-16.286633
 20
-22.759739
 30
0.0
 70
     8
  0
VERTEX
  5
33667
330
1A13D
100
AcDbEntity
  8
TITLE_BLOCK
  6
CONTINUOUS
 62
     7
100
AcDbVertex
100
AcDb2dVertex
 10
-16.247303
 20
-22.763173
 30
0.0
 70
     8
  0
VERTEX
  5
33668
330
1A13D
100
AcDbEntity
  8
TITLE_BLOCK
  6
CONTINUOUS
 62
     7
100
AcDbVertex
100
AcDb2dVertex
 10
-16.208201
 20
-22.768402
 30
0.0
 70
     8
  0
VERTEX
  5
33669
330
1A13D
100
AcDbEntity
  8
TITLE_BLOCK
  6
CONTINUOUS
 62
     7
100
AcDbVertex
100
AcDb2dVertex
 10
-16.169359
 20
-22.775356
 30
0.0
 70
     8
  0
VERTEX
  5
3366A
330
1A13D
100
AcDbEntity
  8
TITLE_BLOCK
  6
CONTINUOUS
 62
     7
100
AcDbVertex
100
AcDb2dVertex
 10
-16.126673
 20
-22.829473
 30
0.0
 70
     8
  0
VERTEX
  5
3366B
330
1A13D
100
AcDbEntity
  8
TITLE_BLOCK
  6
CONTINUOUS
 62
     7
100
AcDbVertex
100
AcDb2dVertex
 10
-16.085788
 20
-22.884979
 30
0.0
 70
     8
  0
VERTEX
  5
3366C
330
1A13D
100
AcDbEntity
  8
TITLE_BLOCK
  6
CONTINUOUS
 62
     7
100
AcDbVertex
100
AcDb2dVertex
 10
-16.006869
 20
-22.998227
 30
0.0
 70
     8
  0
VERTEX
  5
3366D
330
1A13D
100
AcDbEntity
  8
TITLE_BLOCK
  6
CONTINUOUS
 62
     7
100
AcDbVertex
100
AcDb2dVertex
 10
-15.927495
 20
-23.111241
 30
0.0
 70
     8
  0
VERTEX
  5
3366E
330
1A13D
100
AcDbEntity
  8
TITLE_BLOCK
  6
CONTINUOUS
 62
     7
100
AcDbVertex
100
AcDb2dVertex
 10
-15.886043
 20
-23.166454
 30
0.0
 70
     8
  0
VERTEX
  5
3366F
330
1A13D
100
AcDbEntity
  8
TITLE_BLOCK
  6
CONTINUOUS
 62
     7
100
AcDbVertex
100
AcDb2dVertex
 10
-15.842562
 20
-23.220161
 30
0.0
 70
     8
  0
VERTEX
  5
33670
330
1A13D
100
AcDbEntity
  8
TITLE_BLOCK
  6
CONTINUOUS
 62
     7
100
AcDbVertex
100
AcDb2dVertex
 10
-15.843465
 20
-22.991977
 30
0.0
 70
     8
  0
VERTEX
  5
33671
330
1A13D
100
AcDbEntity
  8
TITLE_BLOCK
  6
CONTINUOUS
 62
     7
100
AcDbVertex
100
AcDb2dVertex
 10
-15.843458
 20
-22.877849
 30
0.0
 70
     8
  0
VERTEX
  5
33672
330
1A13D
100
AcDbEntity
  8
TITLE_BLOCK
  6
CONTINUOUS
 62
     7
100
AcDbVertex
100
AcDb2dVertex
 10
-15.841351
 20
-22.763793
 30
0.0
 70
     8
  0
VERTEX
  5
33673
330
1A13D
100
AcDbEntity
  8
TITLE_BLOCK
  6
CONTINUOUS
 62
     7
100
AcDbVertex
100
AcDb2dVertex
 10
-15.67975
 20
-22.766567
 30
0.0
 70
     8
  0
VERTEX
  5
33674
330
1A13D
100
AcDbEntity
  8
TITLE_BLOCK
  6
CONTINUOUS
 62
     7
100
AcDbVertex
100
AcDb2dVertex
 10
-15.682289
 20
-22.936005
 30
0.0
 70
     8
  0
VERTEX
  5
33675
330
1A13D
100
AcDbEntity
  8
TITLE_BLOCK
  6
CONTINUOUS
 62
     7
100
AcDbVertex
100
AcDb2dVertex
 10
-15.682953
 20
-23.105327
 30
0.0
 70
     8
  0
VERTEX
  5
33676
330
1A13D
100
AcDbEntity
  8
TITLE_BLOCK
  6
CONTINUOUS
 62
     7
100
AcDbVertex
100
AcDb2dVertex
 10
-15.680179
 20
-23.443793
 30
0.0
 70
     8
  0
VERTEX
  5
33677
330
1A13D
100
AcDbEntity
  8
TITLE_BLOCK
  6
CONTINUOUS
 62
     7
100
AcDbVertex
100
AcDb2dVertex
 10
-15.835375
 20
-23.444965
 30
0.0
 70
     8
  0
VERTEX
  5
33678
330
1A13D
100
AcDbEntity
  8
TITLE_BLOCK
  6
CONTINUOUS
 62
     7
100
AcDbVertex
100
AcDb2dVertex
 10
-15.994823
 20
-23.214521
 30
0.0
 70
     8
  0
VERTEX
  5
33679
330
1A13D
100
AcDbEntity
  8
TITLE_BLOCK
  6
CONTINUOUS
 62
     7
100
AcDbVertex
100
AcDb2dVertex
 10
-16.075728
 20
-23.100099
 30
0.0
 70
     8
  0
VERTEX
  5
3367A
330
1A13D
100
AcDbEntity
  8
TITLE_BLOCK
  6
CONTINUOUS
 62
     7
100
AcDbVertex
100
AcDb2dVertex
 10
-16.117509
 20
-23.043859
 30
0.0
 70
     8
  0
VERTEX
  5
3367B
330
1A13D
100
AcDbEntity
  8
TITLE_BLOCK
  6
CONTINUOUS
 62
     7
100
AcDbVertex
100
AcDb2dVertex
 10
-16.16057
 20
-22.988559
 30
0.0
 70
     8
  0
VERTEX
  5
3367C
330
1A13D
100
AcDbEntity
  8
TITLE_BLOCK
  6
CONTINUOUS
 62
     7
100
AcDbVertex
100
AcDb2dVertex
 10
-16.162572
 20
-23.214575
 30
0.0
 70
     8
  0
VERTEX
  5
3367D
330
1A13D
100
AcDbEntity
  8
TITLE_BLOCK
  6
CONTINUOUS
 62
     7
100
AcDbVertex
100
AcDb2dVertex
 10
-16.163343
 20
-23.44059
 30
0.0
 70
     8
  0
VERTEX
  5
3367E
330
1A13D
100
AcDbEntity
  8
TITLE_BLOCK
  6
CONTINUOUS
 62
     7
100
AcDbVertex
100
AcDb2dVertex
 10
-16.320961
 20
-23.448559
 30
0.0
 70
     8
  0
VERTEX
  5
3367F
330
1A13D
100
AcDbEntity
  8
TITLE_BLOCK
  6
CONTINUOUS
 62
     7
100
AcDbVertex
100
AcDb2dVertex
 10
-16.322569
 20
-23.275833
 30
0.0
 70
     8
  0
VERTEX
  5
33680
330
1A13D
100
AcDbEntity
  8
TITLE_BLOCK
  6
CONTINUOUS
 62
     7
100
AcDbVertex
100
AcDb2dVertex
 10
-16.322372
 20
-23.103217
 30
0.0
 70
     8
  0
VERTEX
  5
33681
330
1A13D
100
AcDbEntity
  8
TITLE_BLOCK
  6
CONTINUOUS
 62
     7
100
AcDbVertex
100
AcDb2dVertex
 10
-16.322768
 20
-22.930675
 30
0.0
 70
     8
  0
VERTEX
  5
33682
330
1A13D
100
AcDbEntity
  8
TITLE_BLOCK
  6
CONTINUOUS
 62
     7
100
AcDbVertex
100
AcDb2dVertex
 10
-16.326156
 20
-22.758168
 30
0.0
 70
     8
  0
VERTEX
  5
33683
330
1A13D
100
AcDbEntity
  8
TITLE_BLOCK
  6
CONTINUOUS
 62
     7
100
AcDbVertex
100
AcDb2dVertex
 10
-16.326156
 20
-22.758168
 30
0.0
 70
     8
  0
VERTEX
  5
33684
330
1A13D
100
AcDbEntity
  8
TITLE_BLOCK
  6
CONTINUOUS
 62
     7
100
AcDbVertex
100
AcDb2dVertex
 10
-16.326156
 20
-22.758168
 30
0.0
 70
    16
  0
VERTEX
  5
33685
330
1A13D
100
AcDbEntity
  8
TITLE_BLOCK
  6
CONTINUOUS
 62
     7
100
AcDbVertex
100
AcDb2dVertex
 10
-16.273343
 20
-22.758989
 30
0.0
 70
    16
  0
VERTEX
  5
33686
330
1A13D
100
AcDbEntity
  8
TITLE_BLOCK
  6
CONTINUOUS
 62
     7
100
AcDbVertex
100
AcDb2dVertex
 10
-16.220961
 20
-22.764965
 30
0.0
 70
    16
  0
VERTEX
  5
33687
330
1A13D
100
AcDbEntity
  8
TITLE_BLOCK
  6
CONTINUOUS
 62
     7
100
AcDbVertex
100
AcDb2dVertex
 10
-16.169359
 20
-22.775356
 30
0.0
 70
    16
  0
VERTEX
  5
33688
330
1A13D
100
AcDbEntity
  8
TITLE_BLOCK
  6
CONTINUOUS
 62
     7
100
AcDbVertex
100
AcDb2dVertex
 10
-16.052562
 20
-22.917387
 30
0.0
 70
    16
  0
VERTEX
  5
33689
330
1A13D
100
AcDbEntity
  8
TITLE_BLOCK
  6
CONTINUOUS
 62
     7
100
AcDbVertex
100
AcDb2dVertex
 10
-15.961781
 20
-23.079379
 30
0.0
 70
    16
  0
VERTEX
  5
3368A
330
1A13D
100
AcDbEntity
  8
TITLE_BLOCK
  6
CONTINUOUS
 62
     7
100
AcDbVertex
100
AcDb2dVertex
 10
-15.842562
 20
-23.220161
 30
0.0
 70
    16
  0
VERTEX
  5
3368B
330
1A13D
100
AcDbEntity
  8
TITLE_BLOCK
  6
CONTINUOUS
 62
     7
100
AcDbVertex
100
AcDb2dVertex
 10
-15.841781
 20
-23.068168
 30
0.0
 70
    16
  0
VERTEX
  5
3368C
330
1A13D
100
AcDbEntity
  8
TITLE_BLOCK
  6
CONTINUOUS
 62
     7
100
AcDbVertex
100
AcDb2dVertex
 10
-15.846156
 20
-22.915786
 30
0.0
 70
    16
  0
VERTEX
  5
3368D
330
1A13D
100
AcDbEntity
  8
TITLE_BLOCK
  6
CONTINUOUS
 62
     7
100
AcDbVertex
100
AcDb2dVertex
 10
-15.841351
 20
-22.763793
 30
0.0
 70
    16
  0
VERTEX
  5
3368E
330
1A13D
100
AcDbEntity
  8
TITLE_BLOCK
  6
CONTINUOUS
 62
     7
100
AcDbVertex
100
AcDb2dVertex
 10
-15.787367
 20
-22.764965
 30
0.0
 70
    16
  0
VERTEX
  5
3368F
330
1A13D
100
AcDbEntity
  8
TITLE_BLOCK
  6
CONTINUOUS
 62
     7
100
AcDbVertex
100
AcDb2dVertex
 10
-15.733773
 20
-22.765786
 30
0.0
 70
    16
  0
VERTEX
  5
33690
330
1A13D
100
AcDbEntity
  8
TITLE_BLOCK
  6
CONTINUOUS
 62
     7
100
AcDbVertex
100
AcDb2dVertex
 10
-15.67975
 20
-22.766567
 30
0.0
 70
    16
  0
VERTEX
  5
33691
330
1A13D
100
AcDbEntity
  8
TITLE_BLOCK
  6
CONTINUOUS
 62
     7
100
AcDbVertex
100
AcDb2dVertex
 10
-15.684554
 20
-22.992582
 30
0.0
 70
    16
  0
VERTEX
  5
33692
330
1A13D
100
AcDbEntity
  8
TITLE_BLOCK
  6
CONTINUOUS
 62
     7
100
AcDbVertex
100
AcDb2dVertex
 10
-15.683343
 20
-23.218168
 30
0.0
 70
    16
  0
VERTEX
  5
33693
330
1A13D
100
AcDbEntity
  8
TITLE_BLOCK
  6
CONTINUOUS
 62
     7
100
AcDbVertex
100
AcDb2dVertex
 10
-15.680179
 20
-23.443793
 30
0.0
 70
    16
  0
VERTEX
  5
33694
330
1A13D
100
AcDbEntity
  8
TITLE_BLOCK
  6
CONTINUOUS
 62
     7
100
AcDbVertex
100
AcDb2dVertex
 10
-15.732172
 20
-23.444184
 30
0.0
 70
    16
  0
VERTEX
  5
33695
330
1A13D
100
AcDbEntity
  8
TITLE_BLOCK
  6
CONTINUOUS
 62
     7
100
AcDbVertex
100
AcDb2dVertex
 10
-15.783773
 20
-23.444575
 30
0.0
 70
    16
  0
VERTEX
  5
33696
330
1A13D
100
AcDbEntity
  8
TITLE_BLOCK
  6
CONTINUOUS
 62
     7
100
AcDbVertex
100
AcDb2dVertex
 10
-15.835375
 20
-23.444965
 30
0.0
 70
    16
  0
VERTEX
  5
33697
330
1A13D
100
AcDbEntity
  8
TITLE_BLOCK
  6
CONTINUOUS
 62
     7
100
AcDbVertex
100
AcDb2dVertex
 10
-15.943773
 20
-23.292973
 30
0.0
 70
    16
  0
VERTEX
  5
33698
330
1A13D
100
AcDbEntity
  8
TITLE_BLOCK
  6
CONTINUOUS
 62
     7
100
AcDbVertex
100
AcDb2dVertex
 10
-16.043773
 20
-23.134575
 30
0.0
 70
    16
  0
VERTEX
  5
33699
330
1A13D
100
AcDbEntity
  8
TITLE_BLOCK
  6
CONTINUOUS
 62
     7
100
AcDbVertex
100
AcDb2dVertex
 10
-16.16057
 20
-22.988559
 30
0.0
 70
    16
  0
VERTEX
  5
3369A
330
1A13D
100
AcDbEntity
  8
TITLE_BLOCK
  6
CONTINUOUS
 62
     7
100
AcDbVertex
100
AcDb2dVertex
 10
-16.163773
 20
-23.139379
 30
0.0
 70
    16
  0
VERTEX
  5
3369B
330
1A13D
100
AcDbEntity
  8
TITLE_BLOCK
  6
CONTINUOUS
 62
     7
100
AcDbVertex
100
AcDb2dVertex
 10
-16.161781
 20
-23.28977
 30
0.0
 70
    16
  0
VERTEX
  5
3369C
330
1A13D
100
AcDbEntity
  8
TITLE_BLOCK
  6
CONTINUOUS
 62
     7
100
AcDbVertex
100
AcDb2dVertex
 10
-16.163343
 20
-23.44059
 30
0.0
 70
    16
  0
VERTEX
  5
3369D
330
1A13D
100
AcDbEntity
  8
TITLE_BLOCK
  6
CONTINUOUS
 62
     7
100
AcDbVertex
100
AcDb2dVertex
 10
-16.216156
 20
-23.443364
 30
0.0
 70
    16
  0
VERTEX
  5
3369E
330
1A13D
100
AcDbEntity
  8
TITLE_BLOCK
  6
CONTINUOUS
 62
     7
100
AcDbVertex
100
AcDb2dVertex
 10
-16.268578
 20
-23.445786
 30
0.0
 70
    16
  0
VERTEX
  5
3369F
330
1A13D
100
AcDbEntity
  8
TITLE_BLOCK
  6
CONTINUOUS
 62
     7
100
AcDbVertex
100
AcDb2dVertex
 10
-16.320961
 20
-23.448559
 30
0.0
 70
    16
  0
VERTEX
  5
336A0
330
1A13D
100
AcDbEntity
  8
TITLE_BLOCK
  6
CONTINUOUS
 62
     7
100
AcDbVertex
100
AcDb2dVertex
 10
-16.325375
 20
-23.218168
 30
0.0
 70
    16
  0
VERTEX
  5
336A1
330
1A13D
100
AcDbEntity
  8
TITLE_BLOCK
  6
CONTINUOUS
 62
     7
100
AcDbVertex
100
AcDb2dVertex
 10
-16.318578
 20
-22.988168
 30
0.0
 70
    16
  0
VERTEX
  5
336A2
330
1A13D
100
AcDbEntity
  8
TITLE_BLOCK
  6
CONTINUOUS
 62
     7
100
AcDbVertex
100
AcDb2dVertex
 10
-16.326156
 20
-22.758168
 30
0.0
 70
    16
  0
VERTEX
  5
336A3
330
1A13D
100
AcDbEntity
  8
TITLE_BLOCK
  6
CONTINUOUS
 62
     7
100
AcDbVertex
100
AcDb2dVertex
 10
-16.326156
 20
-22.758168
 30
0.0
 70
    16
  0
VERTEX
  5
336A4
330
1A13D
100
AcDbEntity
  8
TITLE_BLOCK
  6
CONTINUOUS
 62
     7
100
AcDbVertex
100
AcDb2dVertex
 10
-16.326156
 20
-22.758168
 30
0.0
 70
    16
  0
VERTEX
  5
336A5
330
1A13D
100
AcDbEntity
  8
TITLE_BLOCK
  6
CONTINUOUS
 62
     7
100
AcDbVertex
100
AcDb2dVertex
 10
-16.326156
 20
-22.758168
 30
0.0
 70
    16
  0
SEQEND
  5
336A6
330
1A13D
100
AcDbEntity
  8
TITLE_BLOCK
  6
CONTINUOUS
 62
     7
  0
POLYLINE
  5
1A17F
330
33219
100
AcDbEntity
  8
TITLE_BLOCK
  6
CONTINUOUS
 62
     7
100
AcDb2dPolyline
 66
     1
 10
0.0
 20
0.0
 30
0.0
 70
     5
 75
     5
  0
VERTEX
  5
336A7
330
1A17F
100
AcDbEntity
  8
TITLE_BLOCK
  6
CONTINUOUS
 62
     7
100
AcDbVertex
100
AcDb2dVertex
 10
-15.523343
 20
-22.765356
 30
0.0
 70
     8
  0
VERTEX
  5
336A8
330
1A17F
100
AcDbEntity
  8
TITLE_BLOCK
  6
CONTINUOUS
 62
     7
100
AcDbVertex
100
AcDb2dVertex
 10
-15.324164
 20
-22.762973
 30
0.0
 70
     8
  0
VERTEX
  5
336A9
330
1A17F
100
AcDbEntity
  8
TITLE_BLOCK
  6
CONTINUOUS
 62
     7
100
AcDbVertex
100
AcDb2dVertex
 10
-15.321112
 20
-23.023417
 30
0.0
 70
     8
  0
VERTEX
  5
336AA
330
1A17F
100
AcDbEntity
  8
TITLE_BLOCK
  6
CONTINUOUS
 62
     7
100
AcDbVertex
100
AcDb2dVertex
 10
-15.321631
 20
-23.15374
 30
0.0
 70
     8
  0
VERTEX
  5
336AB
330
1A17F
100
AcDbEntity
  8
TITLE_BLOCK
  6
CONTINUOUS
 62
     7
100
AcDbVertex
100
AcDb2dVertex
 10
-15.323773
 20
-23.284184
 30
0.0
 70
     8
  0
VERTEX
  5
336AC
330
1A17F
100
AcDbEntity
  8
TITLE_BLOCK
  6
CONTINUOUS
 62
     7
100
AcDbVertex
100
AcDb2dVertex
 10
-15.002953
 20
-23.285786
 30
0.0
 70
     8
  0
VERTEX
  5
336AD
330
1A17F
100
AcDbEntity
  8
TITLE_BLOCK
  6
CONTINUOUS
 62
     7
100
AcDbVertex
100
AcDb2dVertex
 10
-15.003773
 20
-23.442973
 30
0.0
 70
     8
  0
VERTEX
  5
336AE
330
1A17F
100
AcDbEntity
  8
TITLE_BLOCK
  6
CONTINUOUS
 62
     7
100
AcDbVertex
100
AcDb2dVertex
 10
-15.264769
 20
-23.444829
 30
0.0
 70
     8
  0
VERTEX
  5
336AF
330
1A17F
100
AcDbEntity
  8
TITLE_BLOCK
  6
CONTINUOUS
 62
     7
100
AcDbVertex
100
AcDb2dVertex
 10
-15.525765
 20
-23.444575
 30
0.0
 70
     8
  0
VERTEX
  5
336B0
330
1A17F
100
AcDbEntity
  8
TITLE_BLOCK
  6
CONTINUOUS
 62
     7
100
AcDbVertex
100
AcDb2dVertex
 10
-15.522695
 20
-23.27477
 30
0.0
 70
     8
  0
VERTEX
  5
336B1
330
1A17F
100
AcDbEntity
  8
TITLE_BLOCK
  6
CONTINUOUS
 62
     7
100
AcDbVertex
100
AcDb2dVertex
 10
-15.522767
 20
-23.104965
 30
0.0
 70
     8
  0
VERTEX
  5
336B2
330
1A17F
100
AcDbEntity
  8
TITLE_BLOCK
  6
CONTINUOUS
 62
     7
100
AcDbVertex
100
AcDb2dVertex
 10
-15.523343
 20
-22.765356
 30
0.0
 70
     8
  0
VERTEX
  5
336B3
330
1A17F
100
AcDbEntity
  8
TITLE_BLOCK
  6
CONTINUOUS
 62
     7
100
AcDbVertex
100
AcDb2dVertex
 10
-15.523343
 20
-22.765356
 30
0.0
 70
     8
  0
VERTEX
  5
336B4
330
1A17F
100
AcDbEntity
  8
TITLE_BLOCK
  6
CONTINUOUS
 62
     7
100
AcDbVertex
100
AcDb2dVertex
 10
-15.523343
 20
-22.765356
 30
0.0
 70
    16
  0
VERTEX
  5
336B5
330
1A17F
100
AcDbEntity
  8
TITLE_BLOCK
  6
CONTINUOUS
 62
     7
100
AcDbVertex
100
AcDb2dVertex
 10
-15.456976
 20
-22.764575
 30
0.0
 70
    16
  0
VERTEX
  5
336B6
330
1A17F
100
AcDbEntity
  8
TITLE_BLOCK
  6
CONTINUOUS
 62
     7
100
AcDbVertex
100
AcDb2dVertex
 10
-15.39057
 20
-22.763793
 30
0.0
 70
    16
  0
VERTEX
  5
336B7
330
1A17F
100
AcDbEntity
  8
TITLE_BLOCK
  6
CONTINUOUS
 62
     7
100
AcDbVertex
100
AcDb2dVertex
 10
-15.324164
 20
-22.762973
 30
0.0
 70
    16
  0
VERTEX
  5
336B8
330
1A17F
100
AcDbEntity
  8
TITLE_BLOCK
  6
CONTINUOUS
 62
     7
100
AcDbVertex
100
AcDb2dVertex
 10
-15.32057
 20
-22.936567
 30
0.0
 70
    16
  0
VERTEX
  5
336B9
330
1A17F
100
AcDbEntity
  8
TITLE_BLOCK
  6
CONTINUOUS
 62
     7
100
AcDbVertex
100
AcDb2dVertex
 10
-15.31975
 20
-23.110161
 30
0.0
 70
    16
  0
VERTEX
  5
336BA
330
1A17F
100
AcDbEntity
  8
TITLE_BLOCK
  6
CONTINUOUS
 62
     7
100
AcDbVertex
100
AcDb2dVertex
 10
-15.323773
 20
-23.284184
 30
0.0
 70
    16
  0
VERTEX
  5
336BB
330
1A17F
100
AcDbEntity
  8
TITLE_BLOCK
  6
CONTINUOUS
 62
     7
100
AcDbVertex
100
AcDb2dVertex
 10
-15.216976
 20
-23.284965
 30
0.0
 70
    16
  0
VERTEX
  5
336BC
330
1A17F
100
AcDbEntity
  8
TITLE_BLOCK
  6
CONTINUOUS
 62
     7
100
AcDbVertex
100
AcDb2dVertex
 10
-15.110179
 20
-23.284965
 30
0.0
 70
    16
  0
VERTEX
  5
336BD
330
1A17F
100
AcDbEntity
  8
TITLE_BLOCK
  6
CONTINUOUS
 62
     7
100
AcDbVertex
100
AcDb2dVertex
 10
-15.002953
 20
-23.285786
 30
0.0
 70
    16
  0
VERTEX
  5
336BE
330
1A17F
100
AcDbEntity
  8
TITLE_BLOCK
  6
CONTINUOUS
 62
     7
100
AcDbVertex
100
AcDb2dVertex
 10
-15.003343
 20
-23.338168
 30
0.0
 70
    16
  0
VERTEX
  5
336BF
330
1A17F
100
AcDbEntity
  8
TITLE_BLOCK
  6
CONTINUOUS
 62
     7
100
AcDbVertex
100
AcDb2dVertex
 10
-15.003773
 20
-23.39059
 30
0.0
 70
    16
  0
VERTEX
  5
336C0
330
1A17F
100
AcDbEntity
  8
TITLE_BLOCK
  6
CONTINUOUS
 62
     7
100
AcDbVertex
100
AcDb2dVertex
 10
-15.003773
 20
-23.442973
 30
0.0
 70
    16
  0
VERTEX
  5
336C1
330
1A17F
100
AcDbEntity
  8
TITLE_BLOCK
  6
CONTINUOUS
 62
     7
100
AcDbVertex
100
AcDb2dVertex
 10
-15.177757
 20
-23.446176
 30
0.0
 70
    16
  0
VERTEX
  5
336C2
330
1A17F
100
AcDbEntity
  8
TITLE_BLOCK
  6
CONTINUOUS
 62
     7
100
AcDbVertex
100
AcDb2dVertex
 10
-15.351781
 20
-23.444184
 30
0.0
 70
    16
  0
VERTEX
  5
336C3
330
1A17F
100
AcDbEntity
  8
TITLE_BLOCK
  6
CONTINUOUS
 62
     7
100
AcDbVertex
100
AcDb2dVertex
 10
-15.525765
 20
-23.444575
 30
0.0
 70
    16
  0
VERTEX
  5
336C4
330
1A17F
100
AcDbEntity
  8
TITLE_BLOCK
  6
CONTINUOUS
 62
     7
100
AcDbVertex
100
AcDb2dVertex
 10
-15.518578
 20
-23.218168
 30
0.0
 70
    16
  0
VERTEX
  5
336C5
330
1A17F
100
AcDbEntity
  8
TITLE_BLOCK
  6
CONTINUOUS
 62
     7
100
AcDbVertex
100
AcDb2dVertex
 10
-15.525765
 20
-22.991762
 30
0.0
 70
    16
  0
VERTEX
  5
336C6
330
1A17F
100
AcDbEntity
  8
TITLE_BLOCK
  6
CONTINUOUS
 62
     7
100
AcDbVertex
100
AcDb2dVertex
 10
-15.523343
 20
-22.765356
 30
0.0
 70
    16
  0
VERTEX
  5
336C7
330
1A17F
100
AcDbEntity
  8
TITLE_BLOCK
  6
CONTINUOUS
 62
     7
100
AcDbVertex
100
AcDb2dVertex
 10
-15.523343
 20
-22.765356
 30
0.0
 70
    16
  0
VERTEX
  5
336C8
330
1A17F
100
AcDbEntity
  8
TITLE_BLOCK
  6
CONTINUOUS
 62
     7
100
AcDbVertex
100
AcDb2dVertex
 10
-15.523343
 20
-22.765356
 30
0.0
 70
    16
  0
VERTEX
  5
336C9
330
1A17F
100
AcDbEntity
  8
TITLE_BLOCK
  6
CONTINUOUS
 62
     7
100
AcDbVertex
100
AcDb2dVertex
 10
-15.523343
 20
-22.765356
 30
0.0
 70
    16
  0
SEQEND
  5
336CA
330
1A17F
100
AcDbEntity
  8
TITLE_BLOCK
  6
CONTINUOUS
 62
     7
  0
POLYLINE
  5
1A1A3
330
33219
100
AcDbEntity
  8
TITLE_BLOCK
  6
CONTINUOUS
 62
     7
100
AcDb2dPolyline
 66
     1
 10
0.0
 20
0.0
 30
0.0
 70
     5
 75
     5
  0
VERTEX
  5
336CB
330
1A1A3
100
AcDbEntity
  8
TITLE_BLOCK
  6
CONTINUOUS
 62
     7
100
AcDbVertex
100
AcDb2dVertex
 10
-14.885375
 20
-22.762582
 30
0.0
 70
     8
  0
VERTEX
  5
336CC
330
1A1A3
100
AcDbEntity
  8
TITLE_BLOCK
  6
CONTINUOUS
 62
     7
100
AcDbVertex
100
AcDb2dVertex
 10
-14.744308
 20
-22.764799
 30
0.0
 70
     8
  0
VERTEX
  5
336CD
330
1A1A3
100
AcDbEntity
  8
TITLE_BLOCK
  6
CONTINUOUS
 62
     7
100
AcDbVertex
100
AcDb2dVertex
 10
-14.603168
 20
-22.76499
 30
0.0
 70
     8
  0
VERTEX
  5
336CE
330
1A1A3
100
AcDbEntity
  8
TITLE_BLOCK
  6
CONTINUOUS
 62
     7
100
AcDbVertex
100
AcDb2dVertex
 10
-14.320961
 20
-22.763793
 30
0.0
 70
     8
  0
VERTEX
  5
336CF
330
1A1A3
100
AcDbEntity
  8
TITLE_BLOCK
  6
CONTINUOUS
 62
     7
100
AcDbVertex
100
AcDb2dVertex
 10
-14.321781
 20
-22.925356
 30
0.0
 70
     8
  0
VERTEX
  5
336D0
330
1A1A3
100
AcDbEntity
  8
TITLE_BLOCK
  6
CONTINUOUS
 62
     7
100
AcDbVertex
100
AcDb2dVertex
 10
-14.501161
 20
-22.923422
 30
0.0
 70
     8
  0
VERTEX
  5
336D1
330
1A1A3
100
AcDbEntity
  8
TITLE_BLOCK
  6
CONTINUOUS
 62
     7
100
AcDbVertex
100
AcDb2dVertex
 10
-14.68057
 20
-22.924184
 30
0.0
 70
     8
  0
VERTEX
  5
336D2
330
1A1A3
100
AcDbEntity
  8
TITLE_BLOCK
  6
CONTINUOUS
 62
     7
100
AcDbVertex
100
AcDb2dVertex
 10
-14.682953
 20
-23.004575
 30
0.0
 70
     8
  0
VERTEX
  5
336D3
330
1A1A3
100
AcDbEntity
  8
TITLE_BLOCK
  6
CONTINUOUS
 62
     7
100
AcDbVertex
100
AcDb2dVertex
 10
-14.363773
 20
-23.002973
 30
0.0
 70
     8
  0
VERTEX
  5
336D4
330
1A1A3
100
AcDbEntity
  8
TITLE_BLOCK
  6
CONTINUOUS
 62
     7
100
AcDbVertex
100
AcDb2dVertex
 10
-14.363343
 20
-23.166176
 30
0.0
 70
     8
  0
VERTEX
  5
336D5
330
1A1A3
100
AcDbEntity
  8
TITLE_BLOCK
  6
CONTINUOUS
 62
     7
100
AcDbVertex
100
AcDb2dVertex
 10
-14.682953
 20
-23.164965
 30
0.0
 70
     8
  0
VERTEX
  5
336D6
330
1A1A3
100
AcDbEntity
  8
TITLE_BLOCK
  6
CONTINUOUS
 62
     7
100
AcDbVertex
100
AcDb2dVertex
 10
-14.682953
 20
-23.286567
 30
0.0
 70
     8
  0
VERTEX
  5
336D7
330
1A1A3
100
AcDbEntity
  8
TITLE_BLOCK
  6
CONTINUOUS
 62
     7
100
AcDbVertex
100
AcDb2dVertex
 10
-14.502167
 20
-23.284072
 30
0.0
 70
     8
  0
VERTEX
  5
336D8
330
1A1A3
100
AcDbEntity
  8
TITLE_BLOCK
  6
CONTINUOUS
 62
     7
100
AcDbVertex
100
AcDb2dVertex
 10
-14.321351
 20
-23.283364
 30
0.0
 70
     8
  0
VERTEX
  5
336D9
330
1A1A3
100
AcDbEntity
  8
TITLE_BLOCK
  6
CONTINUOUS
 62
     7
100
AcDbVertex
100
AcDb2dVertex
 10
-14.326156
 20
-23.447387
 30
0.0
 70
     8
  0
VERTEX
  5
336DA
330
1A1A3
100
AcDbEntity
  8
TITLE_BLOCK
  6
CONTINUOUS
 62
     7
100
AcDbVertex
100
AcDb2dVertex
 10
-14.46482
 20
-23.445079
 30
0.0
 70
     8
  0
VERTEX
  5
336DB
330
1A1A3
100
AcDbEntity
  8
TITLE_BLOCK
  6
CONTINUOUS
 62
     7
100
AcDbVertex
100
AcDb2dVertex
 10
-14.603558
 20
-23.444536
 30
0.0
 70
     8
  0
VERTEX
  5
336DC
330
1A1A3
100
AcDbEntity
  8
TITLE_BLOCK
  6
CONTINUOUS
 62
     7
100
AcDbVertex
100
AcDb2dVertex
 10
-14.880961
 20
-23.443793
 30
0.0
 70
     8
  0
VERTEX
  5
336DD
330
1A1A3
100
AcDbEntity
  8
TITLE_BLOCK
  6
CONTINUOUS
 62
     7
100
AcDbVertex
100
AcDb2dVertex
 10
-14.882826
 20
-23.273441
 30
0.0
 70
     8
  0
VERTEX
  5
336DE
330
1A1A3
100
AcDbEntity
  8
TITLE_BLOCK
  6
CONTINUOUS
 62
     7
100
AcDbVertex
100
AcDb2dVertex
 10
-14.883314
 20
-23.103173
 30
0.0
 70
     8
  0
VERTEX
  5
336DF
330
1A1A3
100
AcDbEntity
  8
TITLE_BLOCK
  6
CONTINUOUS
 62
     7
100
AcDbVertex
100
AcDb2dVertex
 10
-14.885375
 20
-22.762582
 30
0.0
 70
     8
  0
VERTEX
  5
336E0
330
1A1A3
100
AcDbEntity
  8
TITLE_BLOCK
  6
CONTINUOUS
 62
     7
100
AcDbVertex
100
AcDb2dVertex
 10
-14.885375
 20
-22.762582
 30
0.0
 70
     8
  0
VERTEX
  5
336E1
330
1A1A3
100
AcDbEntity
  8
TITLE_BLOCK
  6
CONTINUOUS
 62
     7
100
AcDbVertex
100
AcDb2dVertex
 10
-14.885375
 20
-22.762582
 30
0.0
 70
    16
  0
VERTEX
  5
336E2
330
1A1A3
100
AcDbEntity
  8
TITLE_BLOCK
  6
CONTINUOUS
 62
     7
100
AcDbVertex
100
AcDb2dVertex
 10
-14.697367
 20
-22.767387
 30
0.0
 70
    16
  0
VERTEX
  5
336E3
330
1A1A3
100
AcDbEntity
  8
TITLE_BLOCK
  6
CONTINUOUS
 62
     7
100
AcDbVertex
100
AcDb2dVertex
 10
-14.508968
 20
-22.763793
 30
0.0
 70
    16
  0
VERTEX
  5
336E4
330
1A1A3
100
AcDbEntity
  8
TITLE_BLOCK
  6
CONTINUOUS
 62
     7
100
AcDbVertex
100
AcDb2dVertex
 10
-14.320961
 20
-22.763793
 30
0.0
 70
    16
  0
VERTEX
  5
336E5
330
1A1A3
100
AcDbEntity
  8
TITLE_BLOCK
  6
CONTINUOUS
 62
     7
100
AcDbVertex
100
AcDb2dVertex
 10
-14.320961
 20
-22.817387
 30
0.0
 70
    16
  0
VERTEX
  5
336E6
330
1A1A3
100
AcDbEntity
  8
TITLE_BLOCK
  6
CONTINUOUS
 62
     7
100
AcDbVertex
100
AcDb2dVertex
 10
-14.321351
 20
-22.871372
 30
0.0
 70
    16
  0
VERTEX
  5
336E7
330
1A1A3
100
AcDbEntity
  8
TITLE_BLOCK
  6
CONTINUOUS
 62
     7
100
AcDbVertex
100
AcDb2dVertex
 10
-14.321781
 20
-22.925356
 30
0.0
 70
    16
  0
VERTEX
  5
336E8
330
1A1A3
100
AcDbEntity
  8
TITLE_BLOCK
  6
CONTINUOUS
 62
     7
100
AcDbVertex
100
AcDb2dVertex
 10
-14.441351
 20
-22.922973
 30
0.0
 70
    16
  0
VERTEX
  5
336E9
330
1A1A3
100
AcDbEntity
  8
TITLE_BLOCK
  6
CONTINUOUS
 62
     7
100
AcDbVertex
100
AcDb2dVertex
 10
-14.560961
 20
-22.922973
 30
0.0
 70
    16
  0
VERTEX
  5
336EA
330
1A1A3
100
AcDbEntity
  8
TITLE_BLOCK
  6
CONTINUOUS
 62
     7
100
AcDbVertex
100
AcDb2dVertex
 10
-14.68057
 20
-22.924184
 30
0.0
 70
    16
  0
VERTEX
  5
336EB
330
1A1A3
100
AcDbEntity
  8
TITLE_BLOCK
  6
CONTINUOUS
 62
     7
100
AcDbVertex
100
AcDb2dVertex
 10
-14.681351
 20
-22.944184
 30
0.0
 70
    16
  0
VERTEX
  5
336EC
330
1A1A3
100
AcDbEntity
  8
TITLE_BLOCK
  6
CONTINUOUS
 62
     7
100
AcDbVertex
100
AcDb2dVertex
 10
-14.682562
 20
-22.984184
 30
0.0
 70
    16
  0
VERTEX
  5
336ED
330
1A1A3
100
AcDbEntity
  8
TITLE_BLOCK
  6
CONTINUOUS
 62
     7
100
AcDbVertex
100
AcDb2dVertex
 10
-14.682953
 20
-23.004575
 30
0.0
 70
    16
  0
VERTEX
  5
336EE
330
1A1A3
100
AcDbEntity
  8
TITLE_BLOCK
  6
CONTINUOUS
 62
     7
100
AcDbVertex
100
AcDb2dVertex
 10
-14.576976
 20
-23.003364
 30
0.0
 70
    16
  0
VERTEX
  5
336EF
330
1A1A3
100
AcDbEntity
  8
TITLE_BLOCK
  6
CONTINUOUS
 62
     7
100
AcDbVertex
100
AcDb2dVertex
 10
-14.47057
 20
-23.003364
 30
0.0
 70
    16
  0
VERTEX
  5
336F0
330
1A1A3
100
AcDbEntity
  8
TITLE_BLOCK
  6
CONTINUOUS
 62
     7
100
AcDbVertex
100
AcDb2dVertex
 10
-14.363773
 20
-23.002973
 30
0.0
 70
    16
  0
VERTEX
  5
336F1
330
1A1A3
100
AcDbEntity
  8
TITLE_BLOCK
  6
CONTINUOUS
 62
     7
100
AcDbVertex
100
AcDb2dVertex
 10
-14.363773
 20
-23.057387
 30
0.0
 70
    16
  0
VERTEX
  5
336F2
330
1A1A3
100
AcDbEntity
  8
TITLE_BLOCK
  6
CONTINUOUS
 62
     7
100
AcDbVertex
100
AcDb2dVertex
 10
-14.363773
 20
-23.111762
 30
0.0
 70
    16
  0
VERTEX
  5
336F3
330
1A1A3
100
AcDbEntity
  8
TITLE_BLOCK
  6
CONTINUOUS
 62
     7
100
AcDbVertex
100
AcDb2dVertex
 10
-14.363343
 20
-23.166176
 30
0.0
 70
    16
  0
VERTEX
  5
336F4
330
1A1A3
100
AcDbEntity
  8
TITLE_BLOCK
  6
CONTINUOUS
 62
     7
100
AcDbVertex
100
AcDb2dVertex
 10
-14.46975
 20
-23.164965
 30
0.0
 70
    16
  0
VERTEX
  5
336F5
330
1A1A3
100
AcDbEntity
  8
TITLE_BLOCK
  6
CONTINUOUS
 62
     7
100
AcDbVertex
100
AcDb2dVertex
 10
-14.576547
 20
-23.165356
 30
0.0
 70
    16
  0
VERTEX
  5
336F6
330
1A1A3
100
AcDbEntity
  8
TITLE_BLOCK
  6
CONTINUOUS
 62
     7
100
AcDbVertex
100
AcDb2dVertex
 10
-14.682953
 20
-23.164965
 30
0.0
 70
    16
  0
VERTEX
  5
336F7
330
1A1A3
100
AcDbEntity
  8
TITLE_BLOCK
  6
CONTINUOUS
 62
     7
100
AcDbVertex
100
AcDb2dVertex
 10
-14.682953
 20
-23.195356
 30
0.0
 70
    16
  0
VERTEX
  5
336F8
330
1A1A3
100
AcDbEntity
  8
TITLE_BLOCK
  6
CONTINUOUS
 62
     7
100
AcDbVertex
100
AcDb2dVertex
 10
-14.682953
 20
-23.256176
 30
0.0
 70
    16
  0
VERTEX
  5
336F9
330
1A1A3
100
AcDbEntity
  8
TITLE_BLOCK
  6
CONTINUOUS
 62
     7
100
AcDbVertex
100
AcDb2dVertex
 10
-14.682953
 20
-23.286567
 30
0.0
 70
    16
  0
VERTEX
  5
336FA
330
1A1A3
100
AcDbEntity
  8
TITLE_BLOCK
  6
CONTINUOUS
 62
     7
100
AcDbVertex
100
AcDb2dVertex
 10
-14.562562
 20
-23.284575
 30
0.0
 70
    16
  0
VERTEX
  5
336FB
330
1A1A3
100
AcDbEntity
  8
TITLE_BLOCK
  6
CONTINUOUS
 62
     7
100
AcDbVertex
100
AcDb2dVertex
 10
-14.441781
 20
-23.282973
 30
0.0
 70
    16
  0
VERTEX
  5
336FC
330
1A1A3
100
AcDbEntity
  8
TITLE_BLOCK
  6
CONTINUOUS
 62
     7
100
AcDbVertex
100
AcDb2dVertex
 10
-14.321351
 20
-23.283364
 30
0.0
 70
    16
  0
VERTEX
  5
336FD
330
1A1A3
100
AcDbEntity
  8
TITLE_BLOCK
  6
CONTINUOUS
 62
     7
100
AcDbVertex
100
AcDb2dVertex
 10
-14.322953
 20
-23.338168
 30
0.0
 70
    16
  0
VERTEX
  5
336FE
330
1A1A3
100
AcDbEntity
  8
TITLE_BLOCK
  6
CONTINUOUS
 62
     7
100
AcDbVertex
100
AcDb2dVertex
 10
-14.324554
 20
-23.392582
 30
0.0
 70
    16
  0
VERTEX
  5
336FF
330
1A1A3
100
AcDbEntity
  8
TITLE_BLOCK
  6
CONTINUOUS
 62
     7
100
AcDbVertex
100
AcDb2dVertex
 10
-14.326156
 20
-23.447387
 30
0.0
 70
    16
  0
VERTEX
  5
33700
330
1A1A3
100
AcDbEntity
  8
TITLE_BLOCK
  6
CONTINUOUS
 62
     7
100
AcDbVertex
100
AcDb2dVertex
 10
-14.510961
 20
-23.442582
 30
0.0
 70
    16
  0
VERTEX
  5
33701
330
1A1A3
100
AcDbEntity
  8
TITLE_BLOCK
  6
CONTINUOUS
 62
     7
100
AcDbVertex
100
AcDb2dVertex
 10
-14.696156
 20
-23.445786
 30
0.0
 70
    16
  0
VERTEX
  5
33702
330
1A1A3
100
AcDbEntity
  8
TITLE_BLOCK
  6
CONTINUOUS
 62
     7
100
AcDbVertex
100
AcDb2dVertex
 10
-14.880961
 20
-23.443793
 30
0.0
 70
    16
  0
VERTEX
  5
33703
330
1A1A3
100
AcDbEntity
  8
TITLE_BLOCK
  6
CONTINUOUS
 62
     7
100
AcDbVertex
100
AcDb2dVertex
 10
-14.884945
 20
-23.216567
 30
0.0
 70
    16
  0
VERTEX
  5
33704
330
1A1A3
100
AcDbEntity
  8
TITLE_BLOCK
  6
CONTINUOUS
 62
     7
100
AcDbVertex
100
AcDb2dVertex
 10
-14.881781
 20
-22.98977
 30
0.0
 70
    16
  0
VERTEX
  5
33705
330
1A1A3
100
AcDbEntity
  8
TITLE_BLOCK
  6
CONTINUOUS
 62
     7
100
AcDbVertex
100
AcDb2dVertex
 10
-14.885375
 20
-22.762582
 30
0.0
 70
    16
  0
VERTEX
  5
33706
330
1A1A3
100
AcDbEntity
  8
TITLE_BLOCK
  6
CONTINUOUS
 62
     7
100
AcDbVertex
100
AcDb2dVertex
 10
-14.885375
 20
-22.762582
 30
0.0
 70
    16
  0
VERTEX
  5
33707
330
1A1A3
100
AcDbEntity
  8
TITLE_BLOCK
  6
CONTINUOUS
 62
     7
100
AcDbVertex
100
AcDb2dVertex
 10
-14.885375
 20
-22.762582
 30
0.0
 70
    16
  0
VERTEX
  5
33708
330
1A1A3
100
AcDbEntity
  8
TITLE_BLOCK
  6
CONTINUOUS
 62
     7
100
AcDbVertex
100
AcDb2dVertex
 10
-14.885375
 20
-22.762582
 30
0.0
 70
    16
  0
SEQEND
  5
33709
330
1A1A3
100
AcDbEntity
  8
TITLE_BLOCK
  6
CONTINUOUS
 62
     7
  0
POLYLINE
  5
1A1E2
330
33219
100
AcDbEntity
  8
TITLE_BLOCK
  6
CONTINUOUS
 62
     7
100
AcDb2dPolyline
 66
     1
 10
0.0
 20
0.0
 30
0.0
 70
     5
 75
     5
  0
VERTEX
  5
3370A
330
1A1E2
100
AcDbEntity
  8
TITLE_BLOCK
  6
CONTINUOUS
 62
     7
100
AcDbVertex
100
AcDb2dVertex
 10
-14.14975
 20
-22.795786
 30
0.0
 70
     8
  0
VERTEX
  5
3370B
330
1A1E2
100
AcDbEntity
  8
TITLE_BLOCK
  6
CONTINUOUS
 62
     7
100
AcDbVertex
100
AcDb2dVertex
 10
-14.027718
 20
-22.774726
 30
0.0
 70
     8
  0
VERTEX
  5
3370C
330
1A1E2
100
AcDbEntity
  8
TITLE_BLOCK
  6
CONTINUOUS
 62
     7
100
AcDbVertex
100
AcDb2dVertex
 10
-13.966223
 20
-22.76726
 30
0.0
 70
     8
  0
VERTEX
  5
3370D
330
1A1E2
100
AcDbEntity
  8
TITLE_BLOCK
  6
CONTINUOUS
 62
     7
100
AcDbVertex
100
AcDb2dVertex
 10
-13.904164
 20
-22.764184
 30
0.0
 70
     8
  0
VERTEX
  5
3370E
330
1A1E2
100
AcDbEntity
  8
TITLE_BLOCK
  6
CONTINUOUS
 62
     7
100
AcDbVertex
100
AcDb2dVertex
 10
-13.835809
 20
-22.785532
 30
0.0
 70
     8
  0
VERTEX
  5
3370F
330
1A1E2
100
AcDbEntity
  8
TITLE_BLOCK
  6
CONTINUOUS
 62
     7
100
AcDbVertex
100
AcDb2dVertex
 10
-13.766547
 20
-22.804184
 30
0.0
 70
     8
  0
VERTEX
  5
33710
330
1A1E2
100
AcDbEntity
  8
TITLE_BLOCK
  6
CONTINUOUS
 62
     7
100
AcDbVertex
100
AcDb2dVertex
 10
-13.742502
 20
-22.84368
 30
0.0
 70
     8
  0
VERTEX
  5
33711
330
1A1E2
100
AcDbEntity
  8
TITLE_BLOCK
  6
CONTINUOUS
 62
     7
100
AcDbVertex
100
AcDb2dVertex
 10
-13.719999
 20
-22.884077
 30
0.0
 70
     8
  0
VERTEX
  5
33712
330
1A1E2
100
AcDbEntity
  8
TITLE_BLOCK
  6
CONTINUOUS
 62
     7
100
AcDbVertex
100
AcDb2dVertex
 10
-13.678578
 20
-22.966957
 30
0.0
 70
     8
  0
VERTEX
  5
33713
330
1A1E2
100
AcDbEntity
  8
TITLE_BLOCK
  6
CONTINUOUS
 62
     7
100
AcDbVertex
100
AcDb2dVertex
 10
-13.702946
 20
-22.972852
 30
0.0
 70
     8
  0
VERTEX
  5
33714
330
1A1E2
100
AcDbEntity
  8
TITLE_BLOCK
  6
CONTINUOUS
 62
     7
100
AcDbVertex
100
AcDb2dVertex
 10
-13.728347
 20
-22.974547
 30
0.0
 70
     8
  0
VERTEX
  5
33715
330
1A1E2
100
AcDbEntity
  8
TITLE_BLOCK
  6
CONTINUOUS
 62
     7
100
AcDbVertex
100
AcDb2dVertex
 10
-13.754548
 20
-22.972821
 30
0.0
 70
     8
  0
VERTEX
  5
33716
330
1A1E2
100
AcDbEntity
  8
TITLE_BLOCK
  6
CONTINUOUS
 62
     7
100
AcDbVertex
100
AcDb2dVertex
 10
-13.781317
 20
-22.968452
 30
0.0
 70
     8
  0
VERTEX
  5
33717
330
1A1E2
100
AcDbEntity
  8
TITLE_BLOCK
  6
CONTINUOUS
 62
     7
100
AcDbVertex
100
AcDb2dVertex
 10
-13.835627
 20
-22.954902
 30
0.0
 70
     8
  0
VERTEX
  5
33718
330
1A1E2
100
AcDbEntity
  8
TITLE_BLOCK
  6
CONTINUOUS
 62
     7
100
AcDbVertex
100
AcDb2dVertex
 10
-13.889418
 20
-22.940126
 30
0.0
 70
     8
  0
VERTEX
  5
33719
330
1A1E2
100
AcDbEntity
  8
TITLE_BLOCK
  6
CONTINUOUS
 62
     7
100
AcDbVertex
100
AcDb2dVertex
 10
-13.915536
 20
-22.934226
 30
0.0
 70
     8
  0
VERTEX
  5
3371A
330
1A1E2
100
AcDbEntity
  8
TITLE_BLOCK
  6
CONTINUOUS
 62
     7
100
AcDbVertex
100
AcDb2dVertex
 10
-13.940828
 20
-22.930355
 30
0.0
 70
     8
  0
VERTEX
  5
3371B
330
1A1E2
100
AcDbEntity
  8
TITLE_BLOCK
  6
CONTINUOUS
 62
     7
100
AcDbVertex
100
AcDb2dVertex
 10
-13.965058
 20
-22.929293
 30
0.0
 70
     8
  0
VERTEX
  5
3371C
330
1A1E2
100
AcDbEntity
  8
TITLE_BLOCK
  6
CONTINUOUS
 62
     7
100
AcDbVertex
100
AcDb2dVertex
 10
-13.987997
 20
-22.931818
 30
0.0
 70
     8
  0
VERTEX
  5
3371D
330
1A1E2
100
AcDbEntity
  8
TITLE_BLOCK
  6
CONTINUOUS
 62
     7
100
AcDbVertex
100
AcDb2dVertex
 10
-14.00941
 20
-22.938709
 30
0.0
 70
     8
  0
VERTEX
  5
3371E
330
1A1E2
100
AcDbEntity
  8
TITLE_BLOCK
  6
CONTINUOUS
 62
     7
100
AcDbVertex
100
AcDb2dVertex
 10
-14.029065
 20
-22.950744
 30
0.0
 70
     8
  0
VERTEX
  5
3371F
330
1A1E2
100
AcDbEntity
  8
TITLE_BLOCK
  6
CONTINUOUS
 62
     7
100
AcDbVertex
100
AcDb2dVertex
 10
-14.04673
 20
-22.968703
 30
0.0
 70
     8
  0
VERTEX
  5
33720
330
1A1E2
100
AcDbEntity
  8
TITLE_BLOCK
  6
CONTINUOUS
 62
     7
100
AcDbVertex
100
AcDb2dVertex
 10
-14.062172
 20
-22.993364
 30
0.0
 70
     8
  0
VERTEX
  5
33721
330
1A1E2
100
AcDbEntity
  8
TITLE_BLOCK
  6
CONTINUOUS
 62
     7
100
AcDbVertex
100
AcDb2dVertex
 10
-14.001023
 20
-23.008531
 30
0.0
 70
     8
  0
VERTEX
  5
33722
330
1A1E2
100
AcDbEntity
  8
TITLE_BLOCK
  6
CONTINUOUS
 62
     7
100
AcDbVertex
100
AcDb2dVertex
 10
-13.936883
 20
-23.022003
 30
0.0
 70
     8
  0
VERTEX
  5
33723
330
1A1E2
100
AcDbEntity
  8
TITLE_BLOCK
  6
CONTINUOUS
 62
     7
100
AcDbVertex
100
AcDb2dVertex
 10
-13.872311
 20
-23.036583
 30
0.0
 70
     8
  0
VERTEX
  5
33724
330
1A1E2
100
AcDbEntity
  8
TITLE_BLOCK
  6
CONTINUOUS
 62
     7
100
AcDbVertex
100
AcDb2dVertex
 10
-13.840663
 20
-23.045164
 30
0.0
 70
     8
  0
VERTEX
  5
33725
330
1A1E2
100
AcDbEntity
  8
TITLE_BLOCK
  6
CONTINUOUS
 62
     7
100
AcDbVertex
100
AcDb2dVertex
 10
-13.809867
 20
-23.055073
 30
0.0
 70
     8
  0
VERTEX
  5
33726
330
1A1E2
100
AcDbEntity
  8
TITLE_BLOCK
  6
CONTINUOUS
 62
     7
100
AcDbVertex
100
AcDb2dVertex
 10
-13.780242
 20
-23.06666
 30
0.0
 70
     8
  0
VERTEX
  5
33727
330
1A1E2
100
AcDbEntity
  8
TITLE_BLOCK
  6
CONTINUOUS
 62
     7
100
AcDbVertex
100
AcDb2dVertex
 10
-13.75211
 20
-23.080276
 30
0.0
 70
     8
  0
VERTEX
  5
33728
330
1A1E2
100
AcDbEntity
  8
TITLE_BLOCK
  6
CONTINUOUS
 62
     7
100
AcDbVertex
100
AcDb2dVertex
 10
-13.725789
 20
-23.09627
 30
0.0
 70
     8
  0
VERTEX
  5
33729
330
1A1E2
100
AcDbEntity
  8
TITLE_BLOCK
  6
CONTINUOUS
 62
     7
100
AcDbVertex
100
AcDb2dVertex
 10
-13.7016
 20
-23.114993
 30
0.0
 70
     8
  0
VERTEX
  5
3372A
330
1A1E2
100
AcDbEntity
  8
TITLE_BLOCK
  6
CONTINUOUS
 62
     7
100
AcDbVertex
100
AcDb2dVertex
 10
-13.679863
 20
-23.136796
 30
0.0
 70
     8
  0
VERTEX
  5
3372B
330
1A1E2
100
AcDbEntity
  8
TITLE_BLOCK
  6
CONTINUOUS
 62
     7
100
AcDbVertex
100
AcDb2dVertex
 10
-13.660898
 20
-23.162029
 30
0.0
 70
     8
  0
VERTEX
  5
3372C
330
1A1E2
100
AcDbEntity
  8
TITLE_BLOCK
  6
CONTINUOUS
 62
     7
100
AcDbVertex
100
AcDb2dVertex
 10
-13.645024
 20
-23.191041
 30
0.0
 70
     8
  0
VERTEX
  5
3372D
330
1A1E2
100
AcDbEntity
  8
TITLE_BLOCK
  6
CONTINUOUS
 62
     7
100
AcDbVertex
100
AcDb2dVertex
 10
-13.632562
 20
-23.224184
 30
0.0
 70
     8
  0
VERTEX
  5
3372E
330
1A1E2
100
AcDbEntity
  8
TITLE_BLOCK
  6
CONTINUOUS
 62
     7
100
AcDbVertex
100
AcDb2dVertex
 10
-13.640646
 20
-23.250781
 30
0.0
 70
     8
  0
VERTEX
  5
3372F
330
1A1E2
100
AcDbEntity
  8
TITLE_BLOCK
  6
CONTINUOUS
 62
     7
100
AcDbVertex
100
AcDb2dVertex
 10
-13.651069
 20
-23.275676
 30
0.0
 70
     8
  0
VERTEX
  5
33730
330
1A1E2
100
AcDbEntity
  8
TITLE_BLOCK
  6
CONTINUOUS
 62
     7
100
AcDbVertex
100
AcDb2dVertex
 10
-13.663675
 20
-23.298869
 30
0.0
 70
     8
  0
VERTEX
  5
33731
330
1A1E2
100
AcDbEntity
  8
TITLE_BLOCK
  6
CONTINUOUS
 62
     7
100
AcDbVertex
100
AcDb2dVertex
 10
-13.678311
 20
-23.320361
 30
0.0
 70
     8
  0
VERTEX
  5
33732
330
1A1E2
100
AcDbEntity
  8
TITLE_BLOCK
  6
CONTINUOUS
 62
     7
100
AcDbVertex
100
AcDb2dVertex
 10
-13.694821
 20
-23.340149
 30
0.0
 70
     8
  0
VERTEX
  5
33733
330
1A1E2
100
AcDbEntity
  8
TITLE_BLOCK
  6
CONTINUOUS
 62
     7
100
AcDbVertex
100
AcDb2dVertex
 10
-13.713051
 20
-23.358235
 30
0.0
 70
     8
  0
VERTEX
  5
33734
330
1A1E2
100
AcDbEntity
  8
TITLE_BLOCK
  6
CONTINUOUS
 62
     7
100
AcDbVertex
100
AcDb2dVertex
 10
-13.732845
 20
-23.374618
 30
0.0
 70
     8
  0
VERTEX
  5
33735
330
1A1E2
100
AcDbEntity
  8
TITLE_BLOCK
  6
CONTINUOUS
 62
     7
100
AcDbVertex
100
AcDb2dVertex
 10
-13.75405
 20
-23.389297
 30
0.0
 70
     8
  0
VERTEX
  5
33736
330
1A1E2
100
AcDbEntity
  8
TITLE_BLOCK
  6
CONTINUOUS
 62
     7
100
AcDbVertex
100
AcDb2dVertex
 10
-13.776509
 20
-23.402272
 30
0.0
 70
     8
  0
VERTEX
  5
33737
330
1A1E2
100
AcDbEntity
  8
TITLE_BLOCK
  6
CONTINUOUS
 62
     7
100
AcDbVertex
100
AcDb2dVertex
 10
-13.800068
 20
-23.413544
 30
0.0
 70
     8
  0
VERTEX
  5
33738
330
1A1E2
100
AcDbEntity
  8
TITLE_BLOCK
  6
CONTINUOUS
 62
     7
100
AcDbVertex
100
AcDb2dVertex
 10
-13.824573
 20
-23.423111
 30
0.0
 70
     8
  0
VERTEX
  5
33739
330
1A1E2
100
AcDbEntity
  8
TITLE_BLOCK
  6
CONTINUOUS
 62
     7
100
AcDbVertex
100
AcDb2dVertex
 10
-13.849868
 20
-23.430974
 30
0.0
 70
     8
  0
VERTEX
  5
3373A
330
1A1E2
100
AcDbEntity
  8
TITLE_BLOCK
  6
CONTINUOUS
 62
     7
100
AcDbVertex
100
AcDb2dVertex
 10
-13.875799
 20
-23.437131
 30
0.0
 70
     8
  0
VERTEX
  5
3373B
330
1A1E2
100
AcDbEntity
  8
TITLE_BLOCK
  6
CONTINUOUS
 62
     7
100
AcDbVertex
100
AcDb2dVertex
 10
-13.902211
 20
-23.441583
 30
0.0
 70
     8
  0
VERTEX
  5
3373C
330
1A1E2
100
AcDbEntity
  8
TITLE_BLOCK
  6
CONTINUOUS
 62
     7
100
AcDbVertex
100
AcDb2dVertex
 10
-13.928949
 20
-23.44433
 30
0.0
 70
     8
  0
VERTEX
  5
3373D
330
1A1E2
100
AcDbEntity
  8
TITLE_BLOCK
  6
CONTINUOUS
 62
     7
100
AcDbVertex
100
AcDb2dVertex
 10
-13.955858
 20
-23.445371
 30
0.0
 70
     8
  0
VERTEX
  5
3373E
330
1A1E2
100
AcDbEntity
  8
TITLE_BLOCK
  6
CONTINUOUS
 62
     7
100
AcDbVertex
100
AcDb2dVertex
 10
-13.982783
 20
-23.444705
 30
0.0
 70
     8
  0
VERTEX
  5
3373F
330
1A1E2
100
AcDbEntity
  8
TITLE_BLOCK
  6
CONTINUOUS
 62
     7
100
AcDbVertex
100
AcDb2dVertex
 10
-14.00957
 20
-23.442333
 30
0.0
 70
     8
  0
VERTEX
  5
33740
330
1A1E2
100
AcDbEntity
  8
TITLE_BLOCK
  6
CONTINUOUS
 62
     7
100
AcDbVertex
100
AcDb2dVertex
 10
-14.036064
 20
-23.438254
 30
0.0
 70
     8
  0
VERTEX
  5
33741
330
1A1E2
100
AcDbEntity
  8
TITLE_BLOCK
  6
CONTINUOUS
 62
     7
100
AcDbVertex
100
AcDb2dVertex
 10
-14.06211
 20
-23.432468
 30
0.0
 70
     8
  0
VERTEX
  5
33742
330
1A1E2
100
AcDbEntity
  8
TITLE_BLOCK
  6
CONTINUOUS
 62
     7
100
AcDbVertex
100
AcDb2dVertex
 10
-14.087552
 20
-23.424975
 30
0.0
 70
     8
  0
VERTEX
  5
33743
330
1A1E2
100
AcDbEntity
  8
TITLE_BLOCK
  6
CONTINUOUS
 62
     7
100
AcDbVertex
100
AcDb2dVertex
 10
-14.112237
 20
-23.415774
 30
0.0
 70
     8
  0
VERTEX
  5
33744
330
1A1E2
100
AcDbEntity
  8
TITLE_BLOCK
  6
CONTINUOUS
 62
     7
100
AcDbVertex
100
AcDb2dVertex
 10
-14.136009
 20
-23.404865
 30
0.0
 70
     8
  0
VERTEX
  5
33745
330
1A1E2
100
AcDbEntity
  8
TITLE_BLOCK
  6
CONTINUOUS
 62
     7
100
AcDbVertex
100
AcDb2dVertex
 10
-14.158714
 20
-23.392247
 30
0.0
 70
     8
  0
VERTEX
  5
33746
330
1A1E2
100
AcDbEntity
  8
TITLE_BLOCK
  6
CONTINUOUS
 62
     7
100
AcDbVertex
100
AcDb2dVertex
 10
-14.180196
 20
-23.377921
 30
0.0
 70
     8
  0
VERTEX
  5
33747
330
1A1E2
100
AcDbEntity
  8
TITLE_BLOCK
  6
CONTINUOUS
 62
     7
100
AcDbVertex
100
AcDb2dVertex
 10
-14.200302
 20
-23.361886
 30
0.0
 70
     8
  0
VERTEX
  5
33748
330
1A1E2
100
AcDbEntity
  8
TITLE_BLOCK
  6
CONTINUOUS
 62
     7
100
AcDbVertex
100
AcDb2dVertex
 10
-14.218875
 20
-23.344142
 30
0.0
 70
     8
  0
VERTEX
  5
33749
330
1A1E2
100
AcDbEntity
  8
TITLE_BLOCK
  6
CONTINUOUS
 62
     7
100
AcDbVertex
100
AcDb2dVertex
 10
-14.235762
 20
-23.324688
 30
0.0
 70
     8
  0
VERTEX
  5
3374A
330
1A1E2
100
AcDbEntity
  8
TITLE_BLOCK
  6
CONTINUOUS
 62
     7
100
AcDbVertex
100
AcDb2dVertex
 10
-14.250806
 20
-23.303524
 30
0.0
 70
     8
  0
VERTEX
  5
3374B
330
1A1E2
100
AcDbEntity
  8
TITLE_BLOCK
  6
CONTINUOUS
 62
     7
100
AcDbVertex
100
AcDb2dVertex
 10
-14.263855
 20
-23.28065
 30
0.0
 70
     8
  0
VERTEX
  5
3374C
330
1A1E2
100
AcDbEntity
  8
TITLE_BLOCK
  6
CONTINUOUS
 62
     7
100
AcDbVertex
100
AcDb2dVertex
 10
-14.274752
 20
-23.256065
 30
0.0
 70
     8
  0
VERTEX
  5
3374D
330
1A1E2
100
AcDbEntity
  8
TITLE_BLOCK
  6
CONTINUOUS
 62
     7
100
AcDbVertex
100
AcDb2dVertex
 10
-14.283343
 20
-23.22977
 30
0.0
 70
     8
  0
VERTEX
  5
3374E
330
1A1E2
100
AcDbEntity
  8
TITLE_BLOCK
  6
CONTINUOUS
 62
     7
100
AcDbVertex
100
AcDb2dVertex
 10
-14.101781
 20
-23.203364
 30
0.0
 70
     8
  0
VERTEX
  5
3374F
330
1A1E2
100
AcDbEntity
  8
TITLE_BLOCK
  6
CONTINUOUS
 62
     7
100
AcDbVertex
100
AcDb2dVertex
 10
-14.091507
 20
-23.222692
 30
0.0
 70
     8
  0
VERTEX
  5
33750
330
1A1E2
100
AcDbEntity
  8
TITLE_BLOCK
  6
CONTINUOUS
 62
     7
100
AcDbVertex
100
AcDb2dVertex
 10
-14.07941
 20
-23.238843
 30
0.0
 70
     8
  0
VERTEX
  5
33751
330
1A1E2
100
AcDbEntity
  8
TITLE_BLOCK
  6
CONTINUOUS
 62
     7
100
AcDbVertex
100
AcDb2dVertex
 10
-14.065674
 20
-23.25206
 30
0.0
 70
     8
  0
VERTEX
  5
33752
330
1A1E2
100
AcDbEntity
  8
TITLE_BLOCK
  6
CONTINUOUS
 62
     7
100
AcDbVertex
100
AcDb2dVertex
 10
-14.050482
 20
-23.262587
 30
0.0
 70
     8
  0
VERTEX
  5
33753
330
1A1E2
100
AcDbEntity
  8
TITLE_BLOCK
  6
CONTINUOUS
 62
     7
100
AcDbVertex
100
AcDb2dVertex
 10
-14.034018
 20
-23.270667
 30
0.0
 70
     8
  0
VERTEX
  5
33754
330
1A1E2
100
AcDbEntity
  8
TITLE_BLOCK
  6
CONTINUOUS
 62
     7
100
AcDbVertex
100
AcDb2dVertex
 10
-14.016464
 20
-23.276544
 30
0.0
 70
     8
  0
VERTEX
  5
33755
330
1A1E2
100
AcDbEntity
  8
TITLE_BLOCK
  6
CONTINUOUS
 62
     7
100
AcDbVertex
100
AcDb2dVertex
 10
-13.998004
 20
-23.280463
 30
0.0
 70
     8
  0
VERTEX
  5
33756
330
1A1E2
100
AcDbEntity
  8
TITLE_BLOCK
  6
CONTINUOUS
 62
     7
100
AcDbVertex
100
AcDb2dVertex
 10
-13.978822
 20
-23.282665
 30
0.0
 70
     8
  0
VERTEX
  5
33757
330
1A1E2
100
AcDbEntity
  8
TITLE_BLOCK
  6
CONTINUOUS
 62
     7
100
AcDbVertex
100
AcDb2dVertex
 10
-13.939023
 20
-23.2829
 30
0.0
 70
     8
  0
VERTEX
  5
33758
330
1A1E2
100
AcDbEntity
  8
TITLE_BLOCK
  6
CONTINUOUS
 62
     7
100
AcDbVertex
100
AcDb2dVertex
 10
-13.898534
 20
-23.279197
 30
0.0
 70
     8
  0
VERTEX
  5
33759
330
1A1E2
100
AcDbEntity
  8
TITLE_BLOCK
  6
CONTINUOUS
 62
     7
100
AcDbVertex
100
AcDb2dVertex
 10
-13.821351
 20
-23.267778
 30
0.0
 70
     8
  0
VERTEX
  5
3375A
330
1A1E2
100
AcDbEntity
  8
TITLE_BLOCK
  6
CONTINUOUS
 62
     7
100
AcDbVertex
100
AcDb2dVertex
 10
-13.828154
 20
-23.244058
 30
0.0
 70
     8
  0
VERTEX
  5
3375B
330
1A1E2
100
AcDbEntity
  8
TITLE_BLOCK
  6
CONTINUOUS
 62
     7
100
AcDbVertex
100
AcDb2dVertex
 10
-13.837867
 20
-23.223701
 30
0.0
 70
     8
  0
VERTEX
  5
3375C
330
1A1E2
100
AcDbEntity
  8
TITLE_BLOCK
  6
CONTINUOUS
 62
     7
100
AcDbVertex
100
AcDb2dVertex
 10
-13.850205
 20
-23.206405
 30
0.0
 70
     8
  0
VERTEX
  5
3375D
330
1A1E2
100
AcDbEntity
  8
TITLE_BLOCK
  6
CONTINUOUS
 62
     7
100
AcDbVertex
100
AcDb2dVertex
 10
-13.864883
 20
-23.191867
 30
0.0
 70
     8
  0
VERTEX
  5
3375E
330
1A1E2
100
AcDbEntity
  8
TITLE_BLOCK
  6
CONTINUOUS
 62
     7
100
AcDbVertex
100
AcDb2dVertex
 10
-13.881613
 20
-23.179783
 30
0.0
 70
     8
  0
VERTEX
  5
3375F
330
1A1E2
100
AcDbEntity
  8
TITLE_BLOCK
  6
CONTINUOUS
 62
     7
100
AcDbVertex
100
AcDb2dVertex
 10
-13.900111
 20
-23.169851
 30
0.0
 70
     8
  0
VERTEX
  5
33760
330
1A1E2
100
AcDbEntity
  8
TITLE_BLOCK
  6
CONTINUOUS
 62
     7
100
AcDbVertex
100
AcDb2dVertex
 10
-13.92009
 20
-23.161767
 30
0.0
 70
     8
  0
VERTEX
  5
33761
330
1A1E2
100
AcDbEntity
  8
TITLE_BLOCK
  6
CONTINUOUS
 62
     7
100
AcDbVertex
100
AcDb2dVertex
 10
-13.941263
 20
-23.155229
 30
0.0
 70
     8
  0
VERTEX
  5
33762
330
1A1E2
100
AcDbEntity
  8
TITLE_BLOCK
  6
CONTINUOUS
 62
     7
100
AcDbVertex
100
AcDb2dVertex
 10
-13.986052
 20
-23.145576
 30
0.0
 70
     8
  0
VERTEX
  5
33763
330
1A1E2
100
AcDbEntity
  8
TITLE_BLOCK
  6
CONTINUOUS
 62
     7
100
AcDbVertex
100
AcDb2dVertex
 10
-14.03219
 20
-23.138469
 30
0.0
 70
     8
  0
VERTEX
  5
33764
330
1A1E2
100
AcDbEntity
  8
TITLE_BLOCK
  6
CONTINUOUS
 62
     7
100
AcDbVertex
100
AcDb2dVertex
 10
-14.077388
 20
-23.131482
 30
0.0
 70
     8
  0
VERTEX
  5
33765
330
1A1E2
100
AcDbEntity
  8
TITLE_BLOCK
  6
CONTINUOUS
 62
     7
100
AcDbVertex
100
AcDb2dVertex
 10
-14.119359
 20
-23.122192
 30
0.0
 70
     8
  0
VERTEX
  5
33766
330
1A1E2
100
AcDbEntity
  8
TITLE_BLOCK
  6
CONTINUOUS
 62
     7
100
AcDbVertex
100
AcDb2dVertex
 10
-14.158783
 20
-23.082545
 30
0.0
 70
     8
  0
VERTEX
  5
33767
330
1A1E2
100
AcDbEntity
  8
TITLE_BLOCK
  6
CONTINUOUS
 62
     7
100
AcDbVertex
100
AcDb2dVertex
 10
-14.195013
 20
-23.040273
 30
0.0
 70
     8
  0
VERTEX
  5
33768
330
1A1E2
100
AcDbEntity
  8
TITLE_BLOCK
  6
CONTINUOUS
 62
     7
100
AcDbVertex
100
AcDb2dVertex
 10
-14.227421
 20
-22.995151
 30
0.0
 70
     8
  0
VERTEX
  5
33769
330
1A1E2
100
AcDbEntity
  8
TITLE_BLOCK
  6
CONTINUOUS
 62
     7
100
AcDbVertex
100
AcDb2dVertex
 10
-14.255375
 20
-22.946957
 30
0.0
 70
     8
  0
VERTEX
  5
3376A
330
1A1E2
100
AcDbEntity
  8
TITLE_BLOCK
  6
CONTINUOUS
 62
     7
100
AcDbVertex
100
AcDb2dVertex
 10
-14.203763
 20
-22.870478
 30
0.0
 70
     8
  0
VERTEX
  5
3376B
330
1A1E2
100
AcDbEntity
  8
TITLE_BLOCK
  6
CONTINUOUS
 62
     7
100
AcDbVertex
100
AcDb2dVertex
 10
-14.14975
 20
-22.795786
 30
0.0
 70
     8
  0
VERTEX
  5
3376C
330
1A1E2
100
AcDbEntity
  8
TITLE_BLOCK
  6
CONTINUOUS
 62
     7
100
AcDbVertex
100
AcDb2dVertex
 10
-14.14975
 20
-22.795786
 30
0.0
 70
     8
  0
VERTEX
  5
3376D
330
1A1E2
100
AcDbEntity
  8
TITLE_BLOCK
  6
CONTINUOUS
 62
     7
100
AcDbVertex
100
AcDb2dVertex
 10
-14.14975
 20
-22.795786
 30
0.0
 70
    16
  0
VERTEX
  5
3376E
330
1A1E2
100
AcDbEntity
  8
TITLE_BLOCK
  6
CONTINUOUS
 62
     7
100
AcDbVertex
100
AcDb2dVertex
 10
-14.068578
 20
-22.781372
 30
0.0
 70
    16
  0
VERTEX
  5
3376F
330
1A1E2
100
AcDbEntity
  8
TITLE_BLOCK
  6
CONTINUOUS
 62
     7
100
AcDbVertex
100
AcDb2dVertex
 10
-13.987367
 20
-22.764575
 30
0.0
 70
    16
  0
VERTEX
  5
33770
330
1A1E2
100
AcDbEntity
  8
TITLE_BLOCK
  6
CONTINUOUS
 62
     7
100
AcDbVertex
100
AcDb2dVertex
 10
-13.904164
 20
-22.764184
 30
0.0
 70
    16
  0
VERTEX
  5
33771
330
1A1E2
100
AcDbEntity
  8
TITLE_BLOCK
  6
CONTINUOUS
 62
     7
100
AcDbVertex
100
AcDb2dVertex
 10
-13.858968
 20
-22.779379
 30
0.0
 70
    16
  0
VERTEX
  5
33772
330
1A1E2
100
AcDbEntity
  8
TITLE_BLOCK
  6
CONTINUOUS
 62
     7
100
AcDbVertex
100
AcDb2dVertex
 10
-13.812953
 20
-22.792582
 30
0.0
 70
    16
  0
VERTEX
  5
33773
330
1A1E2
100
AcDbEntity
  8
TITLE_BLOCK
  6
CONTINUOUS
 62
     7
100
AcDbVertex
100
AcDb2dVertex
 10
-13.766547
 20
-22.804184
 30
0.0
 70
    16
  0
VERTEX
  5
33774
330
1A1E2
100
AcDbEntity
  8
TITLE_BLOCK
  6
CONTINUOUS
 62
     7
100
AcDbVertex
100
AcDb2dVertex
 10
-13.733343
 20
-22.856176
 30
0.0
 70
    16
  0
VERTEX
  5
33775
330
1A1E2
100
AcDbEntity
  8
TITLE_BLOCK
  6
CONTINUOUS
 62
     7
100
AcDbVertex
100
AcDb2dVertex
 10
-13.704945
 20
-22.910981
 30
0.0
 70
    16
  0
VERTEX
  5
33776
330
1A1E2
100
AcDbEntity
  8
TITLE_BLOCK
  6
CONTINUOUS
 62
     7
100
AcDbVertex
100
AcDb2dVertex
 10
-13.678578
 20
-22.966957
 30
0.0
 70
    16
  0
VERTEX
  5
33777
330
1A1E2
100
AcDbEntity
  8
TITLE_BLOCK
  6
CONTINUOUS
 62
     7
100
AcDbVertex
100
AcDb2dVertex
 10
-13.805375
 20
-23.010981
 30
0.0
 70
    16
  0
VERTEX
  5
33778
330
1A1E2
100
AcDbEntity
  8
TITLE_BLOCK
  6
CONTINUOUS
 62
     7
100
AcDbVertex
100
AcDb2dVertex
 10
-13.986156
 20
-22.842582
 30
0.0
 70
    16
  0
VERTEX
  5
33779
330
1A1E2
100
AcDbEntity
  8
TITLE_BLOCK
  6
CONTINUOUS
 62
     7
100
AcDbVertex
100
AcDb2dVertex
 10
-14.062172
 20
-22.993364
 30
0.0
 70
    16
  0
VERTEX
  5
3377A
330
1A1E2
100
AcDbEntity
  8
TITLE_BLOCK
  6
CONTINUOUS
 62
     7
100
AcDbVertex
100
AcDb2dVertex
 10
-13.905375
 20
-23.038559
 30
0.0
 70
    16
  0
VERTEX
  5
3377B
330
1A1E2
100
AcDbEntity
  8
TITLE_BLOCK
  6
CONTINUOUS
 62
     7
100
AcDbVertex
100
AcDb2dVertex
 10
-13.689359
 20
-23.035786
 30
0.0
 70
    16
  0
VERTEX
  5
3377C
330
1A1E2
100
AcDbEntity
  8
TITLE_BLOCK
  6
CONTINUOUS
 62
     7
100
AcDbVertex
100
AcDb2dVertex
 10
-13.632562
 20
-23.224184
 30
0.0
 70
    16
  0
VERTEX
  5
3377D
330
1A1E2
100
AcDbEntity
  8
TITLE_BLOCK
  6
CONTINUOUS
 62
     7
100
AcDbVertex
100
AcDb2dVertex
 10
-13.705765
 20
-23.516957
 30
0.0
 70
    16
  0
VERTEX
  5
3377E
330
1A1E2
100
AcDbEntity
  8
TITLE_BLOCK
  6
CONTINUOUS
 62
     7
100
AcDbVertex
100
AcDb2dVertex
 10
-14.204554
 20
-23.519379
 30
0.0
 70
    16
  0
VERTEX
  5
3377F
330
1A1E2
100
AcDbEntity
  8
TITLE_BLOCK
  6
CONTINUOUS
 62
     7
100
AcDbVertex
100
AcDb2dVertex
 10
-14.283343
 20
-23.22977
 30
0.0
 70
    16
  0
VERTEX
  5
33780
330
1A1E2
100
AcDbEntity
  8
TITLE_BLOCK
  6
CONTINUOUS
 62
     7
100
AcDbVertex
100
AcDb2dVertex
 10
-14.222953
 20
-23.221372
 30
0.0
 70
    16
  0
VERTEX
  5
33781
330
1A1E2
100
AcDbEntity
  8
TITLE_BLOCK
  6
CONTINUOUS
 62
     7
100
AcDbVertex
100
AcDb2dVertex
 10
-14.162562
 20
-23.211762
 30
0.0
 70
    16
  0
VERTEX
  5
33782
330
1A1E2
100
AcDbEntity
  8
TITLE_BLOCK
  6
CONTINUOUS
 62
     7
100
AcDbVertex
100
AcDb2dVertex
 10
-14.101781
 20
-23.203364
 30
0.0
 70
    16
  0
VERTEX
  5
33783
330
1A1E2
100
AcDbEntity
  8
TITLE_BLOCK
  6
CONTINUOUS
 62
     7
100
AcDbVertex
100
AcDb2dVertex
 10
-14.052172
 20
-23.315356
 30
0.0
 70
    16
  0
VERTEX
  5
33784
330
1A1E2
100
AcDbEntity
  8
TITLE_BLOCK
  6
CONTINUOUS
 62
     7
100
AcDbVertex
100
AcDb2dVertex
 10
-13.916976
 20
-23.281372
 30
0.0
 70
    16
  0
VERTEX
  5
33785
330
1A1E2
100
AcDbEntity
  8
TITLE_BLOCK
  6
CONTINUOUS
 62
     7
100
AcDbVertex
100
AcDb2dVertex
 10
-13.821351
 20
-23.267778
 30
0.0
 70
    16
  0
VERTEX
  5
33786
330
1A1E2
100
AcDbEntity
  8
TITLE_BLOCK
  6
CONTINUOUS
 62
     7
100
AcDbVertex
100
AcDb2dVertex
 10
-13.849359
 20
-23.131762
 30
0.0
 70
    16
  0
VERTEX
  5
33787
330
1A1E2
100
AcDbEntity
  8
TITLE_BLOCK
  6
CONTINUOUS
 62
     7
100
AcDbVertex
100
AcDb2dVertex
 10
-14.013773
 20
-23.152192
 30
0.0
 70
    16
  0
VERTEX
  5
33788
330
1A1E2
100
AcDbEntity
  8
TITLE_BLOCK
  6
CONTINUOUS
 62
     7
100
AcDbVertex
100
AcDb2dVertex
 10
-14.119359
 20
-23.122192
 30
0.0
 70
    16
  0
VERTEX
  5
33789
330
1A1E2
100
AcDbEntity
  8
TITLE_BLOCK
  6
CONTINUOUS
 62
     7
100
AcDbVertex
100
AcDb2dVertex
 10
-14.173773
 20
-23.070981
 30
0.0
 70
    16
  0
VERTEX
  5
3378A
330
1A1E2
100
AcDbEntity
  8
TITLE_BLOCK
  6
CONTINUOUS
 62
     7
100
AcDbVertex
100
AcDb2dVertex
 10
-14.221351
 20
-23.013364
 30
0.0
 70
    16
  0
VERTEX
  5
3378B
330
1A1E2
100
AcDbEntity
  8
TITLE_BLOCK
  6
CONTINUOUS
 62
     7
100
AcDbVertex
100
AcDb2dVertex
 10
-14.255375
 20
-22.946957
 30
0.0
 70
    16
  0
VERTEX
  5
3378C
330
1A1E2
100
AcDbEntity
  8
TITLE_BLOCK
  6
CONTINUOUS
 62
     7
100
AcDbVertex
100
AcDb2dVertex
 10
-14.221351
 20
-22.895786
 30
0.0
 70
    16
  0
VERTEX
  5
3378D
330
1A1E2
100
AcDbEntity
  8
TITLE_BLOCK
  6
CONTINUOUS
 62
     7
100
AcDbVertex
100
AcDb2dVertex
 10
-14.186976
 20
-22.844575
 30
0.0
 70
    16
  0
VERTEX
  5
3378E
330
1A1E2
100
AcDbEntity
  8
TITLE_BLOCK
  6
CONTINUOUS
 62
     7
100
AcDbVertex
100
AcDb2dVertex
 10
-14.14975
 20
-22.795786
 30
0.0
 70
    16
  0
VERTEX
  5
3378F
330
1A1E2
100
AcDbEntity
  8
TITLE_BLOCK
  6
CONTINUOUS
 62
     7
100
AcDbVertex
100
AcDb2dVertex
 10
-14.14975
 20
-22.795786
 30
0.0
 70
    16
  0
VERTEX
  5
33790
330
1A1E2
100
AcDbEntity
  8
TITLE_BLOCK
  6
CONTINUOUS
 62
     7
100
AcDbVertex
100
AcDb2dVertex
 10
-14.14975
 20
-22.795786
 30
0.0
 70
    16
  0
VERTEX
  5
33791
330
1A1E2
100
AcDbEntity
  8
TITLE_BLOCK
  6
CONTINUOUS
 62
     7
100
AcDbVertex
100
AcDb2dVertex
 10
-14.14975
 20
-22.795786
 30
0.0
 70
    16
  0
SEQEND
  5
33792
330
1A1E2
100
AcDbEntity
  8
TITLE_BLOCK
  6
CONTINUOUS
 62
     7
  0
POLYLINE
  5
1A26B
330
33219
100
AcDbEntity
  8
TITLE_BLOCK
  6
CONTINUOUS
 62
     7
100
AcDb2dPolyline
 66
     1
 10
0.0
 20
0.0
 30
0.0
 70
     5
 75
     5
  0
VERTEX
  5
33793
330
1A26B
100
AcDbEntity
  8
TITLE_BLOCK
  6
CONTINUOUS
 62
     7
100
AcDbVertex
100
AcDb2dVertex
 10
-13.575765
 20
-22.992582
 30
0.0
 70
     8
  0
VERTEX
  5
33794
330
1A26B
100
AcDbEntity
  8
TITLE_BLOCK
  6
CONTINUOUS
 62
     7
100
AcDbVertex
100
AcDb2dVertex
 10
-13.572373
 20
-22.965798
 30
0.0
 70
     8
  0
VERTEX
  5
33795
330
1A26B
100
AcDbEntity
  8
TITLE_BLOCK
  6
CONTINUOUS
 62
     7
100
AcDbVertex
100
AcDb2dVertex
 10
-13.566289
 20
-22.940649
 30
0.0
 70
     8
  0
VERTEX
  5
33796
330
1A26B
100
AcDbEntity
  8
TITLE_BLOCK
  6
CONTINUOUS
 62
     7
100
AcDbVertex
100
AcDb2dVertex
 10
-13.55769
 20
-22.917141
 30
0.0
 70
     8
  0
VERTEX
  5
33797
330
1A26B
100
AcDbEntity
  8
TITLE_BLOCK
  6
CONTINUOUS
 62
     7
100
AcDbVertex
100
AcDb2dVertex
 10
-13.54675
 20
-22.895277
 30
0.0
 70
     8
  0
VERTEX
  5
33798
330
1A26B
100
AcDbEntity
  8
TITLE_BLOCK
  6
CONTINUOUS
 62
     7
100
AcDbVertex
100
AcDb2dVertex
 10
-13.533645
 20
-22.875064
 30
0.0
 70
     8
  0
VERTEX
  5
33799
330
1A26B
100
AcDbEntity
  8
TITLE_BLOCK
  6
CONTINUOUS
 62
     7
100
AcDbVertex
100
AcDb2dVertex
 10
-13.518551
 20
-22.856504
 30
0.0
 70
     8
  0
VERTEX
  5
3379A
330
1A26B
100
AcDbEntity
  8
TITLE_BLOCK
  6
CONTINUOUS
 62
     7
100
AcDbVertex
100
AcDb2dVertex
 10
-13.501641
 20
-22.839603
 30
0.0
 70
     8
  0
VERTEX
  5
3379B
330
1A26B
100
AcDbEntity
  8
TITLE_BLOCK
  6
CONTINUOUS
 62
     7
100
AcDbVertex
100
AcDb2dVertex
 10
-13.483092
 20
-22.824365
 30
0.0
 70
     8
  0
VERTEX
  5
3379C
330
1A26B
100
AcDbEntity
  8
TITLE_BLOCK
  6
CONTINUOUS
 62
     7
100
AcDbVertex
100
AcDb2dVertex
 10
-13.463079
 20
-22.810795
 30
0.0
 70
     8
  0
VERTEX
  5
3379D
330
1A26B
100
AcDbEntity
  8
TITLE_BLOCK
  6
CONTINUOUS
 62
     7
100
AcDbVertex
100
AcDb2dVertex
 10
-13.441777
 20
-22.798897
 30
0.0
 70
     8
  0
VERTEX
  5
3379E
330
1A26B
100
AcDbEntity
  8
TITLE_BLOCK
  6
CONTINUOUS
 62
     7
100
AcDbVertex
100
AcDb2dVertex
 10
-13.419361
 20
-22.788676
 30
0.0
 70
     8
  0
VERTEX
  5
3379F
330
1A26B
100
AcDbEntity
  8
TITLE_BLOCK
  6
CONTINUOUS
 62
     7
100
AcDbVertex
100
AcDb2dVertex
 10
-13.396007
 20
-22.780136
 30
0.0
 70
     8
  0
VERTEX
  5
337A0
330
1A26B
100
AcDbEntity
  8
TITLE_BLOCK
  6
CONTINUOUS
 62
     7
100
AcDbVertex
100
AcDb2dVertex
 10
-13.37189
 20
-22.773282
 30
0.0
 70
     8
  0
VERTEX
  5
337A1
330
1A26B
100
AcDbEntity
  8
TITLE_BLOCK
  6
CONTINUOUS
 62
     7
100
AcDbVertex
100
AcDb2dVertex
 10
-13.347185
 20
-22.768119
 30
0.0
 70
     8
  0
VERTEX
  5
337A2
330
1A26B
100
AcDbEntity
  8
TITLE_BLOCK
  6
CONTINUOUS
 62
     7
100
AcDbVertex
100
AcDb2dVertex
 10
-13.322067
 20
-22.76465
 30
0.0
 70
     8
  0
VERTEX
  5
337A3
330
1A26B
100
AcDbEntity
  8
TITLE_BLOCK
  6
CONTINUOUS
 62
     7
100
AcDbVertex
100
AcDb2dVertex
 10
-13.296713
 20
-22.76288
 30
0.0
 70
     8
  0
VERTEX
  5
337A4
330
1A26B
100
AcDbEntity
  8
TITLE_BLOCK
  6
CONTINUOUS
 62
     7
100
AcDbVertex
100
AcDb2dVertex
 10
-13.271296
 20
-22.762815
 30
0.0
 70
     8
  0
VERTEX
  5
337A5
330
1A26B
100
AcDbEntity
  8
TITLE_BLOCK
  6
CONTINUOUS
 62
     7
100
AcDbVertex
100
AcDb2dVertex
 10
-13.245992
 20
-22.764458
 30
0.0
 70
     8
  0
VERTEX
  5
337A6
330
1A26B
100
AcDbEntity
  8
TITLE_BLOCK
  6
CONTINUOUS
 62
     7
100
AcDbVertex
100
AcDb2dVertex
 10
-13.220977
 20
-22.767813
 30
0.0
 70
     8
  0
VERTEX
  5
337A7
330
1A26B
100
AcDbEntity
  8
TITLE_BLOCK
  6
CONTINUOUS
 62
     7
100
AcDbVertex
100
AcDb2dVertex
 10
-13.196426
 20
-22.772887
 30
0.0
 70
     8
  0
VERTEX
  5
337A8
330
1A26B
100
AcDbEntity
  8
TITLE_BLOCK
  6
CONTINUOUS
 62
     7
100
AcDbVertex
100
AcDb2dVertex
 10
-13.172513
 20
-22.779682
 30
0.0
 70
     8
  0
VERTEX
  5
337A9
330
1A26B
100
AcDbEntity
  8
TITLE_BLOCK
  6
CONTINUOUS
 62
     7
100
AcDbVertex
100
AcDb2dVertex
 10
-13.149415
 20
-22.788204
 30
0.0
 70
     8
  0
VERTEX
  5
337AA
330
1A26B
100
AcDbEntity
  8
TITLE_BLOCK
  6
CONTINUOUS
 62
     7
100
AcDbVertex
100
AcDb2dVertex
 10
-13.127307
 20
-22.798457
 30
0.0
 70
     8
  0
VERTEX
  5
337AB
330
1A26B
100
AcDbEntity
  8
TITLE_BLOCK
  6
CONTINUOUS
 62
     7
100
AcDbVertex
100
AcDb2dVertex
 10
-13.106363
 20
-22.810446
 30
0.0
 70
     8
  0
VERTEX
  5
337AC
330
1A26B
100
AcDbEntity
  8
TITLE_BLOCK
  6
CONTINUOUS
 62
     7
100
AcDbVertex
100
AcDb2dVertex
 10
-13.08676
 20
-22.824174
 30
0.0
 70
     8
  0
VERTEX
  5
337AD
330
1A26B
100
AcDbEntity
  8
TITLE_BLOCK
  6
CONTINUOUS
 62
     7
100
AcDbVertex
100
AcDb2dVertex
 10
-13.068672
 20
-22.839648
 30
0.0
 70
     8
  0
VERTEX
  5
337AE
330
1A26B
100
AcDbEntity
  8
TITLE_BLOCK
  6
CONTINUOUS
 62
     7
100
AcDbVertex
100
AcDb2dVertex
 10
-13.052274
 20
-22.85687
 30
0.0
 70
     8
  0
VERTEX
  5
337AF
330
1A26B
100
AcDbEntity
  8
TITLE_BLOCK
  6
CONTINUOUS
 62
     7
100
AcDbVertex
100
AcDb2dVertex
 10
-13.037743
 20
-22.875847
 30
0.0
 70
     8
  0
VERTEX
  5
337B0
330
1A26B
100
AcDbEntity
  8
TITLE_BLOCK
  6
CONTINUOUS
 62
     7
100
AcDbVertex
100
AcDb2dVertex
 10
-13.025252
 20
-22.896581
 30
0.0
 70
     8
  0
VERTEX
  5
337B1
330
1A26B
100
AcDbEntity
  8
TITLE_BLOCK
  6
CONTINUOUS
 62
     7
100
AcDbVertex
100
AcDb2dVertex
 10
-13.014978
 20
-22.919078
 30
0.0
 70
     8
  0
VERTEX
  5
337B2
330
1A26B
100
AcDbEntity
  8
TITLE_BLOCK
  6
CONTINUOUS
 62
     7
100
AcDbVertex
100
AcDb2dVertex
 10
-13.007096
 20
-22.943343
 30
0.0
 70
     8
  0
VERTEX
  5
337B3
330
1A26B
100
AcDbEntity
  8
TITLE_BLOCK
  6
CONTINUOUS
 62
     7
100
AcDbVertex
100
AcDb2dVertex
 10
-13.001781
 20
-22.969379
 30
0.0
 70
     8
  0
VERTEX
  5
337B4
330
1A26B
100
AcDbEntity
  8
TITLE_BLOCK
  6
CONTINUOUS
 62
     7
100
AcDbVertex
100
AcDb2dVertex
 10
-13.049149
 20
-22.969277
 30
0.0
 70
     8
  0
VERTEX
  5
337B5
330
1A26B
100
AcDbEntity
  8
TITLE_BLOCK
  6
CONTINUOUS
 62
     7
100
AcDbVertex
100
AcDb2dVertex
 10
-13.095975
 20
-22.965026
 30
0.0
 70
     8
  0
VERTEX
  5
337B6
330
1A26B
100
AcDbEntity
  8
TITLE_BLOCK
  6
CONTINUOUS
 62
     7
100
AcDbVertex
100
AcDb2dVertex
 10
-13.188671
 20
-22.949233
 30
0.0
 70
     8
  0
VERTEX
  5
337B7
330
1A26B
100
AcDbEntity
  8
TITLE_BLOCK
  6
CONTINUOUS
 62
     7
100
AcDbVertex
100
AcDb2dVertex
 10
-13.281213
 20
-22.932311
 30
0.0
 70
     8
  0
VERTEX
  5
337B8
330
1A26B
100
AcDbEntity
  8
TITLE_BLOCK
  6
CONTINUOUS
 62
     7
100
AcDbVertex
100
AcDb2dVertex
 10
-13.327846
 20
-22.92665
 30
0.0
 70
     8
  0
VERTEX
  5
337B9
330
1A26B
100
AcDbEntity
  8
TITLE_BLOCK
  6
CONTINUOUS
 62
     7
100
AcDbVertex
100
AcDb2dVertex
 10
-13.374945
 20
-22.924575
 30
0.0
 70
     8
  0
VERTEX
  5
337BA
330
1A26B
100
AcDbEntity
  8
TITLE_BLOCK
  6
CONTINUOUS
 62
     7
100
AcDbVertex
100
AcDb2dVertex
 10
-13.371645
 20
-22.945669
 30
0.0
 70
     8
  0
VERTEX
  5
337BB
330
1A26B
100
AcDbEntity
  8
TITLE_BLOCK
  6
CONTINUOUS
 62
     7
100
AcDbVertex
100
AcDb2dVertex
 10
-13.365519
 20
-22.963558
 30
0.0
 70
     8
  0
VERTEX
  5
337BC
330
1A26B
100
AcDbEntity
  8
TITLE_BLOCK
  6
CONTINUOUS
 62
     7
100
AcDbVertex
100
AcDb2dVertex
 10
-13.356847
 20
-22.978553
 30
0.0
 70
     8
  0
VERTEX
  5
337BD
330
1A26B
100
AcDbEntity
  8
TITLE_BLOCK
  6
CONTINUOUS
 62
     7
100
AcDbVertex
100
AcDb2dVertex
 10
-13.345907
 20
-22.990963
 30
0.0
 70
     8
  0
VERTEX
  5
337BE
330
1A26B
100
AcDbEntity
  8
TITLE_BLOCK
  6
CONTINUOUS
 62
     7
100
AcDbVertex
100
AcDb2dVertex
 10
-13.33298
 20
-23.0011
 30
0.0
 70
     8
  0
VERTEX
  5
337BF
330
1A26B
100
AcDbEntity
  8
TITLE_BLOCK
  6
CONTINUOUS
 62
     7
100
AcDbVertex
100
AcDb2dVertex
 10
-13.318343
 20
-23.009274
 30
0.0
 70
     8
  0
VERTEX
  5
337C0
330
1A26B
100
AcDbEntity
  8
TITLE_BLOCK
  6
CONTINUOUS
 62
     7
100
AcDbVertex
100
AcDb2dVertex
 10
-13.285057
 20
-23.020976
 30
0.0
 70
     8
  0
VERTEX
  5
337C1
330
1A26B
100
AcDbEntity
  8
TITLE_BLOCK
  6
CONTINUOUS
 62
     7
100
AcDbVertex
100
AcDb2dVertex
 10
-13.248284
 20
-23.028552
 30
0.0
 70
     8
  0
VERTEX
  5
337C2
330
1A26B
100
AcDbEntity
  8
TITLE_BLOCK
  6
CONTINUOUS
 62
     7
100
AcDbVertex
100
AcDb2dVertex
 10
-13.210254
 20
-23.034487
 30
0.0
 70
     8
  0
VERTEX
  5
337C3
330
1A26B
100
AcDbEntity
  8
TITLE_BLOCK
  6
CONTINUOUS
 62
     7
100
AcDbVertex
100
AcDb2dVertex
 10
-13.173202
 20
-23.041266
 30
0.0
 70
     8
  0
VERTEX
  5
337C4
330
1A26B
100
AcDbEntity
  8
TITLE_BLOCK
  6
CONTINUOUS
 62
     7
100
AcDbVertex
100
AcDb2dVertex
 10
-13.139359
 20
-23.051372
 30
0.0
 70
     8
  0
VERTEX
  5
337C5
330
1A26B
100
AcDbEntity
  8
TITLE_BLOCK
  6
CONTINUOUS
 62
     7
100
AcDbVertex
100
AcDb2dVertex
 10
-13.104995
 20
-23.059394
 30
0.0
 70
     8
  0
VERTEX
  5
337C6
330
1A26B
100
AcDbEntity
  8
TITLE_BLOCK
  6
CONTINUOUS
 62
     7
100
AcDbVertex
100
AcDb2dVertex
 10
-13.073872
 20
-23.072818
 30
0.0
 70
     8
  0
VERTEX
  5
337C7
330
1A26B
100
AcDbEntity
  8
TITLE_BLOCK
  6
CONTINUOUS
 62
     7
100
AcDbVertex
100
AcDb2dVertex
 10
-13.04593
 20
-23.090968
 30
0.0
 70
     8
  0
VERTEX
  5
337C8
330
1A26B
100
AcDbEntity
  8
TITLE_BLOCK
  6
CONTINUOUS
 62
     7
100
AcDbVertex
100
AcDb2dVertex
 10
-13.021107
 20
-23.113168
 30
0.0
 70
     8
  0
VERTEX
  5
337C9
330
1A26B
100
AcDbEntity
  8
TITLE_BLOCK
  6
CONTINUOUS
 62
     7
100
AcDbVertex
100
AcDb2dVertex
 10
-12.999342
 20
-23.138746
 30
0.0
 70
     8
  0
VERTEX
  5
337CA
330
1A26B
100
AcDbEntity
  8
TITLE_BLOCK
  6
CONTINUOUS
 62
     7
100
AcDbVertex
100
AcDb2dVertex
 10
-12.980574
 20
-23.167025
 30
0.0
 70
     8
  0
VERTEX
  5
337CB
330
1A26B
100
AcDbEntity
  8
TITLE_BLOCK
  6
CONTINUOUS
 62
     7
100
AcDbVertex
100
AcDb2dVertex
 10
-12.96474
 20
-23.197331
 30
0.0
 70
     8
  0
VERTEX
  5
337CC
330
1A26B
100
AcDbEntity
  8
TITLE_BLOCK
  6
CONTINUOUS
 62
     7
100
AcDbVertex
100
AcDb2dVertex
 10
-12.951781
 20
-23.228989
 30
0.0
 70
     8
  0
VERTEX
  5
337CD
330
1A26B
100
AcDbEntity
  8
TITLE_BLOCK
  6
CONTINUOUS
 62
     7
100
AcDbVertex
100
AcDb2dVertex
 10
-12.965959
 20
-23.268379
 30
0.0
 70
     8
  0
VERTEX
  5
337CE
330
1A26B
100
AcDbEntity
  8
TITLE_BLOCK
  6
CONTINUOUS
 62
     7
100
AcDbVertex
100
AcDb2dVertex
 10
-12.984529
 20
-23.30327
 30
0.0
 70
     8
  0
VERTEX
  5
337CF
330
1A26B
100
AcDbEntity
  8
TITLE_BLOCK
  6
CONTINUOUS
 62
     7
100
AcDbVertex
100
AcDb2dVertex
 10
-13.007071
 20
-23.333828
 30
0.0
 70
     8
  0
VERTEX
  5
337D0
330
1A26B
100
AcDbEntity
  8
TITLE_BLOCK
  6
CONTINUOUS
 62
     7
100
AcDbVertex
100
AcDb2dVertex
 10
-13.033166
 20
-23.360223
 30
0.0
 70
     8
  0
VERTEX
  5
337D1
330
1A26B
100
AcDbEntity
  8
TITLE_BLOCK
  6
CONTINUOUS
 62
     7
100
AcDbVertex
100
AcDb2dVertex
 10
-13.062396
 20
-23.382622
 30
0.0
 70
     8
  0
VERTEX
  5
337D2
330
1A26B
100
AcDbEntity
  8
TITLE_BLOCK
  6
CONTINUOUS
 62
     7
100
AcDbVertex
100
AcDb2dVertex
 10
-13.094341
 20
-23.401193
 30
0.0
 70
     8
  0
VERTEX
  5
337D3
330
1A26B
100
AcDbEntity
  8
TITLE_BLOCK
  6
CONTINUOUS
 62
     7
100
AcDbVertex
100
AcDb2dVertex
 10
-13.128582
 20
-23.416104
 30
0.0
 70
     8
  0
VERTEX
  5
337D4
330
1A26B
100
AcDbEntity
  8
TITLE_BLOCK
  6
CONTINUOUS
 62
     7
100
AcDbVertex
100
AcDb2dVertex
 10
-13.164701
 20
-23.427524
 30
0.0
 70
     8
  0
VERTEX
  5
337D5
330
1A26B
100
AcDbEntity
  8
TITLE_BLOCK
  6
CONTINUOUS
 62
     7
100
AcDbVertex
100
AcDb2dVertex
 10
-13.202278
 20
-23.43562
 30
0.0
 70
     8
  0
VERTEX
  5
337D6
330
1A26B
100
AcDbEntity
  8
TITLE_BLOCK
  6
CONTINUOUS
 62
     7
100
AcDbVertex
100
AcDb2dVertex
 10
-13.240895
 20
-23.440562
 30
0.0
 70
     8
  0
VERTEX
  5
337D7
330
1A26B
100
AcDbEntity
  8
TITLE_BLOCK
  6
CONTINUOUS
 62
     7
100
AcDbVertex
100
AcDb2dVertex
 10
-13.280132
 20
-23.442516
 30
0.0
 70
     8
  0
VERTEX
  5
337D8
330
1A26B
100
AcDbEntity
  8
TITLE_BLOCK
  6
CONTINUOUS
 62
     7
100
AcDbVertex
100
AcDb2dVertex
 10
-13.31957
 20
-23.441651
 30
0.0
 70
     8
  0
VERTEX
  5
337D9
330
1A26B
100
AcDbEntity
  8
TITLE_BLOCK
  6
CONTINUOUS
 62
     7
100
AcDbVertex
100
AcDb2dVertex
 10
-13.358791
 20
-23.438135
 30
0.0
 70
     8
  0
VERTEX
  5
337DA
330
1A26B
100
AcDbEntity
  8
TITLE_BLOCK
  6
CONTINUOUS
 62
     7
100
AcDbVertex
100
AcDb2dVertex
 10
-13.397376
 20
-23.432137
 30
0.0
 70
     8
  0
VERTEX
  5
337DB
330
1A26B
100
AcDbEntity
  8
TITLE_BLOCK
  6
CONTINUOUS
 62
     7
100
AcDbVertex
100
AcDb2dVertex
 10
-13.434906
 20
-23.423824
 30
0.0
 70
     8
  0
VERTEX
  5
337DC
330
1A26B
100
AcDbEntity
  8
TITLE_BLOCK
  6
CONTINUOUS
 62
     7
100
AcDbVertex
100
AcDb2dVertex
 10
-13.470961
 20
-23.413364
 30
0.0
 70
     8
  0
VERTEX
  5
337DD
330
1A26B
100
AcDbEntity
  8
TITLE_BLOCK
  6
CONTINUOUS
 62
     7
100
AcDbVertex
100
AcDb2dVertex
 10
-13.492786
 20
-23.394401
 30
0.0
 70
     8
  0
VERTEX
  5
337DE
330
1A26B
100
AcDbEntity
  8
TITLE_BLOCK
  6
CONTINUOUS
 62
     7
100
AcDbVertex
100
AcDb2dVertex
 10
-13.512775
 20
-23.373939
 30
0.0
 70
     8
  0
VERTEX
  5
337DF
330
1A26B
100
AcDbEntity
  8
TITLE_BLOCK
  6
CONTINUOUS
 62
     7
100
AcDbVertex
100
AcDb2dVertex
 10
-13.531121
 20
-23.352163
 30
0.0
 70
     8
  0
VERTEX
  5
337E0
330
1A26B
100
AcDbEntity
  8
TITLE_BLOCK
  6
CONTINUOUS
 62
     7
100
AcDbVertex
100
AcDb2dVertex
 10
-13.548016
 20
-23.329262
 30
0.0
 70
     8
  0
VERTEX
  5
337E1
330
1A26B
100
AcDbEntity
  8
TITLE_BLOCK
  6
CONTINUOUS
 62
     7
100
AcDbVertex
100
AcDb2dVertex
 10
-13.578226
 20
-23.280836
 30
0.0
 70
     8
  0
VERTEX
  5
337E2
330
1A26B
100
AcDbEntity
  8
TITLE_BLOCK
  6
CONTINUOUS
 62
     7
100
AcDbVertex
100
AcDb2dVertex
 10
-13.604945
 20
-23.230161
 30
0.0
 70
     8
  0
VERTEX
  5
337E3
330
1A26B
100
AcDbEntity
  8
TITLE_BLOCK
  6
CONTINUOUS
 62
     7
100
AcDbVertex
100
AcDb2dVertex
 10
-13.577959
 20
-23.228611
 30
0.0
 70
     8
  0
VERTEX
  5
337E4
330
1A26B
100
AcDbEntity
  8
TITLE_BLOCK
  6
CONTINUOUS
 62
     7
100
AcDbVertex
100
AcDb2dVertex
 10
-13.549648
 20
-23.223358
 30
0.0
 70
     8
  0
VERTEX
  5
337E5
330
1A26B
100
AcDbEntity
  8
TITLE_BLOCK
  6
CONTINUOUS
 62
     7
100
AcDbVertex
100
AcDb2dVertex
 10
-13.491864
 20
-23.210781
 30
0.0
 70
     8
  0
VERTEX
  5
337E6
330
1A26B
100
AcDbEntity
  8
TITLE_BLOCK
  6
CONTINUOUS
 62
     7
100
AcDbVertex
100
AcDb2dVertex
 10
-13.463798
 20
-23.207974
 30
0.0
 70
     8
  0
VERTEX
  5
337E7
330
1A26B
100
AcDbEntity
  8
TITLE_BLOCK
  6
CONTINUOUS
 62
     7
100
AcDbVertex
100
AcDb2dVertex
 10
-13.437222
 20
-23.210501
 30
0.0
 70
     8
  0
VERTEX
  5
337E8
330
1A26B
100
AcDbEntity
  8
TITLE_BLOCK
  6
CONTINUOUS
 62
     7
100
AcDbVertex
100
AcDb2dVertex
 10
-13.412839
 20
-23.22062
 30
0.0
 70
     8
  0
VERTEX
  5
337E9
330
1A26B
100
AcDbEntity
  8
TITLE_BLOCK
  6
CONTINUOUS
 62
     7
100
AcDbVertex
100
AcDb2dVertex
 10
-13.401689
 20
-23.229232
 30
0.0
 70
     8
  0
VERTEX
  5
337EA
330
1A26B
100
AcDbEntity
  8
TITLE_BLOCK
  6
CONTINUOUS
 62
     7
100
AcDbVertex
100
AcDb2dVertex
 10
-13.391351
 20
-23.24059
 30
0.0
 70
     8
  0
VERTEX
  5
337EB
330
1A26B
100
AcDbEntity
  8
TITLE_BLOCK
  6
CONTINUOUS
 62
     7
100
AcDbVertex
100
AcDb2dVertex
 10
-13.377617
 20
-23.253459
 30
0.0
 70
     8
  0
VERTEX
  5
337EC
330
1A26B
100
AcDbEntity
  8
TITLE_BLOCK
  6
CONTINUOUS
 62
     7
100
AcDbVertex
100
AcDb2dVertex
 10
-13.361867
 20
-23.264563
 30
0.0
 70
     8
  0
VERTEX
  5
337ED
330
1A26B
100
AcDbEntity
  8
TITLE_BLOCK
  6
CONTINUOUS
 62
     7
100
AcDbVertex
100
AcDb2dVertex
 10
-13.344486
 20
-23.273825
 30
0.0
 70
     8
  0
VERTEX
  5
337EE
330
1A26B
100
AcDbEntity
  8
TITLE_BLOCK
  6
CONTINUOUS
 62
     7
100
AcDbVertex
100
AcDb2dVertex
 10
-13.325857
 20
-23.281169
 30
0.0
 70
     8
  0
VERTEX
  5
337EF
330
1A26B
100
AcDbEntity
  8
TITLE_BLOCK
  6
CONTINUOUS
 62
     7
100
AcDbVertex
100
AcDb2dVertex
 10
-13.306365
 20
-23.286518
 30
0.0
 70
     8
  0
VERTEX
  5
337F0
330
1A26B
100
AcDbEntity
  8
TITLE_BLOCK
  6
CONTINUOUS
 62
     7
100
AcDbVertex
100
AcDb2dVertex
 10
-13.286395
 20
-23.289795
 30
0.0
 70
     8
  0
VERTEX
  5
337F1
330
1A26B
100
AcDbEntity
  8
TITLE_BLOCK
  6
CONTINUOUS
 62
     7
100
AcDbVertex
100
AcDb2dVertex
 10
-13.26633
 20
-23.290924
 30
0.0
 70
     8
  0
VERTEX
  5
337F2
330
1A26B
100
AcDbEntity
  8
TITLE_BLOCK
  6
CONTINUOUS
 62
     7
100
AcDbVertex
100
AcDb2dVertex
 10
-13.246556
 20
-23.289829
 30
0.0
 70
     8
  0
VERTEX
  5
337F3
330
1A26B
100
AcDbEntity
  8
TITLE_BLOCK
  6
CONTINUOUS
 62
     7
100
AcDbVertex
100
AcDb2dVertex
 10
-13.227457
 20
-23.286431
 30
0.0
 70
     8
  0
VERTEX
  5
337F4
330
1A26B
100
AcDbEntity
  8
TITLE_BLOCK
  6
CONTINUOUS
 62
     7
100
AcDbVertex
100
AcDb2dVertex
 10
-13.209417
 20
-23.280655
 30
0.0
 70
     8
  0
VERTEX
  5
337F5
330
1A26B
100
AcDbEntity
  8
TITLE_BLOCK
  6
CONTINUOUS
 62
     7
100
AcDbVertex
100
AcDb2dVertex
 10
-13.19282
 20
-23.272425
 30
0.0
 70
     8
  0
VERTEX
  5
337F6
330
1A26B
100
AcDbEntity
  8
TITLE_BLOCK
  6
CONTINUOUS
 62
     7
100
AcDbVertex
100
AcDb2dVertex
 10
-13.178052
 20
-23.261662
 30
0.0
 70
     8
  0
VERTEX
  5
337F7
330
1A26B
100
AcDbEntity
  8
TITLE_BLOCK
  6
CONTINUOUS
 62
     7
100
AcDbVertex
100
AcDb2dVertex
 10
-13.165495
 20
-23.248291
 30
0.0
 70
     8
  0
VERTEX
  5
337F8
330
1A26B
100
AcDbEntity
  8
TITLE_BLOCK
  6
CONTINUOUS
 62
     7
100
AcDbVertex
100
AcDb2dVertex
 10
-13.155536
 20
-23.232235
 30
0.0
 70
     8
  0
VERTEX
  5
337F9
330
1A26B
100
AcDbEntity
  8
TITLE_BLOCK
  6
CONTINUOUS
 62
     7
100
AcDbVertex
100
AcDb2dVertex
 10
-13.148558
 20
-23.213418
 30
0.0
 70
     8
  0
VERTEX
  5
337FA
330
1A26B
100
AcDbEntity
  8
TITLE_BLOCK
  6
CONTINUOUS
 62
     7
100
AcDbVertex
100
AcDb2dVertex
 10
-13.144945
 20
-23.191762
 30
0.0
 70
     8
  0
VERTEX
  5
337FB
330
1A26B
100
AcDbEntity
  8
TITLE_BLOCK
  6
CONTINUOUS
 62
     7
100
AcDbVertex
100
AcDb2dVertex
 10
-13.253366
 20
-23.164574
 30
0.0
 70
     8
  0
VERTEX
  5
337FC
330
1A26B
100
AcDbEntity
  8
TITLE_BLOCK
  6
CONTINUOUS
 62
     7
100
AcDbVertex
100
AcDb2dVertex
 10
-13.307855
 20
-23.151416
 30
0.0
 70
     8
  0
VERTEX
  5
337FD
330
1A26B
100
AcDbEntity
  8
TITLE_BLOCK
  6
CONTINUOUS
 62
     7
100
AcDbVertex
100
AcDb2dVertex
 10
-13.361512
 20
-23.136474
 30
0.0
 70
     8
  0
VERTEX
  5
337FE
330
1A26B
100
AcDbEntity
  8
TITLE_BLOCK
  6
CONTINUOUS
 62
     7
100
AcDbVertex
100
AcDb2dVertex
 10
-13.413575
 20
-23.118195
 30
0.0
 70
     8
  0
VERTEX
  5
337FF
330
1A26B
100
AcDbEntity
  8
TITLE_BLOCK
  6
CONTINUOUS
 62
     7
100
AcDbVertex
100
AcDb2dVertex
 10
-13.463279
 20
-23.095022
 30
0.0
 70
     8
  0
VERTEX
  5
33800
330
1A26B
100
AcDbEntity
  8
TITLE_BLOCK
  6
CONTINUOUS
 62
     7
100
AcDbVertex
100
AcDb2dVertex
 10
-13.487009
 20
-23.081115
 30
0.0
 70
     8
  0
VERTEX
  5
33801
330
1A26B
100
AcDbEntity
  8
TITLE_BLOCK
  6
CONTINUOUS
 62
     7
100
AcDbVertex
100
AcDb2dVertex
 10
-13.509863
 20
-23.065401
 30
0.0
 70
     8
  0
VERTEX
  5
33802
330
1A26B
100
AcDbEntity
  8
TITLE_BLOCK
  6
CONTINUOUS
 62
     7
100
AcDbVertex
100
AcDb2dVertex
 10
-13.531746
 20
-23.047687
 30
0.0
 70
     8
  0
VERTEX
  5
33803
330
1A26B
100
AcDbEntity
  8
TITLE_BLOCK
  6
CONTINUOUS
 62
     7
100
AcDbVertex
100
AcDb2dVertex
 10
-13.552562
 20
-23.027778
 30
0.0
 70
     8
  0
VERTEX
  5
33804
330
1A26B
100
AcDbEntity
  8
TITLE_BLOCK
  6
CONTINUOUS
 62
     7
100
AcDbVertex
100
AcDb2dVertex
 10
-13.492172
 20
-22.992582
 30
0.0
 70
     8
  0
VERTEX
  5
33805
330
1A26B
100
AcDbEntity
  8
TITLE_BLOCK
  6
CONTINUOUS
 62
     7
100
AcDbVertex
100
AcDb2dVertex
 10
-13.575765
 20
-22.992582
 30
0.0
 70
     8
  0
VERTEX
  5
33806
330
1A26B
100
AcDbEntity
  8
TITLE_BLOCK
  6
CONTINUOUS
 62
     7
100
AcDbVertex
100
AcDb2dVertex
 10
-13.575765
 20
-22.992582
 30
0.0
 70
     8
  0
VERTEX
  5
33807
330
1A26B
100
AcDbEntity
  8
TITLE_BLOCK
  6
CONTINUOUS
 62
     7
100
AcDbVertex
100
AcDb2dVertex
 10
-13.575765
 20
-22.992582
 30
0.0
 70
    16
  0
VERTEX
  5
33808
330
1A26B
100
AcDbEntity
  8
TITLE_BLOCK
  6
CONTINUOUS
 62
     7
100
AcDbVertex
100
AcDb2dVertex
 10
-13.554554
 20
-22.698168
 30
0.0
 70
    16
  0
VERTEX
  5
33809
330
1A26B
100
AcDbEntity
  8
TITLE_BLOCK
  6
CONTINUOUS
 62
     7
100
AcDbVertex
100
AcDb2dVertex
 10
-13.044164
 20
-22.682192
 30
0.0
 70
    16
  0
VERTEX
  5
3380A
330
1A26B
100
AcDbEntity
  8
TITLE_BLOCK
  6
CONTINUOUS
 62
     7
100
AcDbVertex
100
AcDb2dVertex
 10
-13.001781
 20
-22.969379
 30
0.0
 70
    16
  0
VERTEX
  5
3380B
330
1A26B
100
AcDbEntity
  8
TITLE_BLOCK
  6
CONTINUOUS
 62
     7
100
AcDbVertex
100
AcDb2dVertex
 10
-13.128968
 20
-22.975786
 30
0.0
 70
    16
  0
VERTEX
  5
3380C
330
1A26B
100
AcDbEntity
  8
TITLE_BLOCK
  6
CONTINUOUS
 62
     7
100
AcDbVertex
100
AcDb2dVertex
 10
-13.248578
 20
-22.924184
 30
0.0
 70
    16
  0
VERTEX
  5
3380D
330
1A26B
100
AcDbEntity
  8
TITLE_BLOCK
  6
CONTINUOUS
 62
     7
100
AcDbVertex
100
AcDb2dVertex
 10
-13.374945
 20
-22.924575
 30
0.0
 70
    16
  0
VERTEX
  5
3380E
330
1A26B
100
AcDbEntity
  8
TITLE_BLOCK
  6
CONTINUOUS
 62
     7
100
AcDbVertex
100
AcDb2dVertex
 10
-13.365375
 20
-23.046176
 30
0.0
 70
    16
  0
VERTEX
  5
3380F
330
1A26B
100
AcDbEntity
  8
TITLE_BLOCK
  6
CONTINUOUS
 62
     7
100
AcDbVertex
100
AcDb2dVertex
 10
-13.223343
 20
-23.017778
 30
0.0
 70
    16
  0
VERTEX
  5
33810
330
1A26B
100
AcDbEntity
  8
TITLE_BLOCK
  6
CONTINUOUS
 62
     7
100
AcDbVertex
100
AcDb2dVertex
 10
-13.139359
 20
-23.051372
 30
0.0
 70
    16
  0
VERTEX
  5
33811
330
1A26B
100
AcDbEntity
  8
TITLE_BLOCK
  6
CONTINUOUS
 62
     7
100
AcDbVertex
100
AcDb2dVertex
 10
-13.043343
 20
-23.064965
 30
0.0
 70
    16
  0
VERTEX
  5
33812
330
1A26B
100
AcDbEntity
  8
TITLE_BLOCK
  6
CONTINUOUS
 62
     7
100
AcDbVertex
100
AcDb2dVertex
 10
-12.982562
 20
-23.143364
 30
0.0
 70
    16
  0
VERTEX
  5
33813
330
1A26B
100
AcDbEntity
  8
TITLE_BLOCK
  6
CONTINUOUS
 62
     7
100
AcDbVertex
100
AcDb2dVertex
 10
-12.951781
 20
-23.228989
 30
0.0
 70
    16
  0
VERTEX
  5
33814
330
1A26B
100
AcDbEntity
  8
TITLE_BLOCK
  6
CONTINUOUS
 62
     7
100
AcDbVertex
100
AcDb2dVertex
 10
-13.014945
 20
-23.451372
 30
0.0
 70
    16
  0
VERTEX
  5
33815
330
1A26B
100
AcDbEntity
  8
TITLE_BLOCK
  6
CONTINUOUS
 62
     7
100
AcDbVertex
100
AcDb2dVertex
 10
-13.283343
 20
-23.474575
 30
0.0
 70
    16
  0
VERTEX
  5
33816
330
1A26B
100
AcDbEntity
  8
TITLE_BLOCK
  6
CONTINUOUS
 62
     7
100
AcDbVertex
100
AcDb2dVertex
 10
-13.470961
 20
-23.413364
 30
0.0
 70
    16
  0
VERTEX
  5
33817
330
1A26B
100
AcDbEntity
  8
TITLE_BLOCK
  6
CONTINUOUS
 62
     7
100
AcDbVertex
100
AcDb2dVertex
 10
-13.531781
 20
-23.364965
 30
0.0
 70
    16
  0
VERTEX
  5
33818
330
1A26B
100
AcDbEntity
  8
TITLE_BLOCK
  6
CONTINUOUS
 62
     7
100
AcDbVertex
100
AcDb2dVertex
 10
-13.570961
 20
-23.298559
 30
0.0
 70
    16
  0
VERTEX
  5
33819
330
1A26B
100
AcDbEntity
  8
TITLE_BLOCK
  6
CONTINUOUS
 62
     7
100
AcDbVertex
100
AcDb2dVertex
 10
-13.604945
 20
-23.230161
 30
0.0
 70
    16
  0
VERTEX
  5
3381A
330
1A26B
100
AcDbEntity
  8
TITLE_BLOCK
  6
CONTINUOUS
 62
     7
100
AcDbVertex
100
AcDb2dVertex
 10
-13.535375
 20
-23.232973
 30
0.0
 70
    16
  0
VERTEX
  5
3381B
330
1A26B
100
AcDbEntity
  8
TITLE_BLOCK
  6
CONTINUOUS
 62
     7
100
AcDbVertex
100
AcDb2dVertex
 10
-13.444164
 20
-23.172192
 30
0.0
 70
    16
  0
VERTEX
  5
3381C
330
1A26B
100
AcDbEntity
  8
TITLE_BLOCK
  6
CONTINUOUS
 62
     7
100
AcDbVertex
100
AcDb2dVertex
 10
-13.391351
 20
-23.24059
 30
0.0
 70
    16
  0
VERTEX
  5
3381D
330
1A26B
100
AcDbEntity
  8
TITLE_BLOCK
  6
CONTINUOUS
 62
     7
100
AcDbVertex
100
AcDb2dVertex
 10
-13.324164
 20
-23.313793
 30
0.0
 70
    16
  0
VERTEX
  5
3381E
330
1A26B
100
AcDbEntity
  8
TITLE_BLOCK
  6
CONTINUOUS
 62
     7
100
AcDbVertex
100
AcDb2dVertex
 10
-13.154554
 20
-23.314965
 30
0.0
 70
    16
  0
VERTEX
  5
3381F
330
1A26B
100
AcDbEntity
  8
TITLE_BLOCK
  6
CONTINUOUS
 62
     7
100
AcDbVertex
100
AcDb2dVertex
 10
-13.144945
 20
-23.191762
 30
0.0
 70
    16
  0
VERTEX
  5
33820
330
1A26B
100
AcDbEntity
  8
TITLE_BLOCK
  6
CONTINUOUS
 62
     7
100
AcDbVertex
100
AcDb2dVertex
 10
-13.286976
 20
-23.15059
 30
0.0
 70
    16
  0
VERTEX
  5
33821
330
1A26B
100
AcDbEntity
  8
TITLE_BLOCK
  6
CONTINUOUS
 62
     7
100
AcDbVertex
100
AcDb2dVertex
 10
-13.444554
 20
-23.140161
 30
0.0
 70
    16
  0
VERTEX
  5
33822
330
1A26B
100
AcDbEntity
  8
TITLE_BLOCK
  6
CONTINUOUS
 62
     7
100
AcDbVertex
100
AcDb2dVertex
 10
-13.552562
 20
-23.027778
 30
0.0
 70
    16
  0
VERTEX
  5
33823
330
1A26B
100
AcDbEntity
  8
TITLE_BLOCK
  6
CONTINUOUS
 62
     7
100
AcDbVertex
100
AcDb2dVertex
 10
-13.552562
 20
-23.027778
 30
0.0
 70
    16
  0
VERTEX
  5
33824
330
1A26B
100
AcDbEntity
  8
TITLE_BLOCK
  6
CONTINUOUS
 62
     7
100
AcDbVertex
100
AcDb2dVertex
 10
-13.492172
 20
-22.992582
 30
0.0
 70
    16
  0
VERTEX
  5
33825
330
1A26B
100
AcDbEntity
  8
TITLE_BLOCK
  6
CONTINUOUS
 62
     7
100
AcDbVertex
100
AcDb2dVertex
 10
-13.492172
 20
-22.992582
 30
0.0
 70
    16
  0
VERTEX
  5
33826
330
1A26B
100
AcDbEntity
  8
TITLE_BLOCK
  6
CONTINUOUS
 62
     7
100
AcDbVertex
100
AcDb2dVertex
 10
-13.512953
 20
-22.992582
 30
0.0
 70
    16
  0
VERTEX
  5
33827
330
1A26B
100
AcDbEntity
  8
TITLE_BLOCK
  6
CONTINUOUS
 62
     7
100
AcDbVertex
100
AcDb2dVertex
 10
-13.554945
 20
-22.992582
 30
0.0
 70
    16
  0
VERTEX
  5
33828
330
1A26B
100
AcDbEntity
  8
TITLE_BLOCK
  6
CONTINUOUS
 62
     7
100
AcDbVertex
100
AcDb2dVertex
 10
-13.575765
 20
-22.992582
 30
0.0
 70
    16
  0
VERTEX
  5
33829
330
1A26B
100
AcDbEntity
  8
TITLE_BLOCK
  6
CONTINUOUS
 62
     7
100
AcDbVertex
100
AcDb2dVertex
 10
-13.575765
 20
-22.992582
 30
0.0
 70
    16
  0
VERTEX
  5
3382A
330
1A26B
100
AcDbEntity
  8
TITLE_BLOCK
  6
CONTINUOUS
 62
     7
100
AcDbVertex
100
AcDb2dVertex
 10
-13.575765
 20
-22.992582
 30
0.0
 70
    16
  0
VERTEX
  5
3382B
330
1A26B
100
AcDbEntity
  8
TITLE_BLOCK
  6
CONTINUOUS
 62
     7
100
AcDbVertex
100
AcDb2dVertex
 10
-13.575765
 20
-22.992582
 30
0.0
 70
    16
  0
SEQEND
  5
3382C
330
1A26B
100
AcDbEntity
  8
TITLE_BLOCK
  6
CONTINUOUS
 62
     7
  0
POLYLINE
  5
1A305
330
33219
100
AcDbEntity
  8
TITLE_BLOCK
  6
CONTINUOUS
 62
     7
100
AcDb2dPolyline
 66
     1
 10
0.0
 20
0.0
 30
0.0
 70
     5
 75
     5
  0
VERTEX
  5
3382D
330
1A305
100
AcDbEntity
  8
TITLE_BLOCK
  6
CONTINUOUS
 62
     7
100
AcDbVertex
100
AcDb2dVertex
 10
-20.961371
 20
-22.919379
 30
0.0
 70
     8
  0
VERTEX
  5
3382E
330
1A305
100
AcDbEntity
  8
TITLE_BLOCK
  6
CONTINUOUS
 62
     7
100
AcDbVertex
100
AcDb2dVertex
 10
-20.809769
 20
-22.93059
 30
0.0
 70
     8
  0
VERTEX
  5
3382F
330
1A305
100
AcDbEntity
  8
TITLE_BLOCK
  6
CONTINUOUS
 62
     7
100
AcDbVertex
100
AcDb2dVertex
 10
-20.806666
 20
-23.001621
 30
0.0
 70
     8
  0
VERTEX
  5
33830
330
1A305
100
AcDbEntity
  8
TITLE_BLOCK
  6
CONTINUOUS
 62
     7
100
AcDbVertex
100
AcDb2dVertex
 10
-20.804164
 20
-23.072973
 30
0.0
 70
     8
  0
VERTEX
  5
33831
330
1A305
100
AcDbEntity
  8
TITLE_BLOCK
  6
CONTINUOUS
 62
     7
100
AcDbVertex
100
AcDb2dVertex
 10
-20.964554
 20
-23.088168
 30
0.0
 70
     8
  0
VERTEX
  5
33832
330
1A305
100
AcDbEntity
  8
TITLE_BLOCK
  6
CONTINUOUS
 62
     7
100
AcDbVertex
100
AcDb2dVertex
 10
-20.961371
 20
-22.919379
 30
0.0
 70
     8
  0
VERTEX
  5
33833
330
1A305
100
AcDbEntity
  8
TITLE_BLOCK
  6
CONTINUOUS
 62
     7
100
AcDbVertex
100
AcDb2dVertex
 10
-20.961371
 20
-22.919379
 30
0.0
 70
     8
  0
VERTEX
  5
33834
330
1A305
100
AcDbEntity
  8
TITLE_BLOCK
  6
CONTINUOUS
 62
     7
100
AcDbVertex
100
AcDb2dVertex
 10
-20.961371
 20
-22.919379
 30
0.0
 70
    16
  0
VERTEX
  5
33835
330
1A305
100
AcDbEntity
  8
TITLE_BLOCK
  6
CONTINUOUS
 62
     7
100
AcDbVertex
100
AcDb2dVertex
 10
-20.910961
 20
-22.922973
 30
0.0
 70
    16
  0
VERTEX
  5
33836
330
1A305
100
AcDbEntity
  8
TITLE_BLOCK
  6
CONTINUOUS
 62
     7
100
AcDbVertex
100
AcDb2dVertex
 10
-20.86016
 20
-22.926567
 30
0.0
 70
    16
  0
VERTEX
  5
33837
330
1A305
100
AcDbEntity
  8
TITLE_BLOCK
  6
CONTINUOUS
 62
     7
100
AcDbVertex
100
AcDb2dVertex
 10
-20.809769
 20
-22.93059
 30
0.0
 70
    16
  0
VERTEX
  5
33838
330
1A305
100
AcDbEntity
  8
TITLE_BLOCK
  6
CONTINUOUS
 62
     7
100
AcDbVertex
100
AcDb2dVertex
 10
-20.807367
 20
-22.977778
 30
0.0
 70
    16
  0
VERTEX
  5
33839
330
1A305
100
AcDbEntity
  8
TITLE_BLOCK
  6
CONTINUOUS
 62
     7
100
AcDbVertex
100
AcDb2dVertex
 10
-20.805765
 20
-23.025356
 30
0.0
 70
    16
  0
VERTEX
  5
3383A
330
1A305
100
AcDbEntity
  8
TITLE_BLOCK
  6
CONTINUOUS
 62
     7
100
AcDbVertex
100
AcDb2dVertex
 10
-20.804164
 20
-23.072973
 30
0.0
 70
    16
  0
VERTEX
  5
3383B
330
1A305
100
AcDbEntity
  8
TITLE_BLOCK
  6
CONTINUOUS
 62
     7
100
AcDbVertex
100
AcDb2dVertex
 10
-20.857757
 20
-23.078168
 30
0.0
 70
    16
  0
VERTEX
  5
3383C
330
1A305
100
AcDbEntity
  8
TITLE_BLOCK
  6
CONTINUOUS
 62
     7
100
AcDbVertex
100
AcDb2dVertex
 10
-20.911371
 20
-23.083364
 30
0.0
 70
    16
  0
VERTEX
  5
3383D
330
1A305
100
AcDbEntity
  8
TITLE_BLOCK
  6
CONTINUOUS
 62
     7
100
AcDbVertex
100
AcDb2dVertex
 10
-20.964554
 20
-23.088168
 30
0.0
 70
    16
  0
VERTEX
  5
3383E
330
1A305
100
AcDbEntity
  8
TITLE_BLOCK
  6
CONTINUOUS
 62
     7
100
AcDbVertex
100
AcDb2dVertex
 10
-20.963754
 20
-23.031762
 30
0.0
 70
    16
  0
VERTEX
  5
3383F
330
1A305
100
AcDbEntity
  8
TITLE_BLOCK
  6
CONTINUOUS
 62
     7
100
AcDbVertex
100
AcDb2dVertex
 10
-20.962562
 20
-22.975356
 30
0.0
 70
    16
  0
VERTEX
  5
33840
330
1A305
100
AcDbEntity
  8
TITLE_BLOCK
  6
CONTINUOUS
 62
     7
100
AcDbVertex
100
AcDb2dVertex
 10
-20.961371
 20
-22.919379
 30
0.0
 70
    16
  0
VERTEX
  5
33841
330
1A305
100
AcDbEntity
  8
TITLE_BLOCK
  6
CONTINUOUS
 62
     7
100
AcDbVertex
100
AcDb2dVertex
 10
-20.961371
 20
-22.919379
 30
0.0
 70
    16
  0
VERTEX
  5
33842
330
1A305
100
AcDbEntity
  8
TITLE_BLOCK
  6
CONTINUOUS
 62
     7
100
AcDbVertex
100
AcDb2dVertex
 10
-20.961371
 20
-22.919379
 30
0.0
 70
    16
  0
VERTEX
  5
33843
330
1A305
100
AcDbEntity
  8
TITLE_BLOCK
  6
CONTINUOUS
 62
     7
100
AcDbVertex
100
AcDb2dVertex
 10
-20.961371
 20
-22.919379
 30
0.0
 70
    16
  0
SEQEND
  5
33844
330
1A305
100
AcDbEntity
  8
TITLE_BLOCK
  6
CONTINUOUS
 62
     7
  0
POLYLINE
  5
1A31D
330
33219
100
AcDbEntity
  8
TITLE_BLOCK
  6
CONTINUOUS
 62
     7
100
AcDb2dPolyline
 66
     1
 10
0.0
 20
0.0
 30
0.0
 70
     5
 75
     5
  0
VERTEX
  5
33845
330
1A31D
100
AcDbEntity
  8
TITLE_BLOCK
  6
CONTINUOUS
 62
     7
100
AcDbVertex
100
AcDb2dVertex
 10
-17.232953
 20
-23.170161
 30
0.0
 70
     8
  0
VERTEX
  5
33846
330
1A31D
100
AcDbEntity
  8
TITLE_BLOCK
  6
CONTINUOUS
 62
     7
100
AcDbVertex
100
AcDb2dVertex
 10
-17.187411
 20
-23.042665
 30
0.0
 70
     8
  0
VERTEX
  5
33847
330
1A31D
100
AcDbEntity
  8
TITLE_BLOCK
  6
CONTINUOUS
 62
     7
100
AcDbVertex
100
AcDb2dVertex
 10
-17.140961
 20
-22.915786
 30
0.0
 70
     8
  0
VERTEX
  5
33848
330
1A31D
100
AcDbEntity
  8
TITLE_BLOCK
  6
CONTINUOUS
 62
     7
100
AcDbVertex
100
AcDb2dVertex
 10
-17.096117
 20
-23.037924
 30
0.0
 70
     8
  0
VERTEX
  5
33849
330
1A31D
100
AcDbEntity
  8
TITLE_BLOCK
  6
CONTINUOUS
 62
     7
100
AcDbVertex
100
AcDb2dVertex
 10
-17.04975
 20
-23.15977
 30
0.0
 70
     8
  0
VERTEX
  5
3384A
330
1A31D
100
AcDbEntity
  8
TITLE_BLOCK
  6
CONTINUOUS
 62
     7
100
AcDbVertex
100
AcDb2dVertex
 10
-17.232953
 20
-23.170161
 30
0.0
 70
     8
  0
VERTEX
  5
3384B
330
1A31D
100
AcDbEntity
  8
TITLE_BLOCK
  6
CONTINUOUS
 62
     7
100
AcDbVertex
100
AcDb2dVertex
 10
-17.232953
 20
-23.170161
 30
0.0
 70
     8
  0
VERTEX
  5
3384C
330
1A31D
100
AcDbEntity
  8
TITLE_BLOCK
  6
CONTINUOUS
 62
     7
100
AcDbVertex
100
AcDb2dVertex
 10
-17.232953
 20
-23.170161
 30
0.0
 70
    16
  0
VERTEX
  5
3384D
330
1A31D
100
AcDbEntity
  8
TITLE_BLOCK
  6
CONTINUOUS
 62
     7
100
AcDbVertex
100
AcDb2dVertex
 10
-17.202562
 20
-23.084965
 30
0.0
 70
    16
  0
VERTEX
  5
3384E
330
1A31D
100
AcDbEntity
  8
TITLE_BLOCK
  6
CONTINUOUS
 62
     7
100
AcDbVertex
100
AcDb2dVertex
 10
-17.172562
 20
-23.000161
 30
0.0
 70
    16
  0
VERTEX
  5
3384F
330
1A31D
100
AcDbEntity
  8
TITLE_BLOCK
  6
CONTINUOUS
 62
     7
100
AcDbVertex
100
AcDb2dVertex
 10
-17.140961
 20
-22.915786
 30
0.0
 70
    16
  0
VERTEX
  5
33850
330
1A31D
100
AcDbEntity
  8
TITLE_BLOCK
  6
CONTINUOUS
 62
     7
100
AcDbVertex
100
AcDb2dVertex
 10
-17.111781
 20
-22.997387
 30
0.0
 70
    16
  0
VERTEX
  5
33851
330
1A31D
100
AcDbEntity
  8
TITLE_BLOCK
  6
CONTINUOUS
 62
     7
100
AcDbVertex
100
AcDb2dVertex
 10
-17.080961
 20
-23.078559
 30
0.0
 70
    16
  0
VERTEX
  5
33852
330
1A31D
100
AcDbEntity
  8
TITLE_BLOCK
  6
CONTINUOUS
 62
     7
100
AcDbVertex
100
AcDb2dVertex
 10
-17.04975
 20
-23.15977
 30
0.0
 70
    16
  0
VERTEX
  5
33853
330
1A31D
100
AcDbEntity
  8
TITLE_BLOCK
  6
CONTINUOUS
 62
     7
100
AcDbVertex
100
AcDb2dVertex
 10
-17.110961
 20
-23.163364
 30
0.0
 70
    16
  0
VERTEX
  5
33854
330
1A31D
100
AcDbEntity
  8
TITLE_BLOCK
  6
CONTINUOUS
 62
     7
100
AcDbVertex
100
AcDb2dVertex
 10
-17.172172
 20
-23.166567
 30
0.0
 70
    16
  0
VERTEX
  5
33855
330
1A31D
100
AcDbEntity
  8
TITLE_BLOCK
  6
CONTINUOUS
 62
     7
100
AcDbVertex
100
AcDb2dVertex
 10
-17.232953
 20
-23.170161
 30
0.0
 70
    16
  0
VERTEX
  5
33856
330
1A31D
100
AcDbEntity
  8
TITLE_BLOCK
  6
CONTINUOUS
 62
     7
100
AcDbVertex
100
AcDb2dVertex
 10
-17.232953
 20
-23.170161
 30
0.0
 70
    16
  0
VERTEX
  5
33857
330
1A31D
100
AcDbEntity
  8
TITLE_BLOCK
  6
CONTINUOUS
 62
     7
100
AcDbVertex
100
AcDb2dVertex
 10
-17.232953
 20
-23.170161
 30
0.0
 70
    16
  0
VERTEX
  5
33858
330
1A31D
100
AcDbEntity
  8
TITLE_BLOCK
  6
CONTINUOUS
 62
     7
100
AcDbVertex
100
AcDb2dVertex
 10
-17.232953
 20
-23.170161
 30
0.0
 70
    16
  0
SEQEND
  5
33859
330
1A31D
100
AcDbEntity
  8
TITLE_BLOCK
  6
CONTINUOUS
 62
     7
  0
LINE
  5
1A332
330
33219
100
AcDbEntity
  8
TITLE_BLOCK
  6
CONTINUOUS
 62
     7
100
AcDbLine
 10
-9.62
 20
-17.5
 30
0.0
 11
-9.62
 21
-25.0
 31
0.0
  0
LINE
  5
1A333
330
33219
100
AcDbEntity
  8
TITLE_BLOCK
  6
CONTINUOUS
 62
     7
100
AcDbLine
 10
-9.12
 20
-17.5
 30
0.0
 11
-9.12
 21
-25.0
 31
0.0
  0
LINE
  5
1A334
330
33219
100
AcDbEntity
  8
TITLE_BLOCK
  6
CONTINUOUS
 62
     7
100
AcDbLine
 10
-9.12
 20
-25.0
 30
0.0
 11
27.0
 21
-25.0
 31
0.0
  0
LINE
  5
1A335
330
33219
100
AcDbEntity
  8
TITLE_BLOCK
  6
CONTINUOUS
 62
     7
100
AcDbLine
 10
-9.12
 20
-17.5
 30
0.0
 11
27.0
 21
-17.5
 31
0.0
  0
TEXT
  5
1A33B
330
33219
100
AcDbEntity
  8
TITLE_BLOCK
100
AcDbText
 10
12.17
 20
-20.88
 30
0.0
 40
1.0
  1
ECLIPSE 193
 72
     4
 11
16.74
 21
-20.38
 31
0.0
100
AcDbText
  0
TEXT
  5
1A33C
330
33219
100
AcDbEntity
  8
TITLE_BLOCK
100
AcDbText
 10
11.08
 20
-22.56
 30
0.0
 40
1.0
  1
1/2" OVERHANG
 72
     4
 11
16.74
 21
-22.06
 31
0.0
100
AcDbText
  0
TEXT
  5
1AC46
330
33219
100
AcDbEntity
  8
CUTOUT_TEMPLATE
100
AcDbText
 10
-8.325409
 20
-19.087531
 30
0.0
 40
0.38
  1
Eclipse provides DXF cutout templates for
100
AcDbText
  0
TEXT
  5
1AC47
330
33219
100
AcDbEntity
  8
CUTOUT_TEMPLATE
100
AcDbText
 10
-8.325409
 20
-19.725931
 30
0.0
 40
0.38
  1
the convenience of the fabricator. Stainless
100
AcDbText
  0
TEXT
  5
1AC48
330
33219
100
AcDbEntity
  8
CUTOUT_TEMPLATE
100
AcDbText
 10
-8.325409
 20
-20.364331
 30
0.0
 40
0.38
  1
sinks have 1/8" reveal, ceramic sinks have 
100
AcDbText
  0
TEXT
  5
1AC49
330
33219
100
AcDbEntity
  8
CUTOUT_TEMPLATE
100
AcDbText
 10
-8.325409
 20
-21.002731
 30
0.0
 40
0.38
  1
1/2" overhang. Due to differences in
100
AcDbText
  0
TEXT
  5
1AC4A
330
33219
100
AcDbEntity
  8
CUTOUT_TEMPLATE
100
AcDbText
 10
-8.325409
 20
-21.641131
 30
0.0
 40
0.38
  1
fabricator preference, Eclipse cannot accept 
100
AcDbText
  0
TEXT
  5
1AC4B
330
33219
100
AcDbEntity
  8
CUTOUT_TEMPLATE
100
AcDbText
 10
-8.325409
 20
-22.279531
 30
0.0
 40
0.38
  1
responsibility for the finished cutout. Please 
100
AcDbText
  0
TEXT
  5
1AC4C
330
33219
100
AcDbEntity
  8
CUTOUT_TEMPLATE
100
AcDbText
 10
-8.325409
 20
-22.917931
 30
0.0
 40
0.38
  1
check the files carefully to ensure that the 
100
AcDbText
  0
TEXT
  5
1AC4D
330
33219
100
AcDbEntity
  8
CUTOUT_TEMPLATE
100
AcDbText
 10
-8.325409
 20
-23.556331
 30
0.0
 40
0.38
  1
cutout suits your needs before proceeding.
100
AcDbText
  0
LINE
  5
331E6
330
33219
100
AcDbEntity
  8
1
 62
     1
100
AcDbLine
 10
-3.0
 20
0.0
 30
0.0
 11
3.0
 21
0.0
 31
0.0
  0
LINE
  5
331E7
330
33219
100
AcDbEntity
  8
1
 62
     1
100
AcDbLine
 10
0.0
 20
3.0
 30
0.0
 11
0.0
 21
-3.0
 31
0.0
  0
ARC
  5
331E8
330
33219
100
AcDbEntity
  8
1
 62
     1
100
AcDbCircle
 10
0.000032
 20
-9.729428
 30
0.0
 40
16.22940167212228
100
AcDbArc
 50
80.762822
 51
99.237392
  0
ARC
  5
331E9
330
33219
100
AcDbEntity
  8
1
 62
     1
100
AcDbCircle
 10
1.574311
 20
-0.362066
 30
0.0
 40
6.730993745781634
100
AcDbArc
 50
30.501676
 51
81.190139
  0
ARC
  5
331EA
330
33219
100
AcDbEntity
  8
1
 62
     1
100
AcDbCircle
 10
2.066766
 20
0.0
 30
0.0
 40
6.123230577448913
100
AcDbArc
 50
330.078562
 51
29.921438
  0
ARC
  5
331EB
330
33219
100
AcDbEntity
  8
1
 62
     1
100
AcDbCircle
 10
1.574311
 20
0.362066
 30
0.0
 40
6.730993745781658
100
AcDbArc
 50
278.809861
 51
329.498324
  0
ARC
  5
331EC
330
33219
100
AcDbEntity
  8
1
 62
     1
100
AcDbCircle
 10
0.000032
 20
9.729428
 30
0.0
 40
16.22940167212234
100
AcDbArc
 50
260.762608
 51
279.237178
  0
ARC
  5
331ED
330
33219
100
AcDbEntity
  8
1
 62
     1
100
AcDbCircle
 10
-1.574232
 20
0.362258
 30
0.0
 40
6.731185157240708
100
AcDbArc
 50
210.502709
 51
261.189745
  0
ARC
  5
331EE
330
33219
100
AcDbEntity
  8
1
 62
     1
100
AcDbCircle
 10
-2.066278
 20
0.0
 30
0.0
 40
6.123679441340557
100
AcDbArc
 50
150.080871
 51
209.919129
  0
ARC
  5
331EF
330
33219
100
AcDbEntity
  8
1
 62
     1
100
AcDbCircle
 10
-1.574232
 20
-0.362258
 30
0.0
 40
6.731185157240557
100
AcDbArc
 50
98.810255
 51
149.497291
  0
ARC
  5
331F2
330
33219
100
AcDbEntity
  8
1
  6
DASHDOT
 62
     1
100
AcDbCircle
 10
1.574311
 20
-0.362066
 30
0.0
 40
8.110993745781634
100
AcDbArc
 50
30.501676
 51
75.767621
  0
ARC
  5
331F3
330
33219
100
AcDbEntity
  8
1
  6
DASHDOT
 62
     1
100
AcDbCircle
 10
2.066766
 20
0.0
 30
0.0
 40
7.503230577448914
100
AcDbArc
 50
330.078562
 51
29.921438
  0
ARC
  5
331F4
330
33219
100
AcDbEntity
  8
1
  6
DASHDOT
 62
     1
100
AcDbCircle
 10
1.574311
 20
0.362066
 30
0.0
 40
8.110993745781659
100
AcDbArc
 50
278.809861
 51
329.498324
  0
ARC
  5
331F5
330
33219
100
AcDbEntity
  8
1
  6
DASHDOT
 62
     1
100
AcDbCircle
 10
0.000032
 20
9.729428
 30
0.0
 40
17.60940167212234
100
AcDbArc
 50
260.762608
 51
279.237178
  0
ARC
  5
331F6
330
33219
100
AcDbEntity
  8
1
  6
DASHDOT
 62
     1
100
AcDbCircle
 10
-1.574232
 20
0.362258
 30
0.0
 40
8.111185157240708
100
AcDbArc
 50
210.502709
 51
261.189745
  0
ARC
  5
331F7
330
33219
100
AcDbEntity
  8
1
  6
DASHDOT
 62
     1
100
AcDbCircle
 10
-2.066278
 20
0.0
 30
0.0
 40
7.503679441340558
100
AcDbArc
 50
150.080871
 51
209.919129
  0
ARC
  5
331F8
330
33219
100
AcDbEntity
  8
1
  6
DASHDOT
 62
     1
100
AcDbCircle
 10
-1.574232
 20
-0.362258
 30
0.0
 40
8.111185157240557
100
AcDbArc
 50
104.232199
 51
149.497291
  0
LINE
  5
331F9
330
33219
100
AcDbEntity
  8
1
  6
DASHDOT
 62
     1
100
AcDbLine
 10
3.568441
 20
7.499974
 30
0.0
 11
-3.568384
 21
7.499974
 31
0.0
  0
TEXT
  5
331FA
330
33219
100
AcDbEntity
  8
CUTOUT_TEMPLATE
100
AcDbText
 10
-9.670513
 20
4.928276
 30
0.0
 40
0.25
  1
SINK RIM
100
AcDbText
  0
TEXT
  5
331FB
330
33219
100
AcDbEntity
  8
CUTOUT_TEMPLATE
100
AcDbText
 10
4.438289
 20
-4.146732
 30
0.0
 40
0.25
  1
CUT LINE
100
AcDbText
  0
ENDSEC
  0
SECTION
  2
OBJECTS
  0
DICTIONARY
  5
33207
330
0
100
AcDbDictionary
  3
ACAD_COLOR
350
1A5E1
  3
ACAD_GROUP
350
33208
  3
ACAD_LAYOUT
350
33214
  3
ACAD_MATERIAL
350
1A5E2
  3
ACAD_MLINESTYLE
350
33211
  3
ACAD_PLOTSETTINGS
350
19
  3
ACDBHEADERROUNDTRIPXREC
350
3385A
  0
DICTIONARY
  5
1A5E1
102
{ACAD_REACTORS
330
33207
102
}
330
33207
100
AcDbDictionary
  0
DICTIONARY
  5
33208
102
{ACAD_REACTORS
330
33207
102
}
330
33207
100
AcDbDictionary
  0
DICTIONARY
  5
33214
102
{ACAD_REACTORS
330
33207
102
}
330
33207
100
AcDbDictionary
  0
DICTIONARY
  5
1A5E2
102
{ACAD_REACTORS
330
33207
102
}
330
33207
100
AcDbDictionary
  0
DICTIONARY
  5
33211
102
{ACAD_REACTORS
330
33207
102
}
330
33207
100
AcDbDictionary
  3
STANDARD
350
33212
  0
DICTIONARY
  5
19
102
{ACAD_REACTORS
330
33207
102
}
330
33207
100
AcDbDictionary
  0
DICTIONARY
  5
3385A
102
{ACAD_REACTORS
330
33207
102
}
330
33207
100
AcDbDictionary
  3
CEPSNTYPE
350
33863
  3
COLORDICT
350
3387A
  3
DIMSTYLEDATA
350
33879
  3
FINGERPRINTGUID
350
33864
  3
HYPERLINKBASE
350
3385D
  3
INSUNITS
350
33862
  3
LAYOUTDICT
350
3385F
  3
LWETCUNION
350
33861
  3
MATERIALDICT
350
3387B
  3
PLOTSETDICT
350
33860
  3
PSVPSCALE
350
33866
  3
PUCSBASE
350
33869
  3
PUCSORGBACK
350
3386F
  3
PUCSORGBOTTOM
350
3386B
  3
PUCSORGFRONT
350
3386E
  3
PUCSORGLEFT
350
3386C
  3
PUCSORGRIGHT
350
3386D
  3
PUCSORGTOP
350
3386A
  3
PUCSORTHOREF
350
33867
  3
PUCSORTHOVIEW
350
33868
  3
STYLESHEET
350
3385E
  3
TSTACKALIGN
350
3385B
  3
TSTACKSIZE
350
3385C
  3
UCSBASE
350
33872
  3
UCSORGBACK
350
33878
  3
UCSORGBOTTOM
350
33874
  3
UCSORGFRONT
350
33877
  3
UCSORGLEFT
350
33875
  3
UCSORGRIGHT
350
33876
  3
UCSORGTOP
350
33873
  3
UCSORTHOREF
350
33870
  3
UCSORTHOVIEW
350
33871
  3
VERSIONGUID
350
33865
  0
MLINESTYLE
  5
33212
102
{ACAD_REACTORS
330
33211
102
}
330
33211
100
AcDbMlineStyle
  2
Standard
 70
     0
  3

 62
   256
 51
90.0
 52
90.0
 71
     2
 49
0.5
 62
   256
  6
BYLAYER
 49
-0.5
 62
   256
  6
BYLAYER
  0
XRECORD
  5
33863
102
{ACAD_REACTORS
330
3385A
102
}
330
3385A
100
AcDbXrecord
 90
        0
  0
XRECORD
  5
3387A
102
{ACAD_REACTORS
330
3385A
102
}
330
3385A
100
AcDbXrecord
340
1A5E1
  0
XRECORD
  5
33879
102
{ACAD_REACTORS
330
3385A
102
}
330
3385A
100
AcDbXrecord
1000
DSTYLE
1002
{
1070
   278
 70
     0
1070
   371
 70
     0
1070
   372
 70
     0
1070
    40
 40
10.0
1070
   340
340
3320C
1002
}
  0
XRECORD
  5
33864
102
{ACAD_REACTORS
330
3385A
102
}
330
3385A
100
AcDbXrecord
  1

  0
XRECORD
  5
3385D
102
{ACAD_REACTORS
330
3385A
102
}
330
3385A
100
AcDbXrecord
  1

  0
XRECORD
  5
33862
102
{ACAD_REACTORS
330
3385A
102
}
330
3385A
100
AcDbXrecord
 90
        0
  0
XRECORD
  5
3385F
102
{ACAD_REACTORS
330
3385A
102
}
330
3385A
100
AcDbXrecord
340
33214
  0
XRECORD
  5
33861
102
{ACAD_REACTORS
330
3385A
102
}
330
3385A
100
AcDbXrecord
 90
    10781
  0
XRECORD
  5
3387B
102
{ACAD_REACTORS
330
3385A
102
}
330
3385A
100
AcDbXrecord
340
1A5E2
  0
XRECORD
  5
33860
102
{ACAD_REACTORS
330
3385A
102
}
330
3385A
100
AcDbXrecord
340
19
  0
XRECORD
  5
33866
102
{ACAD_REACTORS
330
3385A
102
}
330
3385A
100
AcDbXrecord
 40
0.0
  0
XRECORD
  5
33869
102
{ACAD_REACTORS
330
3385A
102
}
330
3385A
100
AcDbXrecord
340
0
  0
XRECORD
  5
3386F
102
{ACAD_REACTORS
330
3385A
102
}
330
3385A
100
AcDbXrecord
 10
0.0
 20
0.0
 30
0.0
  0
XRECORD
  5
3386B
102
{ACAD_REACTORS
330
3385A
102
}
330
3385A
100
AcDbXrecord
 10
0.0
 20
0.0
 30
0.0
  0
XRECORD
  5
3386E
102
{ACAD_REACTORS
330
3385A
102
}
330
3385A
100
AcDbXrecord
 10
0.0
 20
0.0
 30
0.0
  0
XRECORD
  5
3386C
102
{ACAD_REACTORS
330
3385A
102
}
330
3385A
100
AcDbXrecord
 10
0.0
 20
0.0
 30
0.0
  0
XRECORD
  5
3386D
102
{ACAD_REACTORS
330
3385A
102
}
330
3385A
100
AcDbXrecord
 10
0.0
 20
0.0
 30
0.0
  0
XRECORD
  5
3386A
102
{ACAD_REACTORS
330
3385A
102
}
330
3385A
100
AcDbXrecord
 10
0.0
 20
0.0
 30
0.0
  0
XRECORD
  5
33867
102
{ACAD_REACTORS
330
3385A
102
}
330
3385A
100
AcDbXrecord
340
0
  0
XRECORD
  5
33868
102
{ACAD_REACTORS
330
3385A
102
}
330
3385A
100
AcDbXrecord
 70
     0
  0
XRECORD
  5
3385E
102
{ACAD_REACTORS
330
3385A
102
}
330
3385A
100
AcDbXrecord
  1

  0
XRECORD
  5
3385B
102
{ACAD_REACTORS
330
3385A
102
}
330
3385A
100
AcDbXrecord
 90
        1
  0
XRECORD
  5
3385C
102
{ACAD_REACTORS
330
3385A
102
}
330
3385A
100
AcDbXrecord
 90
       70
  0
XRECORD
  5
33872
102
{ACAD_REACTORS
330
3385A
102
}
330
3385A
100
AcDbXrecord
340
0
  0
XRECORD
  5
33878
102
{ACAD_REACTORS
330
3385A
102
}
330
3385A
100
AcDbXrecord
 10
0.0
 20
0.0
 30
0.0
  0
XRECORD
  5
33874
102
{ACAD_REACTORS
330
3385A
102
}
330
3385A
100
AcDbXrecord
 10
0.0
 20
0.0
 30
0.0
  0
XRECORD
  5
33877
102
{ACAD_REACTORS
330
3385A
102
}
330
3385A
100
AcDbXrecord
 10
0.0
 20
0.0
 30
0.0
  0
XRECORD
  5
33875
102
{ACAD_REACTORS
330
3385A
102
}
330
3385A
100
AcDbXrecord
 10
0.0
 20
0.0
 30
0.0
  0
XRECORD
  5
33876
102
{ACAD_REACTORS
330
3385A
102
}
330
3385A
100
AcDbXrecord
 10
0.0
 20
0.0
 30
0.0
  0
XRECORD
  5
33873
102
{ACAD_REACTORS
330
3385A
102
}
330
3385A
100
AcDbXrecord
 10
0.0
 20
0.0
 30
0.0
  0
XRECORD
  5
33870
102
{ACAD_REACTORS
330
3385A
102
}
330
3385A
100
AcDbXrecord
340
0
  0
XRECORD
  5
33871
102
{ACAD_REACTORS
330
3385A
102
}
330
3385A
100
AcDbXrecord
 70
     0
  0
XRECORD
  5
33865
102
{ACAD_REACTORS
330
3385A
102
}
330
3385A
100
AcDbXrecord
  1

  0
ENDSEC
  0
EOF
